  0
SECTION
  2
HEADER
  9
$ACADVER
  1
AC1014
  9
$ACADMAINTVER
 70
     9
  9
$DWGCODEPAGE
  3
ANSI_1252
  9
$INSBASE
 10
421.0218958999721
 20
357.7769748938917
 30
0.0
  9
$EXTMIN
 10
-18787.02013668885
 20
3535.891390512821
 30
0.0
  9
$EXTMAX
 10
-16968.89754914593
 20
5896.851113222137
 30
0.0
  9
$LIMMIN
 10
9749.260046900117
 20
-1602.70564605534
  9
$LIMMAX
 10
11438.24325486453
 20
-732.5285748461251
  9
$ORTHOMODE
 70
     1
  9
$REGENMODE
 70
     1
  9
$FILLMODE
 70
     1
  9
$QTEXTMODE
 70
     0
  9
$MIRRTEXT
 70
     1
  9
$DRAGMODE
 70
     2
  9
$LTSCALE
 40
5.0
  9
$OSMODE
 70
   128
  9
$ATTMODE
 70
     1
  9
$TEXTSIZE
 40
40.0
  9
$TRACEWID
 40
1.0
  9
$TEXTSTYLE
  7
ROMANS8
  9
$CLAYER
  8
VLB
  9
$CELTYPE
  6
BYLAYER
  9
$CECOLOR
 62
   256
  9
$CELTSCALE
 40
1.0
  9
$DELOBJ
 70
     1
  9
$DISPSILH
 70
     0
  9
$DIMSCALE
 40
20.0
  9
$DIMASZ
 40
3.5
  9
$DIMEXO
 40
0.1
  9
$DIMDLI
 40
7.0
  9
$DIMRND
 40
0.0
  9
$DIMDLE
 40
0.0
  9
$DIMEXE
 40
1.8
  9
$DIMTP
 40
0.0
  9
$DIMTM
 40
0.0
  9
$DIMTXT
 40
3.5
  9
$DIMCEN
 40
0.0
  9
$DIMTSZ
 40
0.0
  9
$DIMTOL
 70
     0
  9
$DIMLIM
 70
     0
  9
$DIMTIH
 70
     0
  9
$DIMTOH
 70
     0
  9
$DIMSE1
 70
     0
  9
$DIMSE2
 70
     0
  9
$DIMTAD
 70
     1
  9
$DIMZIN
 70
     8
  9
$DIMBLK
  1

  9
$DIMASO
 70
     1
  9
$DIMSHO
 70
     0
  9
$DIMPOST
  1

  9
$DIMAPOST
  1

  9
$DIMALT
 70
     0
  9
$DIMALTD
 70
     2
  9
$DIMALTF
 40
25.4
  9
$DIMLFAC
 40
1.0
  9
$DIMTOFL
 70
     0
  9
$DIMTVP
 40
0.0
  9
$DIMTIX
 70
     0
  9
$DIMSOXD
 70
     0
  9
$DIMSAH
 70
     0
  9
$DIMBLK1
  1

  9
$DIMBLK2
  1

  9
$DIMSTYLE
  2
1_20
  9
$DIMCLRD
 70
   256
  9
$DIMCLRE
 70
   256
  9
$DIMCLRT
 70
   256
  9
$DIMTFAC
 40
1.0
  9
$DIMGAP
 40
1.7
  9
$DIMJUST
 70
     0
  9
$DIMSD1
 70
     0
  9
$DIMSD2
 70
     0
  9
$DIMTOLJ
 70
     1
  9
$DIMTZIN
 70
     8
  9
$DIMALTZ
 70
     0
  9
$DIMALTTZ
 70
     0
  9
$DIMFIT
 70
     3
  9
$DIMUPT
 70
     1
  9
$DIMUNIT
 70
     2
  9
$DIMDEC
 70
     4
  9
$DIMTDEC
 70
     4
  9
$DIMALTU
 70
     2
  9
$DIMALTTD
 70
     2
  9
$DIMTXSTY
  7
ROMANS
  9
$DIMAUNIT
 70
     0
  9
$LUNITS
 70
     2
  9
$LUPREC
 70
     2
  9
$SKETCHINC
 40
1.0
  9
$FILLETRAD
 40
0.0
  9
$AUNITS
 70
     0
  9
$AUPREC
 70
     2
  9
$MENU
  1
ACAD
  9
$ELEVATION
 40
0.0
  9
$PELEVATION
 40
0.0
  9
$THICKNESS
 40
0.0
  9
$LIMCHECK
 70
     0
  9
$BLIPMODE
 70
     0
  9
$CHAMFERA
 40
15.0
  9
$CHAMFERB
 40
15.0
  9
$CHAMFERC
 40
0.0
  9
$CHAMFERD
 40
0.0
  9
$SKPOLY
 70
     0
  9
$TDCREATE
 40
2453677.393372893
  9
$TDUPDATE
 40
2453682.578352106
  9
$TDINDWG
 40
0.4897558681
  9
$TDUSRTIMER
 40
0.4897537847
  9
$USRTIMER
 70
     1
  9
$ANGBASE
 50
0.0
  9
$ANGDIR
 70
     0
  9
$PDMODE
 70
     2
  9
$PDSIZE
 40
2.0
  9
$PLINEWID
 40
0.0
  9
$COORDS
 70
     0
  9
$SPLFRAME
 70
     0
  9
$SPLINETYPE
 70
     6
  9
$SPLINESEGS
 70
     8
  9
$ATTDIA
 70
     0
  9
$ATTREQ
 70
     1
  9
$HANDLING
 70
 22529
  9
$HANDSEED
  5
1FE74
  9
$SURFTAB1
 70
     6
  9
$SURFTAB2
 70
     6
  9
$SURFTYPE
 70
     6
  9
$SURFU
 70
     6
  9
$SURFV
 70
     6
  9
$UCSNAME
  2

  9
$UCSORG
 10
10154.57763192681
 20
-1347.460051185509
 30
0.0
  9
$UCSXDIR
 10
1.0
 20
0.0
 30
0.0
  9
$UCSYDIR
 10
0.0
 20
1.0
 30
0.0
  9
$PUCSNAME
  2

  9
$PUCSORG
 10
0.0
 20
0.0
 30
0.0
  9
$PUCSXDIR
 10
1.0
 20
0.0
 30
0.0
  9
$PUCSYDIR
 10
0.0
 20
1.0
 30
0.0
  9
$USERI1
 70
     0
  9
$USERI2
 70
     0
  9
$USERI3
 70
     0
  9
$USERI4
 70
     0
  9
$USERI5
 70
     0
  9
$USERR1
 40
0.0
  9
$USERR2
 40
0.0
  9
$USERR3
 40
0.0
  9
$USERR4
 40
0.0
  9
$USERR5
 40
0.0
  9
$WORLDVIEW
 70
     1
  9
$SHADEDGE
 70
     3
  9
$SHADEDIF
 70
    70
  9
$TILEMODE
 70
     1
  9
$MAXACTVP
 70
    16
  9
$PINSBASE
 10
0.0
 20
0.0
 30
0.0
  9
$PLIMCHECK
 70
     0
  9
$PEXTMIN
 10
-559.9955194189885
 20
-11.99914987354685
 30
0.0
  9
$PEXTMAX
 10
898.8167291158939
 20
692.004025362777
 30
5.0
  9
$PLIMMIN
 10
-581.4504078847034
 20
-42.42333302514301
  9
$PLIMMAX
 10
920.2716460794404
 20
1019.530090726515
  9
$UNITMODE
 70
     1
  9
$VISRETAIN
 70
     0
  9
$PLINEGEN
 70
     0
  9
$PSLTSCALE
 70
     0
  9
$TREEDEPTH
 70
  3020
  9
$PICKSTYLE
 70
     1
  9
$CMLSTYLE
  2
STANDARD
  9
$CMLJUST
 70
     0
  9
$CMLSCALE
 40
1.0
  9
$PROXYGRAPHICS
 70
     1
  9
$MEASUREMENT
 70
     1
  0
ENDSEC
  0
SECTION
  2
CLASSES
  0
CLASS
  1
IDBUFFER
  2
AcDbIdBuffer
  3
AutoCAD 2000
 90
        0
280
     0
281
     0
  0
CLASS
  1
LWPOLYLINE
  2
AcDbPolyline
  3
AutoCAD 2000
 90
        0
280
     0
281
     1
  0
CLASS
  1
DICTIONARYVAR
  2
AcDbDictionaryVar
  3
AutoCAD 2000
 90
        0
280
     0
281
     0
  0
CLASS
  1
HATCH
  2
AcDbHatch
  3
AutoCAD 2000
 90
        0
280
     0
281
     1
  0
CLASS
  1
ACDBDICTIONARYWDFLT
  2
AcDbDictionaryWithDefault
  3
AutoCAD 2000
 90
        0
280
     0
281
     0
  0
CLASS
  1
ACDBPLACEHOLDER
  2
AcDbPlaceHolder
  3
AutoCAD 2000
 90
        0
280
     0
281
     0
  0
CLASS
  1
LAYOUT
  2
AcDbLayout
  3
AutoCAD 2000
 90
        0
280
     0
281
     0
  0
CLASS
  1
LONG_TRANSACTION
  2
AcDbLongTransaction
  3
AutoCAD 2000
 90
        0
280
     0
281
     0
  0
CLASS
  1
LWPOLYLINE
  2
AcDbPolyline
  3
AutoCAD 2000
 90
        0
280
     0
281
     1
  0
CLASS
  1
HATCH
  2
AcDbHatch
  3
AutoCAD 2000
 90
        0
280
     0
281
     1
  0
CLASS
  1
XRECORD
  2
AcDbXrecord
  3
AutoCAD 2000
 90
        0
280
     0
281
     0
  0
ENDSEC
  0
SECTION
  2
TABLES
  0
TABLE
  2
VPORT
  5
12
330
0
100
AcDbSymbolTable
 70
     2
  0
VPORT
  5
1FE4E
330
12
100
AcDbSymbolTableRecord
100
AcDbViewportTableRecord
  2
*ACTIVE
 70
     0
 10
0.0
 20
0.0
 11
1.0
 21
1.0
 12
-17878.22367304446
 22
4741.488754052023
 13
0.0
 23
0.0
 14
1.0
 24
1.0
 15
10.0
 25
10.0
 16
0.0
 26
0.0
 36
1.0
 17
0.0
 27
0.0
 37
0.0
 40
2434.932400036092
 41
1.714968152866241
 42
50.0
 43
0.0
 44
0.0
 50
0.0
 51
0.0
 71
     0
 72
  1000
 73
     1
 74
     1
 75
     0
 76
     0
 77
     0
 78
     0
  0
ENDTAB
  0
TABLE
  2
LTYPE
  5
D
330
0
100
AcDbSymbolTable
 70
     3
  0
LTYPE
  5
E
330
D
100
AcDbSymbolTableRecord
100
AcDbLinetypeTableRecord
  2
BYBLOCK
 70
     0
  3

 72
    65
 73
     0
 40
0.0
  0
LTYPE
  5
F
330
D
100
AcDbSymbolTableRecord
100
AcDbLinetypeTableRecord
  2
BYLAYER
 70
     0
  3

 72
    65
 73
     0
 40
0.0
  0
LTYPE
  5
5
330
D
100
AcDbSymbolTableRecord
100
AcDbLinetypeTableRecord
  2
AUSGEZOGEN
 70
     0
  3
Ausgezogene Linie
 72
    65
 73
     0
 40
0.0
  0
LTYPE
  5
21
330
D
100
AcDbSymbolTableRecord
100
AcDbLinetypeTableRecord
  2
MLA3
 70
     0
  3
------ - -------
 72
    65
 73
     4
 40
15.0
 49
10.0
 74
     0
 49
-2.0
 74
     0
 49
1.0
 74
     0
 49
-2.0
 74
     0
  0
LTYPE
  5
540
330
D
100
AcDbSymbolTableRecord
100
AcDbLinetypeTableRecord
  2
CONTINUOUS
 70
     0
  3
Solid line
 72
    65
 73
     0
 40
0.0
  0
ENDTAB
  0
TABLE
  2
LAYER
  5
A
330
0
100
AcDbSymbolTable
 70
     5
  0
LAYER
  5
4
330
A
100
AcDbSymbolTableRecord
100
AcDbLayerTableRecord
  2
0
 70
     0
 62
     7
  6
AUSGEZOGEN
  0
LAYER
  5
1B
330
A
100
AcDbSymbolTableRecord
100
AcDbLayerTableRecord
  2
VLB
 70
     0
 62
     7
  6
AUSGEZOGEN
  0
LAYER
  5
20
330
A
100
AcDbSymbolTableRecord
100
AcDbLayerTableRecord
  2
SPS
 70
     0
 62
     1
  6
MLA3
  0
LAYER
  5
5B
330
A
100
AcDbSymbolTableRecord
100
AcDbLayerTableRecord
  2
VLS
 70
     0
 62
   252
  6
AUSGEZOGEN
  0
LAYER
  5
73C
330
A
100
AcDbSymbolTableRecord
100
AcDbLayerTableRecord
  2
DEFPOINTS
 70
     0
 62
     7
  6
AUSGEZOGEN
  0
ENDTAB
  0
TABLE
  2
STYLE
  5
B
330
0
100
AcDbSymbolTable
 70
     3
  0
STYLE
  5
C
330
B
100
AcDbSymbolTableRecord
100
AcDbTextStyleTableRecord
  2
STANDARD
 70
     0
 40
0.0
 41
1.0
 50
0.0
 71
     0
 42
3.0
  3
txt
  4

  0
STYLE
  5
1C
330
B
100
AcDbSymbolTableRecord
100
AcDbTextStyleTableRecord
  2
ROMANS
 70
     0
 40
0.0
 41
1.0
 50
0.0
 71
     0
 42
3.5
  3
romans.shx
  4

  0
STYLE
  5
1451
330
B
100
AcDbSymbolTableRecord
100
AcDbTextStyleTableRecord
  2
ROMANS8
 70
     0
 40
0.0
 41
1.0
 50
0.0
 71
     0
 42
40.0
  3
simplex.shx
  4

  0
ENDTAB
  0
TABLE
  2
VIEW
  5
10
330
0
100
AcDbSymbolTable
 70
     0
  0
ENDTAB
  0
TABLE
  2
UCS
  5
11
330
0
100
AcDbSymbolTable
 70
     0
  0
ENDTAB
  0
TABLE
  2
APPID
  5
14
330
0
100
AcDbSymbolTable
 70
     6
  0
APPID
  5
15
330
14
100
AcDbSymbolTableRecord
100
AcDbRegAppTableRecord
  2
ACAD
 70
     0
  0
APPID
  5
81B
330
14
100
AcDbSymbolTableRecord
100
AcDbRegAppTableRecord
  2
CONTENTTABDATA
 70
     0
  0
APPID
  5
81C
330
14
100
AcDbSymbolTableRecord
100
AcDbRegAppTableRecord
  2
CONTENTCURRENTTAB
 70
     0
  0
APPID
  5
9B6
330
14
100
AcDbSymbolTableRecord
100
AcDbRegAppTableRecord
  2
CONTENTBLOCKDESCRIPTION
 70
     0
  0
APPID
  5
B5D
330
14
100
AcDbSymbolTableRecord
100
AcDbRegAppTableRecord
  2
CONTENTBLOCKICON
 70
     0
  0
APPID
  5
1453
330
14
100
AcDbSymbolTableRecord
100
AcDbRegAppTableRecord
  2
AVE_RENDER
 70
     0
  0
ENDTAB
  0
TABLE
  2
DIMSTYLE
  5
16
330
0
100
AcDbSymbolTable
 70
     2
  0
DIMSTYLE
105
1E
330
16
100
AcDbSymbolTableRecord
100
AcDbDimStyleTableRecord
  2
STANDARD
 70
     0
  3

  4

  5

  6

  7

 40
3.0
 41
3.5
 42
0.1
 43
7.0
 44
1.8
 45
0.0
 46
0.0
 47
0.0
 48
0.0
140
3.5
141
0.0
142
0.0
143
25.4
144
1.0
145
0.0
146
1.0
147
1.7
 71
     0
 72
     0
 73
     0
 74
     0
 75
     0
 76
     0
 77
     1
 78
     8
170
     0
171
     2
172
     0
173
     0
174
     0
175
     0
176
   256
177
   256
178
   256
270
     2
271
     2
272
     2
273
     2
274
     2
340
1C
275
     0
280
     0
281
     0
282
     0
283
     1
284
     0
285
     0
286
     0
287
     3
288
     1
  0
DIMSTYLE
105
955B
330
16
100
AcDbSymbolTableRecord
100
AcDbDimStyleTableRecord
  2
1_20
 70
     0
  3

  4

  5

  6

  7

 40
20.0
 41
3.5
 42
0.1
 43
7.0
 44
1.8
 45
0.0
 46
0.0
 47
0.0
 48
0.0
140
3.5
141
0.0
142
0.0
143
25.4
144
1.0
145
0.0
146
1.0
147
1.7
 71
     0
 72
     0
 73
     0
 74
     0
 75
     0
 76
     0
 77
     1
 78
     8
170
     0
171
     2
172
     0
173
     0
174
     0
175
     0
176
   256
177
   256
178
   256
270
     2
271
     4
272
     4
273
     2
274
     2
340
1C
275
     0
280
     0
281
     0
282
     0
283
     1
284
     8
285
     0
286
     0
287
     3
288
     1
  0
ENDTAB
  0
TABLE
  2
BLOCK_RECORD
  5
1
330
0
100
AcDbSymbolTable
 70
     0
  0
BLOCK_RECORD
  5
2
102
{ACAD_XDICTIONARY
360
1FE70
102
}
330
1
100
AcDbSymbolTableRecord
100
AcDbBlockTableRecord
  2
*MODEL_SPACE
  0
BLOCK_RECORD
  5
7
102
{ACAD_XDICTIONARY
360
1FE72
102
}
330
1
100
AcDbSymbolTableRecord
100
AcDbBlockTableRecord
  2
*PAPER_SPACE
  0
ENDTAB
  0
ENDSEC
  0
SECTION
  2
BLOCKS
  0
BLOCK
  5
3
330
2
100
AcDbEntity
  8
0
100
AcDbBlockBegin
  2
*MODEL_SPACE
 70
     2
 10
0.0
 20
0.0
 30
0.0
  3
*MODEL_SPACE
  1

  0
ENDBLK
  5
6
330
2
100
AcDbEntity
  8
0
100
AcDbBlockEnd
  0
BLOCK
  5
8
330
7
100
AcDbEntity
 67
     1
  8
0
100
AcDbBlockBegin
  2
*PAPER_SPACE
 70
     2
 10
0.0
 20
0.0
 30
0.0
  3
*PAPER_SPACE
  1

  0
ENDBLK
  5
9
330
7
100
AcDbEntity
 67
     1
  8
0
100
AcDbBlockEnd
  0
ENDSEC
  0
SECTION
  2
ENTITIES
  0
LINE
  5
1798B
330
2
100
AcDbEntity
  8
SPS
100
AcDbLine
 10
-18459.02013668885
 20
5220.619109769173
 30
0.0
 11
-18459.02013668885
 21
4501.360404006809
 31
0.0
  0
LINE
  5
1798C
330
2
100
AcDbEntity
  8
VLB
100
AcDbLine
 10
-18772.02013668885
 20
4520.86040400681
 30
0.0
 11
-18146.02013668885
 21
4520.86040400681
 31
0.0
  0
LINE
  5
1798D
330
2
100
AcDbEntity
  8
VLB
100
AcDbLine
 10
-18772.02013668885
 20
5175.860404006811
 30
0.0
 11
-18146.02013668885
 21
5175.860404006811
 31
0.0
  0
LINE
  5
1798E
330
2
100
AcDbEntity
  8
VLB
100
AcDbLine
 10
-18772.02013668885
 20
5175.860404006811
 30
0.0
 11
-18772.02013668885
 21
4520.86040400681
 31
0.0
  0
LINE
  5
1798F
330
2
100
AcDbEntity
  8
VLB
100
AcDbLine
 10
-18146.02013668885
 20
5175.860404006809
 30
0.0
 11
-18146.02013668885
 21
4520.86040400681
 31
0.0
  0
LINE
  5
17991
330
2
100
AcDbEntity
  8
VLB
100
AcDbLine
 10
-18664.02013668885
 20
5213.86040400681
 30
0.0
 11
-18664.02013668885
 21
5175.860404006811
 31
0.0
  0
LINE
  5
17992
330
2
100
AcDbEntity
  8
VLB
100
AcDbLine
 10
-18254.02013668885
 20
5213.86040400681
 30
0.0
 11
-18254.02013668885
 21
5175.860404006811
 31
0.0
  0
LINE
  5
17EB7
330
2
100
AcDbEntity
  8
VLB
100
AcDbLine
 10
-18679.52013668885
 20
4516.360404006809
 30
0.0
 11
-18238.52013668885
 21
4516.360404006809
 31
0.0
  0
LINE
  5
17EB8
330
2
100
AcDbEntity
  8
VLB
100
AcDbLine
 10
-18238.52013668886
 20
4520.86040400681
 30
0.0
 11
-18238.52013668885
 21
4516.360404006809
 31
0.0
  0
LINE
  5
17EB9
330
2
100
AcDbEntity
  8
VLB
100
AcDbLine
 10
-18679.52013668885
 20
4520.86040400681
 30
0.0
 11
-18679.52013668885
 21
4516.360404006809
 31
0.0
  0
LINE
  5
17EBA
330
2
100
AcDbEntity
  8
VLB
100
AcDbLine
 10
-18664.02013668885
 20
5198.86040400681
 30
0.0
 11
-18540.52013668885
 21
5198.86040400681
 31
0.0
  0
ARC
  5
19902
330
2
100
AcDbEntity
  8
VLB
100
AcDbCircle
 10
-18774.80342937435
 20
4541.62320400681
 30
0.0
 40
3.373272
100
AcDbArc
 50
149.9999999999727
 51
214.5650930000803
  0
LINE
  5
19903
330
2
100
AcDbEntity
  8
VLB
100
AcDbLine
 10
-18773.51003537435
 20
4539.709405006808
 30
0.0
 11
-18777.58125837435
 21
4539.709405006808
 31
0.0
  0
LINE
  5
19904
330
2
100
AcDbEntity
  8
VLB
100
AcDbLine
 10
-18773.51003537435
 20
4543.55840600681
 30
0.0
 11
-18777.58125837435
 21
4543.55840600681
 31
0.0
  0
LINE
  5
19905
330
2
100
AcDbEntity
  8
VLB
100
AcDbLine
 10
-18772.84336837435
 20
4541.79373600681
 30
0.0
 11
-18773.51003537435
 21
4541.79373600681
 31
0.0
  0
LINE
  5
19906
330
2
100
AcDbEntity
  8
VLB
100
AcDbLine
 10
-18772.04336837435
 20
4543.360403006812
 30
0.0
 11
-18772.84336837435
 21
4543.360403006812
 31
0.0
1001
ACAD
1000
ASC_BOUNDS
1002
{
1070
    16
1002
}
  0
LINE
  5
19907
330
2
100
AcDbEntity
  8
VLB
100
AcDbLine
 10
-18778.17670137435
 20
4542.52707000681
 30
0.0
 11
-18777.58125837435
 21
4543.55840600681
 31
0.0
  0
LINE
  5
19908
330
2
100
AcDbEntity
  8
VLB
100
AcDbLine
 10
-18773.51003537435
 20
4536.860404006812
 30
0.0
 11
-18773.51003537435
 21
4543.55840600681
 31
0.0
  0
LINE
  5
19909
330
2
100
AcDbEntity
  8
VLB
100
AcDbLine
 10
-18772.84336837435
 20
4543.360403006812
 30
0.0
 11
-18772.84336837435
 21
4536.860404006812
 31
0.0
  0
LINE
  5
1990A
330
2
100
AcDbEntity
  8
VLB
100
AcDbLine
 10
-18772.84336837435
 20
4537.942311006813
 30
0.0
 11
-18772.84336837435
 21
4541.79373600681
 31
0.0
  0
ARC
  5
1990B
330
2
100
AcDbEntity
  8
VLB
100
AcDbCircle
 10
-18765.43881237435
 20
4535.860404006809
 30
0.0
 40
12.737889
100
AcDbArc
 50
162.4120459999403
 51
175.4973080000216
  0
LINE
  5
1990C
330
2
100
AcDbEntity
  8
VLB
100
AcDbLine
 10
-18778.17670137435
 20
4536.860404006812
 30
0.0
 11
-18778.17670137435
 21
4542.52707000681
 31
0.0
  0
LINE
  5
1990D
330
2
100
AcDbEntity
  8
SPS
100
AcDbLine
 10
-18766.67818630284
 20
4535.860404006809
 30
0.0
 11
-18780.2216882172
 21
4535.860404006809
 31
0.0
  0
LINE
  5
1990E
330
2
100
AcDbEntity
  8
VLB
100
AcDbLine
 10
-18773.51003537435
 20
4532.01140200681
 30
0.0
 11
-18777.58125837435
 21
4532.01140200681
 31
0.0
  0
LINE
  5
1990F
330
2
100
AcDbEntity
  8
VLB
100
AcDbLine
 10
-18773.51003537435
 20
4528.162401006808
 30
0.0
 11
-18777.58125837435
 21
4528.162401006808
 31
0.0
  0
LINE
  5
19910
330
2
100
AcDbEntity
  8
VLB
100
AcDbLine
 10
-18772.84336837435
 20
4528.360404006809
 30
0.0
 11
-18772.04336837435
 21
4528.360404006809
 31
0.0
  0
LINE
  5
19911
330
2
100
AcDbEntity
  8
VLB
100
AcDbLine
 10
-18772.04336837435
 20
4528.360404006809
 30
0.0
 11
-18772.84336837435
 21
4528.360404006809
 31
0.0
1001
ACAD
1000
ASC_BOUNDS
1002
{
1070
    16
1002
}
  0
LINE
  5
19912
330
2
100
AcDbEntity
  8
VLB
100
AcDbLine
 10
-18772.84336837435
 20
4529.927071006812
 30
0.0
 11
-18773.51003537435
 21
4529.927071006812
 31
0.0
  0
LINE
  5
19913
330
2
100
AcDbEntity
  8
VLB
100
AcDbLine
 10
-18778.17670137435
 20
4529.193738006808
 30
0.0
 11
-18777.58125837435
 21
4528.162401006808
 31
0.0
  0
ARC
  5
19914
330
2
100
AcDbEntity
  8
VLB
100
AcDbCircle
 10
-18774.80342937435
 20
4530.097603006808
 30
0.0
 40
3.373272
100
AcDbArc
 50
145.4349069999197
 51
210.0000000000272
  0
ARC
  5
19915
330
2
100
AcDbEntity
  8
VLB
100
AcDbCircle
 10
-18765.43881237435
 20
4535.860404006809
 30
0.0
 40
12.737889
100
AcDbArc
 50
175.4973080000216
 51
197.5879540000596
  0
LINE
  5
19916
330
2
100
AcDbEntity
  8
VLB
100
AcDbLine
 10
-18772.84336837435
 20
4529.927071006812
 30
0.0
 11
-18772.84336837435
 21
4536.860404006812
 31
0.0
  0
LINE
  5
19917
330
2
100
AcDbEntity
  8
VLB
100
AcDbLine
 10
-18773.51003537435
 20
4528.162401006808
 30
0.0
 11
-18773.51003537435
 21
4536.860404006812
 31
0.0
  0
LINE
  5
19918
330
2
100
AcDbEntity
  8
VLB
100
AcDbLine
 10
-18778.17670137435
 20
4529.193738006808
 30
0.0
 11
-18778.17670137435
 21
4536.860404006812
 31
0.0
  0
LINE
  5
19919
330
2
100
AcDbEntity
  8
VLB
100
AcDbLine
 10
-18772.84336837435
 20
4535.860404006809
 30
0.0
 11
-18772.84336837435
 21
4528.360404006809
 31
0.0
  0
LINE
  5
1991A
330
2
100
AcDbEntity
  8
SPS
100
AcDbLine
 10
-18151.36208707487
 20
4535.860404006809
 30
0.0
 11
-18137.8185851605
 21
4535.860404006809
 31
0.0
  0
LINE
  5
1991B
330
2
100
AcDbEntity
  8
VLB
100
AcDbLine
 10
-18145.19690500335
 20
4535.860404006809
 30
0.0
 11
-18145.19690500335
 21
4528.360404006809
 31
0.0
  0
LINE
  5
1991C
330
2
100
AcDbEntity
  8
VLB
100
AcDbLine
 10
-18139.86357200336
 20
4529.193738006808
 30
0.0
 11
-18139.86357200336
 21
4536.860404006812
 31
0.0
  0
LINE
  5
1991D
330
2
100
AcDbEntity
  8
VLB
100
AcDbLine
 10
-18144.53023800336
 20
4528.162401006808
 30
0.0
 11
-18144.53023800336
 21
4536.860404006812
 31
0.0
  0
LINE
  5
1991E
330
2
100
AcDbEntity
  8
VLB
100
AcDbLine
 10
-18145.19690500335
 20
4529.927071006812
 30
0.0
 11
-18145.19690500335
 21
4536.860404006812
 31
0.0
  0
ARC
  5
1991F
330
2
100
AcDbEntity
  8
VLB
100
AcDbCircle
 10
-18152.60146100336
 20
4535.860404006809
 30
0.0
 40
12.737889
100
AcDbArc
 50
342.4120459999404
 51
4.502691999978413
  0
ARC
  5
19920
330
2
100
AcDbEntity
  8
VLB
100
AcDbCircle
 10
-18143.23684400336
 20
4530.097603006808
 30
0.0
 40
3.373272
100
AcDbArc
 50
329.9999999999727
 51
34.56509300008031
  0
LINE
  5
19921
330
2
100
AcDbEntity
  8
VLB
100
AcDbLine
 10
-18139.86357200336
 20
4529.193738006808
 30
0.0
 11
-18140.45901500336
 21
4528.162401006808
 31
0.0
  0
LINE
  5
19922
330
2
100
AcDbEntity
  8
VLB
100
AcDbLine
 10
-18145.19690500335
 20
4529.927071006812
 30
0.0
 11
-18144.53023800336
 21
4529.927071006812
 31
0.0
  0
LINE
  5
19923
330
2
100
AcDbEntity
  8
VLB
100
AcDbLine
 10
-18145.99690500335
 20
4528.360404006809
 30
0.0
 11
-18145.19690500335
 21
4528.360404006809
 31
0.0
1001
ACAD
1000
ASC_BOUNDS
1002
{
1070
    16
1002
}
  0
LINE
  5
19924
330
2
100
AcDbEntity
  8
VLB
100
AcDbLine
 10
-18145.19690500335
 20
4528.360404006809
 30
0.0
 11
-18145.99690500335
 21
4528.360404006809
 31
0.0
  0
LINE
  5
19925
330
2
100
AcDbEntity
  8
VLB
100
AcDbLine
 10
-18144.53023800336
 20
4528.162401006808
 30
0.0
 11
-18140.45901500336
 21
4528.162401006808
 31
0.0
  0
LINE
  5
19926
330
2
100
AcDbEntity
  8
VLB
100
AcDbLine
 10
-18144.53023800336
 20
4532.01140200681
 30
0.0
 11
-18140.45901500336
 21
4532.01140200681
 31
0.0
  0
LINE
  5
19927
330
2
100
AcDbEntity
  8
VLB
100
AcDbLine
 10
-18139.86357200336
 20
4536.860404006812
 30
0.0
 11
-18139.86357200336
 21
4542.52707000681
 31
0.0
  0
ARC
  5
19928
330
2
100
AcDbEntity
  8
VLB
100
AcDbCircle
 10
-18152.60146100336
 20
4535.860404006809
 30
0.0
 40
12.737889
100
AcDbArc
 50
4.502691999978413
 51
17.58795400005962
  0
LINE
  5
19929
330
2
100
AcDbEntity
  8
VLB
100
AcDbLine
 10
-18145.19690500335
 20
4537.942311006813
 30
0.0
 11
-18145.19690500335
 21
4541.79373600681
 31
0.0
  0
LINE
  5
1992A
330
2
100
AcDbEntity
  8
VLB
100
AcDbLine
 10
-18145.19690500335
 20
4543.360403006812
 30
0.0
 11
-18145.19690500335
 21
4536.860404006812
 31
0.0
  0
LINE
  5
1992B
330
2
100
AcDbEntity
  8
VLB
100
AcDbLine
 10
-18144.53023800336
 20
4536.860404006812
 30
0.0
 11
-18144.53023800336
 21
4543.55840600681
 31
0.0
  0
LINE
  5
1992C
330
2
100
AcDbEntity
  8
VLB
100
AcDbLine
 10
-18139.86357200336
 20
4542.52707000681
 30
0.0
 11
-18140.45901500336
 21
4543.55840600681
 31
0.0
  0
LINE
  5
1992D
330
2
100
AcDbEntity
  8
VLB
100
AcDbLine
 10
-18145.99690500335
 20
4543.360403006812
 30
0.0
 11
-18145.19690500335
 21
4543.360403006812
 31
0.0
1001
ACAD
1000
ASC_BOUNDS
1002
{
1070
    16
1002
}
  0
LINE
  5
1992E
330
2
100
AcDbEntity
  8
VLB
100
AcDbLine
 10
-18145.19690500335
 20
4541.79373600681
 30
0.0
 11
-18144.53023800336
 21
4541.79373600681
 31
0.0
  0
LINE
  5
1992F
330
2
100
AcDbEntity
  8
VLB
100
AcDbLine
 10
-18144.53023800336
 20
4543.55840600681
 30
0.0
 11
-18140.45901500336
 21
4543.55840600681
 31
0.0
  0
LINE
  5
19930
330
2
100
AcDbEntity
  8
VLB
100
AcDbLine
 10
-18144.53023800336
 20
4539.709405006808
 30
0.0
 11
-18140.45901500336
 21
4539.709405006808
 31
0.0
  0
ARC
  5
19931
330
2
100
AcDbEntity
  8
VLB
100
AcDbCircle
 10
-18143.23684400336
 20
4541.62320400681
 30
0.0
 40
3.373272
100
AcDbArc
 50
325.4349069999197
 51
30.00000000002724
  0
CIRCLE
  5
19932
330
2
100
AcDbEntity
  8
VLB
100
AcDbCircle
 10
-18761.94532458672
 20
4559.54819458651
 30
0.0
 40
5.000000000001818
  0
LINE
  5
19933
330
2
100
AcDbEntity
  8
SPS
100
AcDbLine
 10
-18761.94532458672
 20
4552.139951732549
 30
0.0
 11
-18761.94532458672
 21
4568.032803810392
 31
0.0
  0
CIRCLE
  5
19934
330
2
100
AcDbEntity
  8
VLB
100
AcDbCircle
 10
-18761.94532458672
 20
4559.54819458651
 30
0.0
 40
2.550000000006548
  0
ARC
  5
19935
330
2
100
AcDbEntity
  8
VLB
100
AcDbCircle
 10
-18761.02013668885
 20
4559.54819458651
 30
0.0
 40
12.99999999999925
100
AcDbArc
 50
157.3801350519214
 51
202.6198649480785
  0
LINE
  5
19936
330
2
100
AcDbEntity
  8
VLB
100
AcDbLine
 10
-18773.02013668885
 20
4554.548194586511
 30
0.0
 11
-18772.02013668885
 21
4554.548194586513
 31
0.0
  0
LINE
  5
19937
330
2
100
AcDbEntity
  8
VLB
100
AcDbLine
 10
-18773.02013668885
 20
4564.548194586511
 30
0.0
 11
-18772.02013668885
 21
4564.548194586509
 31
0.0
  0
LINE
  5
19938
330
2
100
AcDbEntity
  8
SPS
100
AcDbLine
 10
-18763.22543217912
 20
4559.54819458651
 30
0.0
 11
-18776.26462278513
 21
4559.54819458651
 31
0.0
  0
LINE
  5
19939
330
2
100
AcDbEntity
  8
SPS
100
AcDbLine
 10
-18768.2566811438
 20
4559.54819458651
 30
0.0
 11
-18754.91599499916
 21
4559.54819458651
 31
0.0
  0
LINE
  5
1993A
330
2
100
AcDbEntity
  8
SPS
100
AcDbLine
 10
-18459.02013668885
 20
4552.139951732549
 30
0.0
 11
-18459.02013668885
 21
4568.032803810392
 31
0.0
  0
CIRCLE
  5
1993B
330
2
100
AcDbEntity
  8
VLB
100
AcDbCircle
 10
-18459.02013668885
 20
4559.54819458651
 30
0.0
 40
5.000000000001818
  0
LINE
  5
1993C
330
2
100
AcDbEntity
  8
SPS
100
AcDbLine
 10
-18465.33149324593
 20
4559.54819458651
 30
0.0
 11
-18451.99080710129
 21
4559.54819458651
 31
0.0
  0
CIRCLE
  5
1993D
330
2
100
AcDbEntity
  8
VLB
100
AcDbCircle
 10
-18459.02013668885
 20
4559.54819458651
 30
0.0
 40
2.550000000006548
  0
LINE
  5
1993E
330
2
100
AcDbEntity
  8
SPS
100
AcDbLine
 10
-18156.09494879098
 20
4552.139951732549
 30
0.0
 11
-18156.09494879098
 21
4568.032803810392
 31
0.0
  0
CIRCLE
  5
1993F
330
2
100
AcDbEntity
  8
VLB
100
AcDbCircle
 10
-18156.09494879098
 20
4559.54819458651
 30
0.0
 40
2.550000000006548
  0
LINE
  5
19940
330
2
100
AcDbEntity
  8
SPS
100
AcDbLine
 10
-18149.78359223391
 20
4559.54819458651
 30
0.0
 11
-18163.12427837855
 21
4559.54819458651
 31
0.0
  0
CIRCLE
  5
19941
330
2
100
AcDbEntity
  8
VLB
100
AcDbCircle
 10
-18156.09494879098
 20
4559.54819458651
 30
0.0
 40
5.000000000001818
  0
LINE
  5
19950
330
2
100
AcDbEntity
  8
VLS
100
AcDbLine
 10
-18732.8493184136
 20
5185.754641345209
 30
0.0
 11
-18757.8493184136
 21
5185.75464134521
 31
0.0
  0
LINE
  5
19951
330
2
100
AcDbEntity
  8
VLB
100
AcDbLine
 10
-18757.8493184136
 20
5185.754641345209
 30
0.0
 11
-18750.74829960683
 21
5186.980733323803
 31
0.0
  0
LINE
  5
19952
330
2
100
AcDbEntity
  8
SPS
100
AcDbLine
 10
-18745.3493184136
 20
5163.35467034521
 30
0.0
 11
-18745.3493184136
 21
5193.380743323803
 31
0.0
  0
LINE
  5
19953
330
2
100
AcDbEntity
  8
VLB
100
AcDbLine
 10
-18757.8493184136
 20
5185.75464134521
 30
0.0
 11
-18757.8493184136
 21
5176.896332545108
 31
0.0
  0
LINE
  5
19954
330
2
100
AcDbEntity
  8
SPS
100
AcDbLine
 10
-18762.76220190713
 20
5167.065699497084
 30
0.0
 11
-18762.76220190713
 21
5180.104890103095
 31
0.0
  0
LINE
  5
19955
330
2
100
AcDbEntity
  8
VLB
100
AcDbLine
 10
-18757.76220190713
 20
5176.860404006808
 30
0.0
 11
-18757.76220190713
 21
5175.860404006811
 31
0.0
  0
LINE
  5
19956
330
2
100
AcDbEntity
  8
SPS
100
AcDbLine
 10
-18745.3493184136
 20
5180.75464134521
 30
0.0
 11
-18745.3493184136
 21
5166.754641345209
 31
0.0
  0
LINE
  5
19957
330
2
100
AcDbEntity
  8
VLB
100
AcDbLine
 10
-18732.8493184136
 20
5185.754641345209
 30
0.0
 11
-18739.95033722037
 21
5186.980733323803
 31
0.0
  0
LINE
  5
19958
330
2
100
AcDbEntity
  8
VLB
100
AcDbLine
 10
-18732.8493184136
 20
5177.440482281047
 30
0.0
 11
-18732.8493184136
 21
5185.754641345209
 31
0.0
  0
LINE
  5
19959
330
2
100
AcDbEntity
  8
SPS
100
AcDbLine
 10
-18729.57187571936
 20
5167.065699497084
 30
0.0
 11
-18729.57187571936
 21
5180.104890103095
 31
0.0
  0
LINE
  5
1995A
330
2
100
AcDbEntity
  8
VLB
100
AcDbLine
 10
-18724.57187571936
 20
5176.860404006808
 30
0.0
 11
-18724.57187571936
 21
5175.860404006811
 31
0.0
  0
LINE
  5
1995B
330
2
100
AcDbEntity
  8
VLB
100
AcDbLine
 10
-18734.57187571936
 20
5176.860404006808
 30
0.0
 11
-18734.57187571936
 21
5175.860404006811
 31
0.0
  0
ARC
  5
1995C
330
2
100
AcDbEntity
  8
VLB
100
AcDbCircle
 10
-18729.57187571936
 20
5164.860404006811
 30
0.0
 40
12.99999999999925
100
AcDbArc
 50
67.3801350519691
 51
112.6198649480308
  0
LINE
  5
1995D
330
2
100
AcDbEntity
  8
VLB
100
AcDbLine
 10
-18773.02013668885
 20
5169.32488241564
 30
0.0
 11
-18772.02013668885
 21
5169.324882415639
 31
0.0
  0
LINE
  5
1995E
330
2
100
AcDbEntity
  8
VLB
100
AcDbLine
 10
-18767.76220190713
 20
5176.860404006808
 30
0.0
 11
-18767.76220190712
 21
5175.860404006811
 31
0.0
  0
LINE
  5
1995F
330
2
100
AcDbEntity
  8
VLB
100
AcDbLine
 10
-18773.02013668885
 20
5159.324882415641
 30
0.0
 11
-18772.02013668885
 21
5159.324882415642
 31
0.0
  0
ARC
  5
19960
330
2
100
AcDbEntity
  8
VLB
100
AcDbCircle
 10
-18761.02013668885
 20
5164.324882415641
 30
0.0
 40
12.99999999999925
100
AcDbArc
 50
157.3801350519214
 51
202.6198649480785
  0
ARC
  5
19961
330
2
100
AcDbEntity
  8
VLB
100
AcDbCircle
 10
-18762.76220190713
 20
5164.860404006811
 30
0.0
 40
12.99999999999925
100
AcDbArc
 50
67.3801350519691
 51
112.6198649480308
  0
LINE
  5
19962
330
2
100
AcDbEntity
  8
SPS
100
AcDbLine
 10
-18763.22543217913
 20
5164.324882415641
 30
0.0
 11
-18776.26462278514
 21
5164.324882415641
 31
0.0
  0
CIRCLE
  5
19963
330
2
100
AcDbEntity
  8
VLB
100
AcDbCircle
 10
-18745.3493184136
 20
5198.254641345208
 30
0.0
 40
12.5
  0
ARC
  5
19964
330
2
100
AcDbEntity
  8
VLB
100
AcDbCircle
 10
-18745.3493184136
 20
5198.254641345208
 30
0.0
 40
22.5
100
AcDbArc
 50
303.748988595957
 51
236.2510114040428
  0
LINE
  5
19965
330
2
100
AcDbEntity
  8
SPS
100
AcDbLine
 10
-18156.09494879098
 20
5156.916639561677
 30
0.0
 11
-18156.09494879098
 21
5172.809491639519
 31
0.0
  0
CIRCLE
  5
19966
330
2
100
AcDbEntity
  8
VLB
100
AcDbCircle
 10
-18156.09494879098
 20
5164.324882415638
 30
0.0
 40
2.550000000006548
  0
LINE
  5
19967
330
2
100
AcDbEntity
  8
VLB
100
AcDbLine
 10
-18160.19095496411
 20
5185.754641345209
 30
0.0
 11
-18160.19095496411
 21
5175.860404006811
 31
0.0
  0
CIRCLE
  5
19968
330
2
100
AcDbEntity
  8
VLB
100
AcDbCircle
 10
-18156.09494879098
 20
5164.324882415638
 30
0.0
 40
5.000000000001818
  0
LINE
  5
19969
330
2
100
AcDbEntity
  8
SPS
100
AcDbLine
 10
-18149.7835922339
 20
5164.324882415638
 30
0.0
 11
-18163.12427837855
 21
5164.324882415638
 31
0.0
  0
LINE
  5
1996A
330
2
100
AcDbEntity
  8
SPS
100
AcDbLine
 10
-18172.69095496411
 20
5163.354670345207
 30
0.0
 11
-18172.69095496411
 21
5193.380743323801
 31
0.0
  0
LINE
  5
1996B
330
2
100
AcDbEntity
  8
SPS
100
AcDbLine
 10
-18172.69095496411
 20
5180.754641345209
 30
0.0
 11
-18172.69095496411
 21
5166.754641345207
 31
0.0
  0
LINE
  5
1996C
330
2
100
AcDbEntity
  8
VLB
100
AcDbLine
 10
-18160.19095496411
 20
5185.754641345206
 30
0.0
 11
-18167.29197377087
 21
5186.980733323801
 31
0.0
  0
LINE
  5
1996D
330
2
100
AcDbEntity
  8
VLB
100
AcDbLine
 10
-18185.19095496411
 20
5175.860404006811
 30
0.0
 11
-18185.19095496411
 21
5185.754641345206
 31
0.0
  0
LINE
  5
1996E
330
2
100
AcDbEntity
  8
VLB
100
AcDbLine
 10
-18185.19095496411
 20
5185.754641345206
 30
0.0
 11
-18178.08993615734
 21
5186.980733323801
 31
0.0
  0
LINE
  5
1996F
330
2
100
AcDbEntity
  8
VLS
100
AcDbLine
 10
-18185.19095496411
 20
5185.754641345206
 30
0.0
 11
-18160.19095496411
 21
5185.754641345209
 31
0.0
  0
CIRCLE
  5
19970
330
2
100
AcDbEntity
  8
VLB
100
AcDbCircle
 10
-18172.69095496411
 20
5198.254641345206
 30
0.0
 40
12.5
  0
ARC
  5
19971
330
2
100
AcDbEntity
  8
VLB
100
AcDbCircle
 10
-18172.69095496411
 20
5198.254641345206
 30
0.0
 40
22.5
100
AcDbArc
 50
303.748988595957
 51
236.2510114040428
  0
LINE
  5
19985
330
2
100
AcDbEntity
  8
SPS
100
AcDbLine
 10
-18156.09494879098
 20
5035.961311732551
 30
0.0
 11
-18156.09494879098
 21
5051.854163810393
 31
0.0
  0
LINE
  5
19986
330
2
100
AcDbEntity
  8
SPS
100
AcDbLine
 10
-18149.7835922339
 20
5043.369554586513
 30
0.0
 11
-18163.12427837855
 21
5043.369554586513
 31
0.0
  0
CIRCLE
  5
19987
330
2
100
AcDbEntity
  8
VLB
100
AcDbCircle
 10
-18156.09494879098
 20
5043.369554586513
 30
0.0
 40
5.000000000001818
  0
CIRCLE
  5
19988
330
2
100
AcDbEntity
  8
VLB
100
AcDbCircle
 10
-18156.09494879098
 20
5043.369554586513
 30
0.0
 40
2.550000000006548
  0
LINE
  5
19989
330
2
100
AcDbEntity
  8
SPS
100
AcDbLine
 10
-18156.09494879098
 20
4915.005971732551
 30
0.0
 11
-18156.09494879098
 21
4930.898823810393
 31
0.0
  0
LINE
  5
1998A
330
2
100
AcDbEntity
  8
SPS
100
AcDbLine
 10
-18149.7835922339
 20
4922.414214586513
 30
0.0
 11
-18163.12427837855
 21
4922.414214586513
 31
0.0
  0
CIRCLE
  5
1998B
330
2
100
AcDbEntity
  8
VLB
100
AcDbCircle
 10
-18156.09494879098
 20
4922.414214586513
 30
0.0
 40
5.000000000001818
  0
CIRCLE
  5
1998C
330
2
100
AcDbEntity
  8
VLB
100
AcDbCircle
 10
-18156.09494879098
 20
4922.414214586513
 30
0.0
 40
2.550000000006548
  0
LINE
  5
1998D
330
2
100
AcDbEntity
  8
SPS
100
AcDbLine
 10
-18156.09494879098
 20
4794.05063173255
 30
0.0
 11
-18156.09494879098
 21
4809.943483810393
 31
0.0
  0
LINE
  5
1998E
330
2
100
AcDbEntity
  8
SPS
100
AcDbLine
 10
-18149.7835922339
 20
4801.458874586512
 30
0.0
 11
-18163.12427837855
 21
4801.458874586512
 31
0.0
  0
CIRCLE
  5
1998F
330
2
100
AcDbEntity
  8
VLB
100
AcDbCircle
 10
-18156.09494879098
 20
4801.458874586512
 30
0.0
 40
5.000000000001818
  0
CIRCLE
  5
19990
330
2
100
AcDbEntity
  8
VLB
100
AcDbCircle
 10
-18156.09494879098
 20
4801.458874586512
 30
0.0
 40
2.550000000006548
  0
LINE
  5
19991
330
2
100
AcDbEntity
  8
SPS
100
AcDbLine
 10
-18156.09494879098
 20
4673.09529173255
 30
0.0
 11
-18156.09494879098
 21
4688.988143810392
 31
0.0
  0
LINE
  5
19992
330
2
100
AcDbEntity
  8
SPS
100
AcDbLine
 10
-18149.7835922339
 20
4680.503534586511
 30
0.0
 11
-18163.12427837855
 21
4680.503534586511
 31
0.0
  0
CIRCLE
  5
19993
330
2
100
AcDbEntity
  8
VLB
100
AcDbCircle
 10
-18156.09494879098
 20
4680.503534586511
 30
0.0
 40
5.000000000001818
  0
CIRCLE
  5
19994
330
2
100
AcDbEntity
  8
VLB
100
AcDbCircle
 10
-18156.09494879098
 20
4680.503534586511
 30
0.0
 40
2.550000000006548
  0
LINE
  5
19995
330
2
100
AcDbEntity
  8
SPS
100
AcDbLine
 10
-18763.22543217913
 20
5043.369554586513
 30
0.0
 11
-18776.26462278514
 21
5043.369554586513
 31
0.0
  0
ARC
  5
19996
330
2
100
AcDbEntity
  8
VLB
100
AcDbCircle
 10
-18761.02013668885
 20
5043.369554586513
 30
0.0
 40
12.99999999999925
100
AcDbArc
 50
157.3801350519214
 51
202.6198649480785
  0
LINE
  5
19997
330
2
100
AcDbEntity
  8
VLB
100
AcDbLine
 10
-18773.02013668885
 20
5038.369554586513
 30
0.0
 11
-18772.02013668885
 21
5038.369554586515
 31
0.0
  0
LINE
  5
19998
330
2
100
AcDbEntity
  8
VLB
100
AcDbLine
 10
-18773.02013668885
 20
5048.369554586513
 30
0.0
 11
-18772.02013668885
 21
5048.369554586511
 31
0.0
  0
LINE
  5
19999
330
2
100
AcDbEntity
  8
SPS
100
AcDbLine
 10
-18763.22543217913
 20
4922.414214586513
 30
0.0
 11
-18776.26462278514
 21
4922.414214586513
 31
0.0
  0
ARC
  5
1999A
330
2
100
AcDbEntity
  8
VLB
100
AcDbCircle
 10
-18761.02013668885
 20
4922.414214586513
 30
0.0
 40
12.99999999999925
100
AcDbArc
 50
157.3801350519214
 51
202.6198649480785
  0
LINE
  5
1999B
330
2
100
AcDbEntity
  8
VLB
100
AcDbLine
 10
-18773.02013668885
 20
4917.414214586512
 30
0.0
 11
-18772.02013668885
 21
4917.414214586514
 31
0.0
  0
LINE
  5
1999C
330
2
100
AcDbEntity
  8
VLB
100
AcDbLine
 10
-18773.02013668885
 20
4927.414214586512
 30
0.0
 11
-18772.02013668885
 21
4927.41421458651
 31
0.0
  0
LINE
  5
1999D
330
2
100
AcDbEntity
  8
SPS
100
AcDbLine
 10
-18763.22543217913
 20
4801.458874586512
 30
0.0
 11
-18776.26462278514
 21
4801.458874586512
 31
0.0
  0
ARC
  5
1999E
330
2
100
AcDbEntity
  8
VLB
100
AcDbCircle
 10
-18761.02013668885
 20
4801.458874586512
 30
0.0
 40
12.99999999999925
100
AcDbArc
 50
157.3801350519214
 51
202.6198649480785
  0
LINE
  5
1999F
330
2
100
AcDbEntity
  8
VLB
100
AcDbLine
 10
-18773.02013668885
 20
4796.458874586511
 30
0.0
 11
-18772.02013668885
 21
4796.458874586514
 31
0.0
  0
LINE
  5
199A0
330
2
100
AcDbEntity
  8
VLB
100
AcDbLine
 10
-18773.02013668885
 20
4806.458874586512
 30
0.0
 11
-18772.02013668885
 21
4806.45887458651
 31
0.0
  0
LINE
  5
199A1
330
2
100
AcDbEntity
  8
SPS
100
AcDbLine
 10
-18763.22543217913
 20
4680.503534586511
 30
0.0
 11
-18776.26462278514
 21
4680.503534586511
 31
0.0
  0
ARC
  5
199A2
330
2
100
AcDbEntity
  8
VLB
100
AcDbCircle
 10
-18761.02013668885
 20
4680.503534586511
 30
0.0
 40
12.99999999999925
100
AcDbArc
 50
157.3801350519214
 51
202.6198649480785
  0
LINE
  5
199A3
330
2
100
AcDbEntity
  8
VLB
100
AcDbLine
 10
-18773.02013668885
 20
4675.503534586511
 30
0.0
 11
-18772.02013668885
 21
4675.503534586513
 31
0.0
  0
LINE
  5
199A4
330
2
100
AcDbEntity
  8
VLB
100
AcDbLine
 10
-18773.02013668885
 20
4685.503534586511
 30
0.0
 11
-18772.02013668885
 21
4685.503534586509
 31
0.0
  0
LINE
  5
199CD
330
2
100
AcDbEntity
  8
SPS
100
AcDbLine
 10
-18660.15598477688
 20
5187.178684872481
 30
0.0
 11
-18646.81529863224
 21
5187.178684872481
 31
0.0
  0
LINE
  5
199CE
330
2
100
AcDbEntity
  8
SPS
100
AcDbLine
 10
-18655.22543217913
 20
5187.178684872481
 30
0.0
 11
-18668.26462278514
 21
5187.178684872481
 31
0.0
  0
LINE
  5
199CF
330
2
100
AcDbEntity
  8
VLB
100
AcDbLine
 10
-18665.02013668885
 20
5192.178684872481
 30
0.0
 11
-18664.02013668885
 21
5192.17868487248
 31
0.0
  0
LINE
  5
199D0
330
2
100
AcDbEntity
  8
VLB
100
AcDbLine
 10
-18665.02013668885
 20
5182.178684872481
 30
0.0
 11
-18664.02013668885
 21
5182.178684872483
 31
0.0
  0
ARC
  5
199D1
330
2
100
AcDbEntity
  8
VLB
100
AcDbCircle
 10
-18653.02013668885
 20
5187.178684872481
 30
0.0
 40
12.99999999999925
100
AcDbArc
 50
157.3801350519214
 51
202.6198649480785
  0
CIRCLE
  5
199D2
330
2
100
AcDbEntity
  8
VLB
100
AcDbCircle
 10
-18653.8446282198
 20
5187.178684872481
 30
0.0
 40
2.550000000006548
  0
CIRCLE
  5
199D3
330
2
100
AcDbEntity
  8
VLB
100
AcDbCircle
 10
-18653.8446282198
 20
5187.178684872481
 30
0.0
 40
5.000000000001818
  0
LINE
  5
199D4
330
2
100
AcDbEntity
  8
SPS
100
AcDbLine
 10
-18653.8446282198
 20
5179.770442018519
 30
0.0
 11
-18653.8446282198
 21
5195.663294096362
 31
0.0
  0
CIRCLE
  5
199D6
330
2
100
AcDbEntity
  8
VLB
100
AcDbCircle
 10
-18264.09494879098
 20
5187.324882415638
 30
0.0
 40
5.000000000001818
  0
LINE
  5
199D7
330
2
100
AcDbEntity
  8
SPS
100
AcDbLine
 10
-18257.7835922339
 20
5187.324882415638
 30
0.0
 11
-18271.12427837855
 21
5187.324882415638
 31
0.0
  0
CIRCLE
  5
199D8
330
2
100
AcDbEntity
  8
VLB
100
AcDbCircle
 10
-18264.09494879098
 20
5187.324882415638
 30
0.0
 40
2.550000000006548
  0
LINE
  5
199D9
330
2
100
AcDbEntity
  8
SPS
100
AcDbLine
 10
-18264.09494879098
 20
5179.916639561676
 30
0.0
 11
-18264.09494879098
 21
5195.809491639518
 31
0.0
  0
LINE
  5
199DC
330
2
100
AcDbEntity
  8
VLB
100
AcDbLine
 10
-18379.52013668885
 20
5197.748486193916
 30
0.0
 11
-18538.52013668885
 21
5197.748486193916
 31
0.0
  0
LINE
  5
199DD
330
2
100
AcDbEntity
  8
VLB
100
AcDbLine
 10
-18378.52013668885
 20
5198.747936409858
 30
0.0
 11
-18539.52013668885
 21
5198.747936409858
 31
0.0
  0
LINE
  5
199DE
330
2
100
AcDbEntity
  8
VLB
100
AcDbLine
 10
-18377.52013668885
 20
5191.057936249183
 30
0.0
 11
-18540.52013668885
 21
5191.057936249183
 31
0.0
  0
LINE
  5
199DF
330
2
100
AcDbEntity
  8
VLB
100
AcDbLine
 10
-18378.52013668885
 20
5192.557111573095
 30
0.0
 11
-18539.52013668885
 21
5192.557111573095
 31
0.0
  0
LINE
  5
199E0
330
2
100
AcDbEntity
  8
VLB
100
AcDbLine
 10
-18539.52013668885
 20
5214.258402443225
 30
0.0
 11
-18540.52013668885
 21
5214.258402443225
 31
0.0
  0
LINE
  5
199E1
330
2
100
AcDbEntity
  8
VLB
100
AcDbLine
 10
-18539.52013668885
 20
5219.845050001692
 30
0.0
 11
-18540.52013668885
 21
5219.845050001692
 31
0.0
  0
LINE
  5
199E2
330
2
100
AcDbEntity
  8
VLB
100
AcDbLine
 10
-18538.52013668885
 20
5197.748486193916
 30
0.0
 11
-18538.52013668885
 21
5198.747936409858
 31
0.0
  0
LINE
  5
199E4
330
2
100
AcDbEntity
  8
VLB
100
AcDbLine
 10
-18539.52013668885
 20
5192.557111573095
 30
0.0
 11
-18539.52013668885
 21
5219.845050001692
 31
0.0
  0
LINE
  5
199E5
330
2
100
AcDbEntity
  8
VLB
100
AcDbLine
 10
-18540.52013668885
 20
5191.057936249183
 30
0.0
 11
-18540.52013668885
 21
5219.845050001692
 31
0.0
  0
LINE
  5
199E6
330
2
100
AcDbEntity
  8
VLB
100
AcDbLine
 10
-18377.52013668885
 20
5214.258402443225
 30
0.0
 11
-18378.52013668885
 21
5214.258402443225
 31
0.0
  0
LINE
  5
199E7
330
2
100
AcDbEntity
  8
VLB
100
AcDbLine
 10
-18377.52013668885
 20
5219.845050001692
 30
0.0
 11
-18378.52013668885
 21
5219.845050001692
 31
0.0
  0
LINE
  5
199E8
330
2
100
AcDbEntity
  8
VLB
100
AcDbLine
 10
-18379.52013668885
 20
5197.748486193916
 30
0.0
 11
-18379.52013668885
 21
5198.747936409858
 31
0.0
  0
LINE
  5
199E9
330
2
100
AcDbEntity
  8
VLB
100
AcDbLine
 10
-18378.52013668885
 20
5192.557111573095
 30
0.0
 11
-18378.52013668885
 21
5219.845050001692
 31
0.0
  0
LINE
  5
199EA
330
2
100
AcDbEntity
  8
VLB
100
AcDbLine
 10
-18377.52013668885
 20
5191.057936249183
 30
0.0
 11
-18377.52013668885
 21
5219.845050001693
 31
0.0
  0
LINE
  5
199EB
330
2
100
AcDbEntity
  8
VLB
100
AcDbLine
 10
-18377.52013668885
 20
5198.86040400681
 30
0.0
 11
-18254.02013668885
 21
5198.86040400681
 31
0.0
  0
LINE
  5
199EC
330
2
100
AcDbEntity
  8
VLB
100
AcDbLine
 10
-18539.52013668885
 20
5202.960143615449
 30
0.0
 11
-18459.02013668885
 21
5205.610979266014
 31
0.0
  0
LINE
  5
199ED
330
2
100
AcDbEntity
  8
VLB
100
AcDbLine
 10
-18664.02013668885
 20
5213.86040400681
 30
0.0
 11
-18540.52013668885
 21
5217.927213980036
 31
0.0
  0
LINE
  5
199EE
330
2
100
AcDbEntity
  8
VLB
100
AcDbLine
 10
-18254.02013668885
 20
5213.86040400681
 30
0.0
 11
-18377.52013668885
 21
5217.927213980036
 31
0.0
  0
LINE
  5
199EF
330
2
100
AcDbEntity
  8
VLB
100
AcDbLine
 10
-18378.52013668885
 20
5202.960143615449
 30
0.0
 11
-18459.02013668885
 21
5205.610979266014
 31
0.0
  0
LINE
  5
199FB
330
2
100
AcDbEntity
  8
SPS
100
AcDbLine
 10
-17061.04497108759
 20
5156.916639561677
 30
0.0
 11
-17061.04497108759
 21
5172.809491639519
 31
0.0
  0
LINE
  5
199FC
330
2
100
AcDbEntity
  8
VLB
100
AcDbLine
 10
-17676.97015898546
 20
5175.860404006811
 30
0.0
 11
-17676.97015898546
 21
4520.86040400681
 31
0.0
  0
LINE
  5
199FD
330
2
100
AcDbEntity
  8
VLB
100
AcDbLine
 10
-17050.97015898546
 20
5175.860404006809
 30
0.0
 11
-17050.97015898546
 21
4520.86040400681
 31
0.0
  0
LINE
  5
199FE
330
2
100
AcDbEntity
  8
SPS
100
AcDbLine
 10
-17363.97015898546
 20
5235.619109769167
 30
0.0
 11
-17363.97015898546
 21
4501.360404006809
 31
0.0
  0
LINE
  5
199FF
330
2
100
AcDbEntity
  8
VLB
100
AcDbLine
 10
-17584.47015898546
 20
4516.360404006809
 30
0.0
 11
-17143.47015898546
 21
4516.360404006809
 31
0.0
  0
LINE
  5
19A00
330
2
100
AcDbEntity
  8
VLB
100
AcDbLine
 10
-17676.97015898546
 20
4520.86040400681
 30
0.0
 11
-17050.97015898546
 21
4520.86040400681
 31
0.0
  0
CIRCLE
  5
19A01
330
2
100
AcDbEntity
  8
VLB
100
AcDbCircle
 10
-17666.89534688334
 20
4559.54819458651
 30
0.0
 40
5.000000000001818
  0
LINE
  5
19A02
330
2
100
AcDbEntity
  8
SPS
100
AcDbLine
 10
-17666.89534688334
 20
4552.139951732549
 30
0.0
 11
-17666.89534688334
 21
4568.032803810392
 31
0.0
  0
CIRCLE
  5
19A03
330
2
100
AcDbEntity
  8
VLB
100
AcDbCircle
 10
-17666.89534688334
 20
4559.54819458651
 30
0.0
 40
2.550000000006548
  0
ARC
  5
19A04
330
2
100
AcDbEntity
  8
VLB
100
AcDbCircle
 10
-17665.97015898546
 20
4559.54819458651
 30
0.0
 40
12.99999999999925
100
AcDbArc
 50
157.3801350519214
 51
202.6198649480785
  0
LINE
  5
19A05
330
2
100
AcDbEntity
  8
VLB
100
AcDbLine
 10
-17677.97015898546
 20
4554.548194586511
 30
0.0
 11
-17676.97015898546
 21
4554.548194586513
 31
0.0
  0
LINE
  5
19A06
330
2
100
AcDbEntity
  8
VLB
100
AcDbLine
 10
-17677.97015898546
 20
4564.548194586511
 30
0.0
 11
-17676.97015898546
 21
4564.548194586509
 31
0.0
  0
LINE
  5
19A07
330
2
100
AcDbEntity
  8
SPS
100
AcDbLine
 10
-17668.17545447573
 20
4559.54819458651
 30
0.0
 11
-17681.21464508174
 21
4559.54819458651
 31
0.0
  0
LINE
  5
19A08
330
2
100
AcDbEntity
  8
SPS
100
AcDbLine
 10
-17673.20670344041
 20
4559.54819458651
 30
0.0
 11
-17659.86601729577
 21
4559.54819458651
 31
0.0
  0
LINE
  5
19A09
330
2
100
AcDbEntity
  8
SPS
100
AcDbLine
 10
-17671.62820859945
 20
4535.860404006809
 30
0.0
 11
-17685.17171051381
 21
4535.860404006809
 31
0.0
  0
LINE
  5
19A0A
330
2
100
AcDbEntity
  8
VLB
100
AcDbLine
 10
-17677.79339067096
 20
4535.860404006809
 30
0.0
 11
-17677.79339067096
 21
4528.360404006809
 31
0.0
  0
LINE
  5
19A0B
330
2
100
AcDbEntity
  8
VLB
100
AcDbLine
 10
-17683.12672367096
 20
4529.193738006808
 30
0.0
 11
-17683.12672367096
 21
4536.860404006812
 31
0.0
  0
LINE
  5
19A0C
330
2
100
AcDbEntity
  8
VLB
100
AcDbLine
 10
-17678.46005767096
 20
4528.162401006808
 30
0.0
 11
-17678.46005767096
 21
4536.860404006812
 31
0.0
  0
LINE
  5
19A0D
330
2
100
AcDbEntity
  8
VLB
100
AcDbLine
 10
-17677.79339067096
 20
4529.927071006812
 30
0.0
 11
-17677.79339067096
 21
4536.860404006812
 31
0.0
  0
ARC
  5
19A0E
330
2
100
AcDbEntity
  8
VLB
100
AcDbCircle
 10
-17670.38883467096
 20
4535.860404006809
 30
0.0
 40
12.737889
100
AcDbArc
 50
175.4973080000216
 51
197.5879540000596
  0
ARC
  5
19A0F
330
2
100
AcDbEntity
  8
VLB
100
AcDbCircle
 10
-17679.75345167096
 20
4530.097603006808
 30
0.0
 40
3.373272
100
AcDbArc
 50
145.4349069999197
 51
210.0000000000272
  0
LINE
  5
19A10
330
2
100
AcDbEntity
  8
VLB
100
AcDbLine
 10
-17683.12672367096
 20
4529.193738006808
 30
0.0
 11
-17682.53128067096
 21
4528.162401006808
 31
0.0
  0
LINE
  5
19A11
330
2
100
AcDbEntity
  8
VLB
100
AcDbLine
 10
-17677.79339067096
 20
4529.927071006812
 30
0.0
 11
-17678.46005767096
 21
4529.927071006812
 31
0.0
  0
LINE
  5
19A12
330
2
100
AcDbEntity
  8
VLB
100
AcDbLine
 10
-17676.99339067096
 20
4528.360404006809
 30
0.0
 11
-17677.79339067096
 21
4528.360404006809
 31
0.0
1001
ACAD
1000
ASC_BOUNDS
1002
{
1070
    16
1002
}
  0
LINE
  5
19A13
330
2
100
AcDbEntity
  8
VLB
100
AcDbLine
 10
-17677.79339067096
 20
4528.360404006809
 30
0.0
 11
-17676.99339067096
 21
4528.360404006809
 31
0.0
  0
LINE
  5
19A14
330
2
100
AcDbEntity
  8
VLB
100
AcDbLine
 10
-17678.46005767096
 20
4528.162401006808
 30
0.0
 11
-17682.53128067096
 21
4528.162401006808
 31
0.0
  0
LINE
  5
19A15
330
2
100
AcDbEntity
  8
VLB
100
AcDbLine
 10
-17678.46005767096
 20
4532.01140200681
 30
0.0
 11
-17682.53128067096
 21
4532.01140200681
 31
0.0
  0
LINE
  5
19A16
330
2
100
AcDbEntity
  8
VLB
100
AcDbLine
 10
-17683.12672367096
 20
4536.860404006812
 30
0.0
 11
-17683.12672367096
 21
4542.52707000681
 31
0.0
  0
ARC
  5
19A17
330
2
100
AcDbEntity
  8
VLB
100
AcDbCircle
 10
-17670.38883467096
 20
4535.860404006809
 30
0.0
 40
12.737889
100
AcDbArc
 50
162.4120459999403
 51
175.4973080000216
  0
LINE
  5
19A18
330
2
100
AcDbEntity
  8
VLB
100
AcDbLine
 10
-17677.79339067096
 20
4537.942311006813
 30
0.0
 11
-17677.79339067096
 21
4541.79373600681
 31
0.0
  0
LINE
  5
19A19
330
2
100
AcDbEntity
  8
VLB
100
AcDbLine
 10
-17677.79339067096
 20
4543.360403006812
 30
0.0
 11
-17677.79339067096
 21
4536.860404006812
 31
0.0
  0
LINE
  5
19A1A
330
2
100
AcDbEntity
  8
VLB
100
AcDbLine
 10
-17678.46005767096
 20
4536.860404006812
 30
0.0
 11
-17678.46005767096
 21
4543.55840600681
 31
0.0
  0
LINE
  5
19A1B
330
2
100
AcDbEntity
  8
VLB
100
AcDbLine
 10
-17683.12672367096
 20
4542.52707000681
 30
0.0
 11
-17682.53128067096
 21
4543.55840600681
 31
0.0
  0
LINE
  5
19A1C
330
2
100
AcDbEntity
  8
VLB
100
AcDbLine
 10
-17676.99339067096
 20
4543.360403006812
 30
0.0
 11
-17677.79339067096
 21
4543.360403006812
 31
0.0
1001
ACAD
1000
ASC_BOUNDS
1002
{
1070
    16
1002
}
  0
LINE
  5
19A1D
330
2
100
AcDbEntity
  8
VLB
100
AcDbLine
 10
-17677.79339067096
 20
4541.79373600681
 30
0.0
 11
-17678.46005767096
 21
4541.79373600681
 31
0.0
  0
LINE
  5
19A1E
330
2
100
AcDbEntity
  8
VLB
100
AcDbLine
 10
-17678.46005767096
 20
4543.55840600681
 30
0.0
 11
-17682.53128067096
 21
4543.55840600681
 31
0.0
  0
LINE
  5
19A1F
330
2
100
AcDbEntity
  8
VLB
100
AcDbLine
 10
-17678.46005767096
 20
4539.709405006808
 30
0.0
 11
-17682.53128067096
 21
4539.709405006808
 31
0.0
  0
ARC
  5
19A20
330
2
100
AcDbEntity
  8
VLB
100
AcDbCircle
 10
-17679.75345167096
 20
4541.62320400681
 30
0.0
 40
3.373272
100
AcDbArc
 50
149.9999999999727
 51
214.5650930000803
  0
LINE
  5
19A21
330
2
100
AcDbEntity
  8
SPS
100
AcDbLine
 10
-17363.97015898546
 20
4552.139951732549
 30
0.0
 11
-17363.97015898546
 21
4568.032803810392
 31
0.0
  0
CIRCLE
  5
19A22
330
2
100
AcDbEntity
  8
VLB
100
AcDbCircle
 10
-17363.97015898546
 20
4559.54819458651
 30
0.0
 40
5.000000000001818
  0
LINE
  5
19A23
330
2
100
AcDbEntity
  8
SPS
100
AcDbLine
 10
-17370.28151554254
 20
4559.54819458651
 30
0.0
 11
-17356.94082939789
 21
4559.54819458651
 31
0.0
  0
CIRCLE
  5
19A24
330
2
100
AcDbEntity
  8
VLB
100
AcDbCircle
 10
-17363.97015898546
 20
4559.54819458651
 30
0.0
 40
2.550000000006548
  0
LINE
  5
19A26
330
2
100
AcDbEntity
  8
VLB
100
AcDbLine
 10
-17584.47015898546
 20
4520.86040400681
 30
0.0
 11
-17584.47015898546
 21
4516.360404006809
 31
0.0
  0
LINE
  5
19A27
330
2
100
AcDbEntity
  8
VLB
100
AcDbLine
 10
-17677.97015898546
 20
4685.503534586511
 30
0.0
 11
-17676.97015898546
 21
4685.503534586509
 31
0.0
  0
LINE
  5
19A28
330
2
100
AcDbEntity
  8
VLB
100
AcDbLine
 10
-17677.97015898546
 20
4675.503534586511
 30
0.0
 11
-17676.97015898546
 21
4675.503534586513
 31
0.0
  0
ARC
  5
19A29
330
2
100
AcDbEntity
  8
VLB
100
AcDbCircle
 10
-17665.97015898546
 20
4680.503534586511
 30
0.0
 40
12.99999999999925
100
AcDbArc
 50
157.3801350519214
 51
202.6198649480785
  0
LINE
  5
19A2A
330
2
100
AcDbEntity
  8
SPS
100
AcDbLine
 10
-17668.17545447573
 20
4680.503534586511
 30
0.0
 11
-17681.21464508175
 21
4680.503534586511
 31
0.0
  0
LINE
  5
19A2B
330
2
100
AcDbEntity
  8
VLB
100
AcDbLine
 10
-17677.97015898546
 20
4806.458874586512
 30
0.0
 11
-17676.97015898546
 21
4806.45887458651
 31
0.0
  0
LINE
  5
19A2C
330
2
100
AcDbEntity
  8
VLB
100
AcDbLine
 10
-17677.97015898546
 20
4796.458874586511
 30
0.0
 11
-17676.97015898546
 21
4796.458874586514
 31
0.0
  0
ARC
  5
19A2D
330
2
100
AcDbEntity
  8
VLB
100
AcDbCircle
 10
-17665.97015898546
 20
4801.458874586512
 30
0.0
 40
12.99999999999925
100
AcDbArc
 50
157.3801350519214
 51
202.6198649480785
  0
LINE
  5
19A2E
330
2
100
AcDbEntity
  8
SPS
100
AcDbLine
 10
-17668.17545447573
 20
4801.458874586512
 30
0.0
 11
-17681.21464508175
 21
4801.458874586512
 31
0.0
  0
LINE
  5
19A2F
330
2
100
AcDbEntity
  8
VLB
100
AcDbLine
 10
-17677.97015898546
 20
4927.414214586512
 30
0.0
 11
-17676.97015898546
 21
4927.41421458651
 31
0.0
  0
LINE
  5
19A30
330
2
100
AcDbEntity
  8
VLB
100
AcDbLine
 10
-17677.97015898546
 20
4917.414214586512
 30
0.0
 11
-17676.97015898546
 21
4917.414214586514
 31
0.0
  0
ARC
  5
19A31
330
2
100
AcDbEntity
  8
VLB
100
AcDbCircle
 10
-17665.97015898546
 20
4922.414214586513
 30
0.0
 40
12.99999999999925
100
AcDbArc
 50
157.3801350519214
 51
202.6198649480785
  0
LINE
  5
19A32
330
2
100
AcDbEntity
  8
SPS
100
AcDbLine
 10
-17668.17545447573
 20
4922.414214586513
 30
0.0
 11
-17681.21464508175
 21
4922.414214586513
 31
0.0
  0
LINE
  5
19A33
330
2
100
AcDbEntity
  8
VLB
100
AcDbLine
 10
-17677.97015898546
 20
5048.369554586513
 30
0.0
 11
-17676.97015898546
 21
5048.369554586511
 31
0.0
  0
LINE
  5
19A34
330
2
100
AcDbEntity
  8
VLB
100
AcDbLine
 10
-17677.97015898546
 20
5038.369554586513
 30
0.0
 11
-17676.97015898546
 21
5038.369554586515
 31
0.0
  0
ARC
  5
19A35
330
2
100
AcDbEntity
  8
VLB
100
AcDbCircle
 10
-17665.97015898546
 20
5043.369554586513
 30
0.0
 40
12.99999999999925
100
AcDbArc
 50
157.3801350519214
 51
202.6198649480785
  0
LINE
  5
19A36
330
2
100
AcDbEntity
  8
SPS
100
AcDbLine
 10
-17668.17545447573
 20
5043.369554586513
 30
0.0
 11
-17681.21464508175
 21
5043.369554586513
 31
0.0
  0
LINE
  5
19A38
330
2
100
AcDbEntity
  8
VLB
100
AcDbLine
 10
-17143.47015898547
 20
4520.86040400681
 30
0.0
 11
-17143.47015898546
 21
4516.360404006809
 31
0.0
  0
CIRCLE
  5
19A39
330
2
100
AcDbEntity
  8
VLB
100
AcDbCircle
 10
-17061.04497108759
 20
4559.54819458651
 30
0.0
 40
5.000000000001818
  0
LINE
  5
19A3A
330
2
100
AcDbEntity
  8
SPS
100
AcDbLine
 10
-17054.73361453052
 20
4559.54819458651
 30
0.0
 11
-17068.07430067516
 21
4559.54819458651
 31
0.0
  0
CIRCLE
  5
19A3B
330
2
100
AcDbEntity
  8
VLB
100
AcDbCircle
 10
-17061.04497108759
 20
4559.54819458651
 30
0.0
 40
2.550000000006548
  0
LINE
  5
19A3C
330
2
100
AcDbEntity
  8
SPS
100
AcDbLine
 10
-17061.04497108759
 20
4552.139951732549
 30
0.0
 11
-17061.04497108759
 21
4568.032803810392
 31
0.0
  0
ARC
  5
19A3D
330
2
100
AcDbEntity
  8
VLB
100
AcDbCircle
 10
-17048.18686629996
 20
4541.62320400681
 30
0.0
 40
3.373272
100
AcDbArc
 50
325.4349069999197
 51
30.00000000002724
  0
LINE
  5
19A3E
330
2
100
AcDbEntity
  8
VLB
100
AcDbLine
 10
-17049.48026029996
 20
4539.709405006808
 30
0.0
 11
-17045.40903729997
 21
4539.709405006808
 31
0.0
  0
LINE
  5
19A3F
330
2
100
AcDbEntity
  8
VLB
100
AcDbLine
 10
-17049.48026029996
 20
4543.55840600681
 30
0.0
 11
-17045.40903729997
 21
4543.55840600681
 31
0.0
  0
LINE
  5
19A40
330
2
100
AcDbEntity
  8
VLB
100
AcDbLine
 10
-17050.14692729996
 20
4541.79373600681
 30
0.0
 11
-17049.48026029996
 21
4541.79373600681
 31
0.0
  0
LINE
  5
19A41
330
2
100
AcDbEntity
  8
VLB
100
AcDbLine
 10
-17050.94692729996
 20
4543.360403006812
 30
0.0
 11
-17050.14692729996
 21
4543.360403006812
 31
0.0
1001
ACAD
1000
ASC_BOUNDS
1002
{
1070
    16
1002
}
  0
LINE
  5
19A42
330
2
100
AcDbEntity
  8
VLB
100
AcDbLine
 10
-17044.81359429997
 20
4542.52707000681
 30
0.0
 11
-17045.40903729997
 21
4543.55840600681
 31
0.0
  0
LINE
  5
19A43
330
2
100
AcDbEntity
  8
VLB
100
AcDbLine
 10
-17049.48026029996
 20
4536.860404006812
 30
0.0
 11
-17049.48026029996
 21
4543.55840600681
 31
0.0
  0
LINE
  5
19A44
330
2
100
AcDbEntity
  8
VLB
100
AcDbLine
 10
-17050.14692729996
 20
4543.360403006812
 30
0.0
 11
-17050.14692729996
 21
4536.860404006812
 31
0.0
  0
LINE
  5
19A45
330
2
100
AcDbEntity
  8
VLB
100
AcDbLine
 10
-17050.14692729996
 20
4537.942311006813
 30
0.0
 11
-17050.14692729996
 21
4541.79373600681
 31
0.0
  0
ARC
  5
19A46
330
2
100
AcDbEntity
  8
VLB
100
AcDbCircle
 10
-17057.55148329996
 20
4535.860404006809
 30
0.0
 40
12.737889
100
AcDbArc
 50
4.502691999978413
 51
17.58795400005962
  0
LINE
  5
19A47
330
2
100
AcDbEntity
  8
VLB
100
AcDbLine
 10
-17044.81359429997
 20
4536.860404006812
 30
0.0
 11
-17044.81359429997
 21
4542.52707000681
 31
0.0
  0
LINE
  5
19A48
330
2
100
AcDbEntity
  8
VLB
100
AcDbLine
 10
-17049.48026029996
 20
4532.01140200681
 30
0.0
 11
-17045.40903729997
 21
4532.01140200681
 31
0.0
  0
LINE
  5
19A49
330
2
100
AcDbEntity
  8
VLB
100
AcDbLine
 10
-17049.48026029996
 20
4528.162401006808
 30
0.0
 11
-17045.40903729997
 21
4528.162401006808
 31
0.0
  0
LINE
  5
19A4A
330
2
100
AcDbEntity
  8
VLB
100
AcDbLine
 10
-17050.14692729996
 20
4528.360404006809
 30
0.0
 11
-17050.94692729996
 21
4528.360404006809
 31
0.0
  0
LINE
  5
19A4B
330
2
100
AcDbEntity
  8
VLB
100
AcDbLine
 10
-17050.94692729996
 20
4528.360404006809
 30
0.0
 11
-17050.14692729996
 21
4528.360404006809
 31
0.0
1001
ACAD
1000
ASC_BOUNDS
1002
{
1070
    16
1002
}
  0
LINE
  5
19A4C
330
2
100
AcDbEntity
  8
VLB
100
AcDbLine
 10
-17050.14692729996
 20
4529.927071006812
 30
0.0
 11
-17049.48026029996
 21
4529.927071006812
 31
0.0
  0
LINE
  5
19A4D
330
2
100
AcDbEntity
  8
VLB
100
AcDbLine
 10
-17044.81359429997
 20
4529.193738006808
 30
0.0
 11
-17045.40903729997
 21
4528.162401006808
 31
0.0
  0
ARC
  5
19A4E
330
2
100
AcDbEntity
  8
VLB
100
AcDbCircle
 10
-17048.18686629996
 20
4530.097603006808
 30
0.0
 40
3.373272
100
AcDbArc
 50
329.9999999999727
 51
34.56509300008031
  0
ARC
  5
19A4F
330
2
100
AcDbEntity
  8
VLB
100
AcDbCircle
 10
-17057.55148329996
 20
4535.860404006809
 30
0.0
 40
12.737889
100
AcDbArc
 50
342.4120459999404
 51
4.502691999978413
  0
LINE
  5
19A50
330
2
100
AcDbEntity
  8
VLB
100
AcDbLine
 10
-17050.14692729996
 20
4529.927071006812
 30
0.0
 11
-17050.14692729996
 21
4536.860404006812
 31
0.0
  0
LINE
  5
19A51
330
2
100
AcDbEntity
  8
VLB
100
AcDbLine
 10
-17049.48026029996
 20
4528.162401006808
 30
0.0
 11
-17049.48026029996
 21
4536.860404006812
 31
0.0
  0
LINE
  5
19A52
330
2
100
AcDbEntity
  8
VLB
100
AcDbLine
 10
-17044.81359429997
 20
4529.193738006808
 30
0.0
 11
-17044.81359429997
 21
4536.860404006812
 31
0.0
  0
LINE
  5
19A53
330
2
100
AcDbEntity
  8
VLB
100
AcDbLine
 10
-17050.14692729996
 20
4535.860404006809
 30
0.0
 11
-17050.14692729996
 21
4528.360404006809
 31
0.0
  0
LINE
  5
19A54
330
2
100
AcDbEntity
  8
SPS
100
AcDbLine
 10
-17056.31210937148
 20
4535.860404006809
 30
0.0
 11
-17042.76860745711
 21
4535.860404006809
 31
0.0
  0
CIRCLE
  5
19A55
330
2
100
AcDbEntity
  8
VLB
100
AcDbCircle
 10
-17061.04497108759
 20
4680.503534586511
 30
0.0
 40
2.550000000006548
  0
CIRCLE
  5
19A56
330
2
100
AcDbEntity
  8
VLB
100
AcDbCircle
 10
-17061.04497108759
 20
4680.503534586511
 30
0.0
 40
5.000000000001818
  0
LINE
  5
19A57
330
2
100
AcDbEntity
  8
SPS
100
AcDbLine
 10
-17054.73361453051
 20
4680.503534586511
 30
0.0
 11
-17068.07430067516
 21
4680.503534586511
 31
0.0
  0
LINE
  5
19A58
330
2
100
AcDbEntity
  8
SPS
100
AcDbLine
 10
-17061.04497108759
 20
4673.09529173255
 30
0.0
 11
-17061.04497108759
 21
4688.988143810392
 31
0.0
  0
CIRCLE
  5
19A59
330
2
100
AcDbEntity
  8
VLB
100
AcDbCircle
 10
-17061.04497108759
 20
4801.458874586512
 30
0.0
 40
2.550000000006548
  0
CIRCLE
  5
19A5A
330
2
100
AcDbEntity
  8
VLB
100
AcDbCircle
 10
-17061.04497108759
 20
4801.458874586512
 30
0.0
 40
5.000000000001818
  0
LINE
  5
19A5B
330
2
100
AcDbEntity
  8
SPS
100
AcDbLine
 10
-17054.73361453051
 20
4801.458874586512
 30
0.0
 11
-17068.07430067516
 21
4801.458874586512
 31
0.0
  0
LINE
  5
19A5C
330
2
100
AcDbEntity
  8
SPS
100
AcDbLine
 10
-17061.04497108759
 20
4794.05063173255
 30
0.0
 11
-17061.04497108759
 21
4809.943483810393
 31
0.0
  0
CIRCLE
  5
19A5D
330
2
100
AcDbEntity
  8
VLB
100
AcDbCircle
 10
-17061.04497108759
 20
4922.414214586513
 30
0.0
 40
2.550000000006548
  0
CIRCLE
  5
19A5E
330
2
100
AcDbEntity
  8
VLB
100
AcDbCircle
 10
-17061.04497108759
 20
4922.414214586513
 30
0.0
 40
5.000000000001818
  0
LINE
  5
19A5F
330
2
100
AcDbEntity
  8
SPS
100
AcDbLine
 10
-17054.73361453051
 20
4922.414214586513
 30
0.0
 11
-17068.07430067516
 21
4922.414214586513
 31
0.0
  0
LINE
  5
19A60
330
2
100
AcDbEntity
  8
SPS
100
AcDbLine
 10
-17061.04497108759
 20
4915.005971732551
 30
0.0
 11
-17061.04497108759
 21
4930.898823810393
 31
0.0
  0
CIRCLE
  5
19A61
330
2
100
AcDbEntity
  8
VLB
100
AcDbCircle
 10
-17061.04497108759
 20
5043.369554586513
 30
0.0
 40
2.550000000006548
  0
CIRCLE
  5
19A62
330
2
100
AcDbEntity
  8
VLB
100
AcDbCircle
 10
-17061.04497108759
 20
5043.369554586513
 30
0.0
 40
5.000000000001818
  0
LINE
  5
19A63
330
2
100
AcDbEntity
  8
SPS
100
AcDbLine
 10
-17054.73361453051
 20
5043.369554586513
 30
0.0
 11
-17068.07430067516
 21
5043.369554586513
 31
0.0
  0
LINE
  5
19A64
330
2
100
AcDbEntity
  8
SPS
100
AcDbLine
 10
-17061.04497108759
 20
5035.961311732551
 30
0.0
 11
-17061.04497108759
 21
5051.854163810393
 31
0.0
  0
LINE
  5
19A6A
330
2
100
AcDbEntity
  8
VLB
100
AcDbLine
 10
-17676.97015898546
 20
5175.860404006811
 30
0.0
 11
-17050.97015898546
 21
5175.860404006811
 31
0.0
  0
LINE
  5
19A6D
330
2
100
AcDbEntity
  8
SPS
100
AcDbLine
 10
-17668.17545447573
 20
5164.324882415641
 30
0.0
 11
-17681.21464508175
 21
5164.324882415641
 31
0.0
  0
ARC
  5
19A6E
330
2
100
AcDbEntity
  8
VLB
100
AcDbCircle
 10
-17667.71222420374
 20
5164.860404006811
 30
0.0
 40
12.99999999999925
100
AcDbArc
 50
67.3801350519691
 51
112.6198649480308
  0
ARC
  5
19A6F
330
2
100
AcDbEntity
  8
VLB
100
AcDbCircle
 10
-17665.97015898546
 20
5164.324882415641
 30
0.0
 40
12.99999999999925
100
AcDbArc
 50
157.3801350519214
 51
202.6198649480785
  0
LINE
  5
19A70
330
2
100
AcDbEntity
  8
VLB
100
AcDbLine
 10
-17677.97015898546
 20
5159.324882415641
 30
0.0
 11
-17676.97015898546
 21
5159.324882415642
 31
0.0
  0
LINE
  5
19A71
330
2
100
AcDbEntity
  8
VLB
100
AcDbLine
 10
-17672.71222420374
 20
5176.860404006808
 30
0.0
 11
-17672.71222420373
 21
5175.860404006811
 31
0.0
  0
LINE
  5
19A72
330
2
100
AcDbEntity
  8
VLB
100
AcDbLine
 10
-17677.97015898546
 20
5169.32488241564
 30
0.0
 11
-17676.97015898546
 21
5169.324882415639
 31
0.0
  0
ARC
  5
19A73
330
2
100
AcDbEntity
  8
VLB
100
AcDbCircle
 10
-17634.52189801597
 20
5164.860404006811
 30
0.0
 40
12.99999999999925
100
AcDbArc
 50
67.3801350519691
 51
112.6198649480308
  0
LINE
  5
19A74
330
2
100
AcDbEntity
  8
VLB
100
AcDbLine
 10
-17639.52189801597
 20
5176.860404006808
 30
0.0
 11
-17639.52189801597
 21
5175.860404006811
 31
0.0
  0
LINE
  5
19A75
330
2
100
AcDbEntity
  8
VLB
100
AcDbLine
 10
-17629.52189801596
 20
5176.860404006808
 30
0.0
 11
-17629.52189801596
 21
5175.860404006811
 31
0.0
  0
LINE
  5
19A76
330
2
100
AcDbEntity
  8
SPS
100
AcDbLine
 10
-17634.52189801597
 20
5167.065699497084
 30
0.0
 11
-17634.52189801597
 21
5180.104890103095
 31
0.0
  0
LINE
  5
19A7A
330
2
100
AcDbEntity
  8
VLB
100
AcDbLine
 10
-17662.71222420374
 20
5176.860404006808
 30
0.0
 11
-17662.71222420374
 21
5175.860404006811
 31
0.0
  0
LINE
  5
19A7B
330
2
100
AcDbEntity
  8
SPS
100
AcDbLine
 10
-17667.71222420374
 20
5167.065699497084
 30
0.0
 11
-17667.71222420374
 21
5180.104890103095
 31
0.0
  0
LINE
  5
19A81
330
2
100
AcDbEntity
  8
VLB
100
AcDbLine
 10
-17568.97015898546
 20
5213.86040400681
 30
0.0
 11
-17363.97015898546
 21
5220.61097926601
 31
0.0
  0
LINE
  5
19A83
330
2
100
AcDbEntity
  8
VLB
100
AcDbLine
 10
-17568.97015898546
 20
5213.86040400681
 30
0.0
 11
-17568.97015898546
 21
5175.860404006811
 31
0.0
  0
LINE
  5
19A84
330
2
100
AcDbEntity
  8
VLB
100
AcDbLine
 10
-17568.97015898546
 20
5198.86040400681
 30
0.0
 11
-17368.97015898546
 21
5198.86040400681
 31
0.0
  0
LINE
  5
19A89
330
2
100
AcDbEntity
  8
SPS
100
AcDbLine
 10
-17558.79465051641
 20
5179.770442018519
 30
0.0
 11
-17558.79465051641
 21
5195.663294096362
 31
0.0
  0
CIRCLE
  5
19A8A
330
2
100
AcDbEntity
  8
VLB
100
AcDbCircle
 10
-17558.79465051641
 20
5187.178684872481
 30
0.0
 40
5.000000000001818
  0
CIRCLE
  5
19A8B
330
2
100
AcDbEntity
  8
VLB
100
AcDbCircle
 10
-17558.79465051641
 20
5187.178684872481
 30
0.0
 40
2.550000000006548
  0
ARC
  5
19A8C
330
2
100
AcDbEntity
  8
VLB
100
AcDbCircle
 10
-17557.97015898546
 20
5187.178684872481
 30
0.0
 40
12.99999999999925
100
AcDbArc
 50
157.3801350519214
 51
202.6198649480785
  0
LINE
  5
19A8D
330
2
100
AcDbEntity
  8
VLB
100
AcDbLine
 10
-17569.97015898546
 20
5182.178684872481
 30
0.0
 11
-17568.97015898546
 21
5182.178684872483
 31
0.0
  0
LINE
  5
19A8E
330
2
100
AcDbEntity
  8
VLB
100
AcDbLine
 10
-17569.97015898546
 20
5192.178684872481
 30
0.0
 11
-17568.97015898546
 21
5192.17868487248
 31
0.0
  0
LINE
  5
19A8F
330
2
100
AcDbEntity
  8
SPS
100
AcDbLine
 10
-17560.17545447574
 20
5187.178684872481
 30
0.0
 11
-17573.21464508175
 21
5187.178684872481
 31
0.0
  0
LINE
  5
19A90
330
2
100
AcDbEntity
  8
SPS
100
AcDbLine
 10
-17565.10600707349
 20
5187.178684872481
 30
0.0
 11
-17551.76532092884
 21
5187.178684872481
 31
0.0
  0
LINE
  5
19A92
330
2
100
AcDbEntity
  8
VLB
100
AcDbLine
 10
-17158.97015898546
 20
5213.86040400681
 30
0.0
 11
-17158.97015898546
 21
5175.860404006811
 31
0.0
  0
LINE
  5
19A93
330
2
100
AcDbEntity
  8
VLB
100
AcDbLine
 10
-17158.97015898546
 20
5213.86040400681
 30
0.0
 11
-17363.97015898546
 21
5220.610979266011
 31
0.0
  0
LINE
  5
19A94
330
2
100
AcDbEntity
  8
VLB
100
AcDbLine
 10
-17358.97015898546
 20
5198.86040400681
 30
0.0
 11
-17158.97015898546
 21
5198.86040400681
 31
0.0
  0
LINE
  5
19A99
330
2
100
AcDbEntity
  8
SPS
100
AcDbLine
 10
-17169.04497108759
 20
5179.916639561676
 30
0.0
 11
-17169.04497108759
 21
5195.809491639518
 31
0.0
  0
CIRCLE
  5
19A9A
330
2
100
AcDbEntity
  8
VLB
100
AcDbCircle
 10
-17169.04497108759
 20
5187.324882415638
 30
0.0
 40
2.550000000006548
  0
LINE
  5
19A9B
330
2
100
AcDbEntity
  8
SPS
100
AcDbLine
 10
-17162.73361453051
 20
5187.324882415638
 30
0.0
 11
-17176.07430067515
 21
5187.324882415638
 31
0.0
  0
CIRCLE
  5
19A9C
330
2
100
AcDbEntity
  8
VLB
100
AcDbCircle
 10
-17169.04497108759
 20
5187.324882415638
 30
0.0
 40
5.000000000001818
  0
LINE
  5
19AA5
330
2
100
AcDbEntity
  8
SPS
100
AcDbLine
 10
-17054.73361453051
 20
5164.324882415638
 30
0.0
 11
-17068.07430067516
 21
5164.324882415638
 31
0.0
  0
CIRCLE
  5
19AA6
330
2
100
AcDbEntity
  8
VLB
100
AcDbCircle
 10
-17061.04497108759
 20
5164.324882415638
 30
0.0
 40
5.000000000001818
  0
CIRCLE
  5
19AA8
330
2
100
AcDbEntity
  8
VLB
100
AcDbCircle
 10
-17061.04497108759
 20
5164.324882415638
 30
0.0
 40
2.550000000006548
  0
LINE
  5
19AA9
330
2
100
AcDbEntity
  8
VLB
100
AcDbLine
 10
-16989.68947004252
 20
5214.258402443224
 30
0.0
 11
-17158.09683142871
 21
5219.845050001691
 31
0.0
  0
LINE
  5
19AAA
330
2
100
AcDbEntity
  8
VLB
100
AcDbLine
 10
-16968.94728191351
 20
5191.057936249181
 30
0.0
 11
-17158.84282294245
 21
5197.357420143002
 31
0.0
  0
LINE
  5
19AAB
330
2
100
AcDbEntity
  8
VLB
100
AcDbLine
 10
-16968.94728191351
 20
5191.057936249181
 30
0.0
 11
-16968.89754914593
 21
5192.557111573094
 31
0.0
  0
LINE
  5
19AAC
330
2
100
AcDbEntity
  8
VLB
100
AcDbLine
 10
-16968.89754914593
 20
5192.557111573094
 30
0.0
 11
-16989.68947004252
 21
5214.258402443224
 31
0.0
  0
LINE
  5
19AAD
330
2
100
AcDbEntity
  8
VLB
100
AcDbLine
 10
-17158.09683142871
 20
5219.845050001691
 30
0.0
 11
-17158.84282294245
 21
5197.357420143002
 31
0.0
  0
LINE
  5
19AAE
330
2
100
AcDbEntity
  8
SPS
100
AcDbLine
 10
-17150.6468516853
 20
5194.083881514552
 30
0.0
 11
-17150.39818784738
 21
5201.579758134115
 31
0.0
  0
LINE
  5
19AAF
330
2
100
AcDbEntity
  8
VLB
100
AcDbLine
 10
-17759.04276882499
 20
5192.557111573094
 30
0.0
 11
-17738.25084792841
 21
5214.258402443224
 31
0.0
  0
LINE
  5
19AB0
330
2
100
AcDbEntity
  8
VLB
100
AcDbLine
 10
-17758.99303605742
 20
5191.057936249181
 30
0.0
 11
-17569.09749502848
 21
5197.357420143002
 31
0.0
  0
LINE
  5
19AB1
330
2
100
AcDbEntity
  8
VLB
100
AcDbLine
 10
-17738.25084792841
 20
5214.258402443224
 30
0.0
 11
-17569.84348654222
 21
5219.845050001691
 31
0.0
  0
LINE
  5
19AB2
330
2
100
AcDbEntity
  8
VLB
100
AcDbLine
 10
-17758.99303605742
 20
5191.057936249181
 30
0.0
 11
-17759.04276882499
 21
5192.557111573094
 31
0.0
  0
LINE
  5
19AB3
330
2
100
AcDbEntity
  8
VLB
100
AcDbLine
 10
-17569.84348654222
 20
5219.845050001691
 30
0.0
 11
-17569.09749502848
 21
5197.357420143002
 31
0.0
  0
ARC
  5
19AB5
330
2
100
AcDbEntity
  8
VLB
100
AcDbCircle
 10
-17363.97015898546
 20
5215.860404006811
 30
0.0
 40
5.0
100
AcDbArc
 50
0.0
 51
180.0
  0
LINE
  5
19AB6
330
2
100
AcDbEntity
  8
VLB
100
AcDbLine
 10
-17351.47015898546
 20
5183.716788589822
 30
0.0
 11
-17351.47015898546
 21
5175.860404006812
 31
0.0
  0
LINE
  5
19AB7
330
2
100
AcDbEntity
  8
VLB
100
AcDbLine
 10
-17376.47015898547
 20
5183.716788589822
 30
0.0
 11
-17368.97015898546
 21
5187.248727391462
 31
0.0
  0
ELLIPSE
  5
19AB8
330
2
100
AcDbEntity
  8
VLS
100
AcDbEllipse
 10
-17363.97015898546
 20
5181.460490814125
 30
0.0
 11
-5.0
 21
0.0000000000000003
 31
0.0
210
0.0
220
0.0
230
1.0
 40
0.3616747482367373
 41
0.6435011087932847
 42
2.498091544796508
  0
LINE
  5
19AB9
330
2
100
AcDbEntity
  8
VLB
100
AcDbLine
 10
-17376.47015898547
 20
5183.716788589822
 30
0.0
 11
-17376.47015898546
 21
5175.860404006812
 31
0.0
  0
LINE
  5
19ABA
330
2
100
AcDbEntity
  8
VLB
100
AcDbLine
 10
-17376.47015898546
 20
5183.716788589822
 30
0.0
 11
-17368.97015898546
 21
5183.716788589822
 31
0.0
  0
LINE
  5
19ABB
330
2
100
AcDbEntity
  8
VLB
100
AcDbLine
 10
-17351.47015898546
 20
5183.716788589822
 30
0.0
 11
-17358.97015898546
 21
5187.24872739146
 31
0.0
  0
LINE
  5
19ABC
330
2
100
AcDbEntity
  8
VLB
100
AcDbLine
 10
-17376.47015898546
 20
5175.860404006812
 30
0.0
 11
-17351.47015898546
 21
5175.860404006811
 31
0.0
  0
LINE
  5
19ABD
330
2
100
AcDbEntity
  8
VLB
100
AcDbLine
 10
-17358.97015898546
 20
5183.716788589822
 30
0.0
 11
-17351.47015898546
 21
5183.716788589822
 31
0.0
  0
LINE
  5
19ABE
330
2
100
AcDbEntity
  8
SPS
100
AcDbLine
 10
-17371.97015898546
 20
5198.36040400681
 30
0.0
 11
-17355.97015898546
 21
5198.36040400681
 31
0.0
  0
LINE
  5
19ABF
330
2
100
AcDbEntity
  8
VLB
100
AcDbLine
 10
-17368.97015898546
 20
5215.860404006811
 30
0.0
 11
-17368.97015898546
 21
5181.460490814125
 31
0.0
  0
LINE
  5
19AC0
330
2
100
AcDbEntity
  8
VLB
100
AcDbLine
 10
-17358.97015898546
 20
5215.860404006811
 30
0.0
 11
-17358.97015898546
 21
5181.460490814125
 31
0.0
  0
LINE
  5
19AC5
330
2
100
AcDbEntity
  8
SPS
100
AcDbLine
 10
-18459.02013668885
 20
4356.291390512825
 30
0.0
 11
-18459.02013668885
 21
3535.891390512821
 31
0.0
  0
LINE
  5
19AC6
330
2
100
AcDbEntity
  8
SPS
100
AcDbLine
 10
-18787.02013668885
 20
3946.091390512822
 30
0.0
 11
-18131.02013668885
 21
3946.091390512823
 31
0.0
  0
LINE
  5
19AC8
330
2
100
AcDbEntity
  8
VLB
100
AcDbLine
 10
-18146.02013668885
 20
4258.091390512821
 30
0.0
 11
-18146.02013668885
 21
3634.591390512825
 31
0.0
  0
LINE
  5
19AD7
330
2
100
AcDbEntity
  8
VLB
100
AcDbLine
 10
-18771.02013668885
 20
4259.091390512822
 30
0.0
 11
-18540.52013668885
 21
4259.091390512824
 31
0.0
  0
LINE
  5
19AD8
330
2
100
AcDbEntity
  8
VLB
100
AcDbLine
 10
-18770.52013668885
 20
3633.091390512824
 30
0.0
 11
-18540.52013668885
 21
3633.091390512823
 31
0.0
  0
LINE
  5
19ADB
330
2
100
AcDbEntity
  8
VLB
100
AcDbLine
 10
-18771.02013668885
 20
4259.091390512824
 30
0.0
 11
-18771.02013668885
 21
4207.591390512823
 31
0.0
  0
LINE
  5
19ADC
330
2
100
AcDbEntity
  8
SPS
100
AcDbLine
 10
-18763.26220190713
 20
4211.107406907962
 30
0.0
 11
-18763.26220190713
 21
4227.000258985805
 31
0.0
  0
LINE
  5
19ADD
330
2
100
AcDbEntity
  8
SPS
100
AcDbLine
 10
-18725.71069210898
 20
4211.107406907962
 30
0.0
 11
-18725.71069210898
 21
4227.000258985805
 31
0.0
  0
LINE
  5
19ADE
330
2
100
AcDbEntity
  8
VLB
100
AcDbLine
 10
-18718.02013668885
 20
4207.591390512823
 30
0.0
 11
-18718.02013668885
 21
4206.09139051282
 31
0.0
  0
LINE
  5
19ADF
330
2
100
AcDbEntity
  8
VLB
100
AcDbLine
 10
-18718.02013668885
 20
4207.591390512823
 30
0.0
 11
-18771.02013668885
 21
4207.591390512823
 31
0.0
  0
CIRCLE
  5
19AE2
330
2
100
AcDbEntity
  8
VLB
100
AcDbCircle
 10
-18763.26220190713
 20
4218.515649761922
 30
0.0
 40
2.550000000006548
  0
LINE
  5
19AE3
330
2
100
AcDbEntity
  8
SPS
100
AcDbLine
 10
-18763.26220190713
 20
4250.296686003097
 30
0.0
 11
-18763.26220190713
 21
4263.335876609107
 31
0.0
  0
LINE
  5
19AE4
330
2
100
AcDbEntity
  8
VLB
100
AcDbLine
 10
-18758.26220190713
 20
4260.091390512822
 30
0.0
 11
-18758.26220190713
 21
4259.091390512824
 31
0.0
  0
LINE
  5
19AE5
330
2
100
AcDbEntity
  8
SPS
100
AcDbLine
 10
-18732.02204866606
 20
4218.515649761922
 30
0.0
 11
-18718.68136252141
 21
4218.515649761922
 31
0.0
  0
CIRCLE
  5
19AE6
330
2
100
AcDbEntity
  8
VLB
100
AcDbCircle
 10
-18725.71069210898
 20
4218.515649761922
 30
0.0
 40
5.000000000001818
  0
CIRCLE
  5
19AE7
330
2
100
AcDbEntity
  8
VLB
100
AcDbCircle
 10
-18725.71069210898
 20
4218.515649761922
 30
0.0
 40
2.550000000006548
  0
ARC
  5
19AE8
330
2
100
AcDbEntity
  8
VLB
100
AcDbCircle
 10
-18761.02013668873
 20
4247.262577353689
 30
0.0
 40
13.00000000013173
100
AcDbArc
 50
157.3801350519214
 51
164.0576313944422
  0
LINE
  5
19AE9
330
2
100
AcDbEntity
  8
VLB
100
AcDbLine
 10
-18773.02013668885
 20
4252.262577353742
 30
0.0
 11
-18772.02013668885
 21
4252.26257735374
 31
0.0
  0
LINE
  5
19AEA
330
2
100
AcDbEntity
  8
VLB
100
AcDbLine
 10
-18772.02013668885
 20
4257.591390512824
 30
0.0
 11
-18771.02013668885
 21
4257.591390512824
 31
0.0
  0
LINE
  5
19AEB
330
2
100
AcDbEntity
  8
VLB
100
AcDbLine
 10
-18768.26220190713
 20
4260.091390512822
 30
0.0
 11
-18768.26220190713
 21
4259.091390512824
 31
0.0
  0
ARC
  5
19AEC
330
2
100
AcDbEntity
  8
VLB
100
AcDbCircle
 10
-18761.02013668896
 20
4247.262577353715
 30
0.0
 40
12.9999999998802
100
AcDbArc
 50
195.9423686055577
 51
202.6198649481446
  0
LINE
  5
19AED
330
2
100
AcDbEntity
  8
VLB
100
AcDbLine
 10
-18773.02013668885
 20
4242.262577353741
 30
0.0
 11
-18772.02013668885
 21
4242.262577353744
 31
0.0
  0
LINE
  5
19AEE
330
2
100
AcDbEntity
  8
VLB
100
AcDbLine
 10
-18772.02013668885
 20
4252.26257735374
 30
0.0
 11
-18772.02013668885
 21
4242.262577353744
 31
0.0
  0
ARC
  5
19AEF
330
2
100
AcDbEntity
  8
VLB
100
AcDbCircle
 10
-18761.02013668885
 20
4247.262577353742
 30
0.0
 40
12.99999999999925
100
AcDbArc
 50
164.0576313944422
 51
195.9423686055577
  0
CIRCLE
  5
19AF0
330
2
100
AcDbEntity
  8
VLB
100
AcDbCircle
 10
-18763.26220190713
 20
4218.515649761922
 30
0.0
 40
5.000000000001818
  0
LINE
  5
19AF1
330
2
100
AcDbEntity
  8
SPS
100
AcDbLine
 10
-18769.5735584642
 20
4218.515649761922
 30
0.0
 11
-18756.23287231956
 21
4218.515649761922
 31
0.0
  0
LINE
  5
19AF2
330
2
100
AcDbEntity
  8
SPS
100
AcDbLine
 10
-18763.22543217912
 20
4247.262577353742
 30
0.0
 11
-18776.26462278513
 21
4247.262577353742
 31
0.0
  0
ARC
  5
19AF3
330
2
100
AcDbEntity
  8
VLB
100
AcDbCircle
 10
-18763.26220190713
 20
4248.091390512824
 30
0.0
 40
12.99999999999925
100
AcDbArc
 50
67.3801350519691
 51
112.6198649480308
  0
LINE
  5
19AF4
330
2
100
AcDbEntity
  8
VLB
100
AcDbLine
 10
-18772.02013668885
 20
4257.591390512824
 30
0.0
 11
-18772.02013668885
 21
3634.091390512827
 31
0.0
  0
ARC
  5
19AF5
330
2
100
AcDbEntity
  8
VLB
100
AcDbCircle
 10
-18761.02013668885
 20
3641.849325294546
 30
0.0
 40
12.99999999999925
100
AcDbArc
 50
157.380135051969
 51
202.6198649480308
  0
LINE
  5
19AF6
330
2
100
AcDbEntity
  8
SPS
100
AcDbLine
 10
-18760.19132352977
 20
3641.886095022554
 30
0.0
 11
-18760.19132352977
 21
3628.846904416544
 31
0.0
  0
LINE
  5
19AF7
330
2
100
AcDbEntity
  8
SPS
100
AcDbLine
 10
-18731.44439593795
 20
3635.537968737473
 30
0.0
 11
-18731.44439593795
 21
3648.878654882114
 31
0.0
  0
CIRCLE
  5
19AF8
330
2
100
AcDbEntity
  8
VLB
100
AcDbCircle
 10
-18731.44439593795
 20
3641.849325294546
 30
0.0
 40
5.000000000001818
  0
ARC
  5
19AF9
330
2
100
AcDbEntity
  8
VLB
100
AcDbCircle
 10
-18760.19132352977
 20
3644.091390512827
 30
0.0
 40
12.99999999999925
100
AcDbArc
 50
254.0576313944422
 51
285.9423686055577
  0
LINE
  5
19AFA
330
2
100
AcDbEntity
  8
VLB
100
AcDbLine
 10
-18765.19132352977
 20
3633.091390512828
 30
0.0
 11
-18755.19132352977
 21
3633.091390512828
 31
0.0
  0
LINE
  5
19AFB
330
2
100
AcDbEntity
  8
VLB
100
AcDbLine
 10
-18755.19132352977
 20
3632.09139051283
 30
0.0
 11
-18755.19132352977
 21
3633.091390512828
 31
0.0
  0
ARC
  5
19AFC
330
2
100
AcDbEntity
  8
VLB
100
AcDbCircle
 10
-18760.19132352974
 20
3644.091390512711
 30
0.0
 40
12.9999999998802
100
AcDbArc
 50
285.9423686055577
 51
292.6198649481445
  0
LINE
  5
19AFD
330
2
100
AcDbEntity
  8
VLB
100
AcDbLine
 10
-18773.02013668885
 20
3636.849325294547
 30
0.0
 11
-18772.02013668885
 21
3636.849325294551
 31
0.0
  0
LINE
  5
19AFE
330
2
100
AcDbEntity
  8
VLB
100
AcDbLine
 10
-18770.52013668885
 20
3633.091390512828
 30
0.0
 11
-18770.52013668885
 21
3634.091390512828
 31
0.0
  0
LINE
  5
19AFF
330
2
100
AcDbEntity
  8
VLB
100
AcDbLine
 10
-18765.19132352977
 20
3632.09139051283
 30
0.0
 11
-18765.19132352977
 21
3633.091390512828
 31
0.0
  0
ARC
  5
19B00
330
2
100
AcDbEntity
  8
VLB
100
AcDbCircle
 10
-18760.19132352972
 20
3644.091390512949
 30
0.0
 40
13.00000000013173
100
AcDbArc
 50
247.3801350519214
 51
254.0576313944422
  0
CIRCLE
  5
19B01
330
2
100
AcDbEntity
  8
VLB
100
AcDbCircle
 10
-18731.44439593795
 20
3679.400835092698
 30
0.0
 40
2.550000000006548
  0
CIRCLE
  5
19B02
330
2
100
AcDbEntity
  8
VLB
100
AcDbCircle
 10
-18731.44439593795
 20
3679.400835092698
 30
0.0
 40
5.000000000001818
  0
LINE
  5
19B03
330
2
100
AcDbEntity
  8
SPS
100
AcDbLine
 10
-18731.44439593795
 20
3673.089478535624
 30
0.0
 11
-18731.44439593795
 21
3686.430164680265
 31
0.0
  0
LINE
  5
19B04
330
2
100
AcDbEntity
  8
VLB
100
AcDbLine
 10
-18773.02013668885
 20
3646.849325294547
 30
0.0
 11
-18772.02013668885
 21
3646.849325294547
 31
0.0
  0
LINE
  5
19B05
330
2
100
AcDbEntity
  8
SPS
100
AcDbLine
 10
-18763.22543217913
 20
3641.849325294547
 30
0.0
 11
-18776.26462278514
 21
3641.849325294547
 31
0.0
  0
CIRCLE
  5
19B06
330
2
100
AcDbEntity
  8
VLB
100
AcDbCircle
 10
-18731.44439593795
 20
3641.849325294546
 30
0.0
 40
2.550000000006548
  0
LINE
  5
19B07
330
2
100
AcDbEntity
  8
VLB
100
AcDbLine
 10
-18720.52013668885
 20
3687.091390512828
 30
0.0
 11
-18720.52013668885
 21
3634.091390512828
 31
0.0
  0
LINE
  5
19B08
330
2
100
AcDbEntity
  8
VLB
100
AcDbLine
 10
-18720.52013668885
 20
3687.091390512828
 30
0.0
 11
-18719.02013668885
 21
3687.091390512828
 31
0.0
  0
LINE
  5
19B09
330
2
100
AcDbEntity
  8
SPS
100
AcDbLine
 10
-18724.03615308399
 20
3679.400835092698
 30
0.0
 11
-18739.92900516183
 21
3679.400835092698
 31
0.0
  0
LINE
  5
19B0A
330
2
100
AcDbEntity
  8
SPS
100
AcDbLine
 10
-18724.03615308399
 20
3641.849325294547
 30
0.0
 11
-18739.92900516183
 21
3641.849325294547
 31
0.0
  0
LINE
  5
19B0B
330
2
100
AcDbEntity
  8
VLB
100
AcDbLine
 10
-18772.02013668885
 20
3634.091390512828
 30
0.0
 11
-18720.52013668885
 21
3634.091390512828
 31
0.0
  0
ARC
  5
19B0C
330
2
100
AcDbEntity
  8
VLB
100
AcDbCircle
 10
-18154.77807147058
 20
3644.091390512825
 30
0.0
 40
12.99999999999925
100
AcDbArc
 50
247.380135051969
 51
292.6198649480308
  0
LINE
  5
19B0D
330
2
100
AcDbEntity
  8
SPS
100
AcDbLine
 10
-18154.81484119858
 20
3644.920203671906
 30
0.0
 11
-18141.77565059257
 21
3644.920203671906
 31
0.0
  0
LINE
  5
19B0E
330
2
100
AcDbEntity
  8
SPS
100
AcDbLine
 10
-18148.4667149135
 20
3673.667131263725
 30
0.0
 11
-18161.80740105814
 21
3673.667131263725
 31
0.0
  0
CIRCLE
  5
19B0F
330
2
100
AcDbEntity
  8
VLB
100
AcDbCircle
 10
-18154.77807147058
 20
3673.667131263726
 30
0.0
 40
5.000000000001818
  0
ARC
  5
19B10
330
2
100
AcDbEntity
  8
VLB
100
AcDbCircle
 10
-18157.02013668886
 20
3644.920203671906
 30
0.0
 40
12.99999999999925
100
AcDbArc
 50
344.0576313944422
 51
15.94236860555772
  0
LINE
  5
19B11
330
2
100
AcDbEntity
  8
VLB
100
AcDbLine
 10
-18146.02013668886
 20
3639.920203671908
 30
0.0
 11
-18146.02013668886
 21
3649.920203671904
 31
0.0
  0
LINE
  5
19B12
330
2
100
AcDbEntity
  8
VLB
100
AcDbLine
 10
-18145.02013668886
 20
3649.920203671906
 30
0.0
 11
-18146.02013668886
 21
3649.920203671904
 31
0.0
  0
ARC
  5
19B13
330
2
100
AcDbEntity
  8
VLB
100
AcDbCircle
 10
-18157.02013668874
 20
3644.920203671934
 30
0.0
 40
12.9999999998802
100
AcDbArc
 50
15.94236860555772
 51
22.61986494814461
  0
LINE
  5
19B14
330
2
100
AcDbEntity
  8
VLB
100
AcDbLine
 10
-18149.77807147058
 20
3632.091390512826
 30
0.0
 11
-18149.77807147058
 21
3633.091390512825
 31
0.0
  0
LINE
  5
19B15
330
2
100
AcDbEntity
  8
VLB
100
AcDbLine
 10
-18146.02013668886
 20
3634.591390512825
 30
0.0
 11
-18147.02013668886
 21
3634.591390512825
 31
0.0
  0
LINE
  5
19B16
330
2
100
AcDbEntity
  8
VLB
100
AcDbLine
 10
-18145.02013668886
 20
3639.920203671906
 30
0.0
 11
-18146.02013668886
 21
3639.920203671908
 31
0.0
  0
ARC
  5
19B17
330
2
100
AcDbEntity
  8
VLB
100
AcDbCircle
 10
-18157.02013668898
 20
3644.92020367196
 30
0.0
 40
13.00000000013173
100
AcDbArc
 50
337.3801350519214
 51
344.0576313944422
  0
CIRCLE
  5
19B18
330
2
100
AcDbEntity
  8
VLB
100
AcDbCircle
 10
-18192.32958126873
 20
3673.667131263726
 30
0.0
 40
2.550000000006548
  0
CIRCLE
  5
19B19
330
2
100
AcDbEntity
  8
VLB
100
AcDbCircle
 10
-18192.32958126873
 20
3673.667131263726
 30
0.0
 40
5.000000000001818
  0
LINE
  5
19B1A
330
2
100
AcDbEntity
  8
SPS
100
AcDbLine
 10
-18186.01822471165
 20
3673.667131263725
 30
0.0
 11
-18199.3589108563
 21
3673.667131263725
 31
0.0
  0
LINE
  5
19B1B
330
2
100
AcDbEntity
  8
VLB
100
AcDbLine
 10
-18159.77807147057
 20
3632.091390512826
 30
0.0
 11
-18159.77807147057
 21
3633.091390512825
 31
0.0
  0
LINE
  5
19B1C
330
2
100
AcDbEntity
  8
SPS
100
AcDbLine
 10
-18154.77807147058
 20
3641.886095022551
 30
0.0
 11
-18154.77807147058
 21
3628.84690441654
 31
0.0
  0
CIRCLE
  5
19B1D
330
2
100
AcDbEntity
  8
VLB
100
AcDbCircle
 10
-18154.77807147058
 20
3673.667131263726
 30
0.0
 40
2.550000000006548
  0
LINE
  5
19B1E
330
2
100
AcDbEntity
  8
VLB
100
AcDbLine
 10
-18200.02013668886
 20
3684.591390512824
 30
0.0
 11
-18147.02013668886
 21
3684.591390512824
 31
0.0
  0
LINE
  5
19B1F
330
2
100
AcDbEntity
  8
VLB
100
AcDbLine
 10
-18200.02013668886
 20
3684.591390512824
 30
0.0
 11
-18200.02013668886
 21
3686.091390512828
 31
0.0
  0
LINE
  5
19B20
330
2
100
AcDbEntity
  8
SPS
100
AcDbLine
 10
-18192.32958126873
 20
3681.075374117686
 30
0.0
 11
-18192.32958126873
 21
3665.182522039843
 31
0.0
  0
LINE
  5
19B21
330
2
100
AcDbEntity
  8
SPS
100
AcDbLine
 10
-18154.77807147058
 20
3681.075374117686
 30
0.0
 11
-18154.77807147058
 21
3665.182522039843
 31
0.0
  0
LINE
  5
19B22
330
2
100
AcDbEntity
  8
VLB
100
AcDbLine
 10
-18147.02013668886
 20
3633.091390512825
 30
0.0
 11
-18147.02013668886
 21
3684.591390512824
 31
0.0
  0
ARC
  5
19B23
330
2
100
AcDbEntity
  8
VLB
100
AcDbCircle
 10
-18157.02013668886
 20
4250.333455731101
 30
0.0
 40
12.99999999999925
100
AcDbArc
 50
337.380135051969
 51
22.61986494803084
  0
LINE
  5
19B24
330
2
100
AcDbEntity
  8
SPS
100
AcDbLine
 10
-18157.84894984794
 20
4250.296686003094
 30
0.0
 11
-18157.84894984794
 21
4263.335876609104
 31
0.0
  0
LINE
  5
19B25
330
2
100
AcDbEntity
  8
SPS
100
AcDbLine
 10
-18186.59587743976
 20
4256.644812288176
 30
0.0
 11
-18186.59587743976
 21
4243.304126143534
 31
0.0
  0
CIRCLE
  5
19B26
330
2
100
AcDbEntity
  8
VLB
100
AcDbCircle
 10
-18186.59587743976
 20
4250.333455731101
 30
0.0
 40
5.000000000001818
  0
ARC
  5
19B27
330
2
100
AcDbEntity
  8
VLB
100
AcDbCircle
 10
-18157.84894984794
 20
4248.091390512819
 30
0.0
 40
12.99999999999925
100
AcDbArc
 50
74.05763139444217
 51
105.9423686055577
  0
LINE
  5
19B28
330
2
100
AcDbEntity
  8
VLB
100
AcDbLine
 10
-18152.84894984794
 20
4259.09139051282
 30
0.0
 11
-18162.84894984794
 21
4259.09139051282
 31
0.0
  0
LINE
  5
19B29
330
2
100
AcDbEntity
  8
VLB
100
AcDbLine
 10
-18162.84894984794
 20
4260.091390512819
 30
0.0
 11
-18162.84894984794
 21
4259.09139051282
 31
0.0
  0
ARC
  5
19B2A
330
2
100
AcDbEntity
  8
VLB
100
AcDbCircle
 10
-18157.84894984797
 20
4248.091390512936
 30
0.0
 40
12.9999999998802
100
AcDbArc
 50
105.9423686055577
 51
112.6198649481445
  0
LINE
  5
19B2B
330
2
100
AcDbEntity
  8
VLB
100
AcDbLine
 10
-18145.02013668886
 20
4255.333455731101
 30
0.0
 11
-18146.02013668885
 21
4255.333455731098
 31
0.0
  0
LINE
  5
19B2C
330
2
100
AcDbEntity
  8
VLB
100
AcDbLine
 10
-18147.52013668885
 20
4259.09139051282
 30
0.0
 11
-18147.52013668885
 21
4258.091390512821
 31
0.0
  0
LINE
  5
19B2D
330
2
100
AcDbEntity
  8
VLB
100
AcDbLine
 10
-18152.84894984793
 20
4260.091390512819
 30
0.0
 11
-18152.84894984794
 21
4259.09139051282
 31
0.0
  0
ARC
  5
19B2E
330
2
100
AcDbEntity
  8
VLB
100
AcDbCircle
 10
-18157.84894984799
 20
4248.091390512698
 30
0.0
 40
13.00000000013173
100
AcDbArc
 50
67.38013505192142
 51
74.05763139444217
  0
CIRCLE
  5
19B2F
330
2
100
AcDbEntity
  8
VLB
100
AcDbCircle
 10
-18186.59587743976
 20
4212.781945932949
 30
0.0
 40
2.550000000006548
  0
CIRCLE
  5
19B30
330
2
100
AcDbEntity
  8
VLB
100
AcDbCircle
 10
-18186.59587743976
 20
4212.781945932949
 30
0.0
 40
5.000000000001818
  0
LINE
  5
19B31
330
2
100
AcDbEntity
  8
SPS
100
AcDbLine
 10
-18186.59587743976
 20
4219.093302490025
 30
0.0
 11
-18186.59587743976
 21
4205.752616345383
 31
0.0
  0
LINE
  5
19B32
330
2
100
AcDbEntity
  8
VLB
100
AcDbLine
 10
-18145.02013668886
 20
4245.333455731102
 30
0.0
 11
-18146.02013668885
 21
4245.333455731102
 31
0.0
  0
LINE
  5
19B33
330
2
100
AcDbEntity
  8
SPS
100
AcDbLine
 10
-18154.81484119858
 20
4250.333455731102
 30
0.0
 11
-18141.77565059257
 21
4250.333455731102
 31
0.0
  0
CIRCLE
  5
19B34
330
2
100
AcDbEntity
  8
VLB
100
AcDbCircle
 10
-18186.59587743976
 20
4250.333455731101
 30
0.0
 40
2.550000000006548
  0
LINE
  5
19B35
330
2
100
AcDbEntity
  8
VLB
100
AcDbLine
 10
-18197.52013668885
 20
4205.091390512821
 30
0.0
 11
-18197.52013668885
 21
4258.091390512821
 31
0.0
  0
LINE
  5
19B36
330
2
100
AcDbEntity
  8
VLB
100
AcDbLine
 10
-18197.52013668885
 20
4205.091390512821
 30
0.0
 11
-18199.02013668886
 21
4205.091390512821
 31
0.0
  0
LINE
  5
19B37
330
2
100
AcDbEntity
  8
SPS
100
AcDbLine
 10
-18194.00412029372
 20
4212.78194593295
 30
0.0
 11
-18178.11126821587
 21
4212.78194593295
 31
0.0
  0
LINE
  5
19B38
330
2
100
AcDbEntity
  8
SPS
100
AcDbLine
 10
-18194.00412029372
 20
4250.333455731102
 30
0.0
 11
-18178.11126821587
 21
4250.333455731102
 31
0.0
  0
LINE
  5
19B39
330
2
100
AcDbEntity
  8
VLB
100
AcDbLine
 10
-18146.02013668885
 20
4258.091390512821
 30
0.0
 11
-18197.52013668885
 21
4258.091390512821
 31
0.0
  0
LINE
  5
19B3B
330
2
100
AcDbEntity
  8
VLB
100
AcDbLine
 10
-18197.52013668885
 20
4206.091390512818
 30
0.0
 11
-18377.52013668885
 21
4206.091390512819
 31
0.0
  0
LINE
  5
19B3C
330
2
100
AcDbEntity
  8
VLB
100
AcDbLine
 10
-18719.02013668885
 20
4207.591390512823
 30
0.0
 11
-18719.02013668885
 21
3687.091390512828
 31
0.0
  0
LINE
  5
19B3D
330
2
100
AcDbEntity
  8
VLB
100
AcDbLine
 10
-18720.52013668885
 20
3686.09139051283
 30
0.0
 11
-18540.52013668885
 21
3686.09139051283
 31
0.0
  0
LINE
  5
19B3E
330
2
100
AcDbEntity
  8
VLB
100
AcDbLine
 10
-18199.02013668886
 20
3684.591390512825
 30
0.0
 11
-18199.02013668886
 21
4205.091390512821
 31
0.0
  0
ARC
  5
19B3F
330
2
100
AcDbEntity
  8
VLB
100
AcDbCircle
 10
-18745.52013668885
 20
3946.091390512822
 30
0.0
 40
12.49999999999818
100
AcDbArc
 50
203.5781784781862
 51
336.4218215218136
  0
LINE
  5
19B40
330
2
100
AcDbEntity
  8
VLB
100
AcDbLine
 10
-18763.02013668885
 20
3951.091390512823
 30
0.0
 11
-18728.02013668885
 21
3951.091390512823
 31
0.0
  0
LINE
  5
19B41
330
2
100
AcDbEntity
  8
VLB
100
AcDbLine
 10
-18763.02013668885
 20
3941.091390512823
 30
0.0
 11
-18728.02013668885
 21
3941.091390512823
 31
0.0
  0
ARC
  5
19B42
330
2
100
AcDbEntity
  8
VLB
100
AcDbCircle
 10
-18745.52013668885
 20
3946.091390512822
 30
0.0
 40
12.49999999999818
100
AcDbArc
 50
23.57817847818628
 51
156.4218215218137
  0
LINE
  5
19B43
330
2
100
AcDbEntity
  8
SPS
100
AcDbLine
 10
-18745.52013668885
 20
3961.591390512822
 30
0.0
 11
-18745.52013668885
 21
3930.591390512825
 31
0.0
  0
LINE
  5
19B44
330
2
100
AcDbEntity
  8
SPS
100
AcDbLine
 10
-18763.02013668885
 20
3954.091390512823
 30
0.0
 11
-18763.02013668885
 21
3938.091390512823
 31
0.0
  0
LINE
  5
19B45
330
2
100
AcDbEntity
  8
SPS
100
AcDbLine
 10
-18728.02013668885
 20
3954.091390512823
 30
0.0
 11
-18728.02013668885
 21
3938.091390512823
 31
0.0
  0
ARC
  5
19B46
330
2
100
AcDbEntity
  8
VLB
100
AcDbCircle
 10
-18728.02013668885
 20
3946.091390512822
 30
0.0
 40
5.0
100
AcDbArc
 50
270.0
 51
90.0
  0
LINE
  5
19B47
330
2
100
AcDbEntity
  8
SPS
100
AcDbLine
 10
-18771.02013668885
 20
3946.091390512822
 30
0.0
 11
-18720.02013668885
 21
3946.091390512822
 31
0.0
  0
ARC
  5
19B48
330
2
100
AcDbEntity
  8
VLB
100
AcDbCircle
 10
-18763.02013668885
 20
3946.091390512822
 30
0.0
 40
5.0
100
AcDbArc
 50
90.0
 51
270.0
  0
LINE
  5
19B49
330
2
100
AcDbEntity
  8
SPS
100
AcDbLine
 10
-18190.02013668885
 20
3954.091390512823
 30
0.0
 11
-18190.02013668885
 21
3938.091390512823
 31
0.0
  0
LINE
  5
19B4A
330
2
100
AcDbEntity
  8
SPS
100
AcDbLine
 10
-18155.02013668885
 20
3954.091390512823
 30
0.0
 11
-18155.02013668885
 21
3938.091390512823
 31
0.0
  0
LINE
  5
19B4B
330
2
100
AcDbEntity
  8
SPS
100
AcDbLine
 10
-18172.52013668885
 20
3961.591390512822
 30
0.0
 11
-18172.52013668885
 21
3930.591390512825
 31
0.0
  0
ARC
  5
19B4C
330
2
100
AcDbEntity
  8
VLB
100
AcDbCircle
 10
-18172.52013668885
 20
3946.091390512822
 30
0.0
 40
12.49999999999818
100
AcDbArc
 50
23.57817847818628
 51
156.4218215218137
  0
ARC
  5
19B4D
330
2
100
AcDbEntity
  8
VLB
100
AcDbCircle
 10
-18155.02013668885
 20
3946.091390512822
 30
0.0
 40
5.0
100
AcDbArc
 50
270.0
 51
90.0
  0
LINE
  5
19B4E
330
2
100
AcDbEntity
  8
SPS
100
AcDbLine
 10
-18147.02013668885
 20
3946.091390512822
 30
0.0
 11
-18198.02013668885
 21
3946.091390512822
 31
0.0
  0
ARC
  5
19B4F
330
2
100
AcDbEntity
  8
VLB
100
AcDbCircle
 10
-18190.02013668885
 20
3946.091390512822
 30
0.0
 40
5.0
100
AcDbArc
 50
90.0
 51
270.0
  0
LINE
  5
19B50
330
2
100
AcDbEntity
  8
VLB
100
AcDbLine
 10
-18155.02013668885
 20
3941.091390512823
 30
0.0
 11
-18190.02013668885
 21
3941.091390512823
 31
0.0
  0
LINE
  5
19B51
330
2
100
AcDbEntity
  8
VLB
100
AcDbLine
 10
-18155.02013668885
 20
3951.091390512823
 30
0.0
 11
-18190.02013668885
 21
3951.091390512823
 31
0.0
  0
ARC
  5
19B52
330
2
100
AcDbEntity
  8
VLB
100
AcDbCircle
 10
-18172.52013668885
 20
3946.091390512822
 30
0.0
 40
12.49999999999818
100
AcDbArc
 50
203.5781784781863
 51
336.4218215218137
  0
LINE
  5
19B53
330
2
100
AcDbEntity
  8
VLB
100
AcDbLine
 10
-18664.02013668885
 20
4150.091390512826
 30
0.0
 11
-18664.02013668885
 21
3742.091390512825
 31
0.0
  0
LINE
  5
19B54
330
2
100
AcDbEntity
  8
VLB
100
AcDbLine
 10
-18663.02013668885
 20
3741.091390512825
 30
0.0
 11
-18538.52013668885
 21
3741.091390512826
 31
0.0
  0
LINE
  5
19B55
330
2
100
AcDbEntity
  8
VLB
100
AcDbLine
 10
-18254.02013668885
 20
3742.091390512824
 30
0.0
 11
-18254.02013668885
 21
4150.091390512824
 31
0.0
  0
LINE
  5
19B56
330
2
100
AcDbEntity
  8
VLB
100
AcDbLine
 10
-18255.02013668885
 20
4151.091390512825
 30
0.0
 11
-18379.52013668885
 21
4151.091390512825
 31
0.0
  0
LINE
  5
19B57
330
2
100
AcDbEntity
  8
VLB
100
AcDbLine
 10
-18254.02013668885
 20
4150.091390512824
 30
0.0
 11
-18379.52013668885
 21
4150.091390512826
 31
0.0
  0
LINE
  5
19B58
330
2
100
AcDbEntity
  8
VLB
100
AcDbLine
 10
-18663.02013668885
 20
4151.091390512825
 30
0.0
 11
-18663.02013668885
 21
3741.091390512824
 31
0.0
  0
LINE
  5
19B59
330
2
100
AcDbEntity
  8
VLB
100
AcDbLine
 10
-18664.02013668885
 20
3742.091390512825
 30
0.0
 11
-18538.52013668885
 21
3742.091390512825
 31
0.0
  0
LINE
  5
19B5A
330
2
100
AcDbEntity
  8
VLB
100
AcDbLine
 10
-18255.02013668885
 20
3741.091390512824
 30
0.0
 11
-18255.02013668885
 21
4151.091390512824
 31
0.0
  0
LINE
  5
19B5C
330
2
100
AcDbEntity
  8
SPS
100
AcDbLine
 10
-18655.22543217912
 20
4140.885156814489
 30
0.0
 11
-18668.26462278513
 21
4140.885156814489
 31
0.0
  0
LINE
  5
19B5D
330
2
100
AcDbEntity
  8
VLB
100
AcDbLine
 10
-18665.02013668885
 20
4145.885156814489
 30
0.0
 11
-18664.02013668885
 21
4145.885156814485
 31
0.0
  0
LINE
  5
19B5E
330
2
100
AcDbEntity
  8
VLB
100
AcDbLine
 10
-18646.26566176546
 20
4152.091390512821
 30
0.0
 11
-18646.26566176547
 21
4151.091390512823
 31
0.0
  0
ARC
  5
19B5F
330
2
100
AcDbEntity
  8
VLB
100
AcDbCircle
 10
-18651.26566176552
 20
4140.091390512703
 30
0.0
 40
13.00000000013173
100
AcDbArc
 50
67.38013505192149
 51
74.0576313944422
  0
ARC
  5
19B60
330
2
100
AcDbEntity
  8
VLB
100
AcDbCircle
 10
-18651.26566176549
 20
4140.091390512939
 30
0.0
 40
12.9999999998802
100
AcDbArc
 50
105.9423686055577
 51
112.6198649481446
  0
ARC
  5
19B61
330
2
100
AcDbEntity
  8
VLB
100
AcDbCircle
 10
-18651.26566176546
 20
4140.091390512822
 30
0.0
 40
12.99999999999925
100
AcDbArc
 50
74.0576313944422
 51
105.9423686055577
  0
LINE
  5
19B62
330
2
100
AcDbEntity
  8
VLB
100
AcDbLine
 10
-18656.26566176547
 20
4152.091390512821
 30
0.0
 11
-18656.26566176547
 21
4151.091390512823
 31
0.0
  0
LINE
  5
19B63
330
2
100
AcDbEntity
  8
SPS
100
AcDbLine
 10
-18651.26566176546
 20
4142.296686003096
 30
0.0
 11
-18651.26566176546
 21
4155.335876609107
 31
0.0
  0
LINE
  5
19B64
330
2
100
AcDbEntity
  8
VLB
100
AcDbLine
 10
-18665.02013668885
 20
4135.885156814489
 30
0.0
 11
-18664.02013668885
 21
4135.885156814489
 31
0.0
  0
CIRCLE
  5
19B65
330
2
100
AcDbEntity
  8
VLB
100
AcDbCircle
 10
-18642.6614852743
 20
4129.732739098279
 30
0.0
 40
8.5
  0
LINE
  5
19B66
330
2
100
AcDbEntity
  8
VLB
100
AcDbLine
 10
-18637.75401457431
 20
4121.232739098279
 30
0.0
 11
-18632.84653627431
 21
4129.732739098279
 31
0.0
  0
LINE
  5
19B67
330
2
100
AcDbEntity
  8
SPS
100
AcDbLine
 10
-18642.6614852743
 20
4129.732739098279
 30
0.0
 11
-18642.6614852743
 21
4119.232739098278
 31
0.0
  0
LINE
  5
19B68
330
2
100
AcDbEntity
  8
VLB
100
AcDbLine
 10
-18652.4764342743
 20
4129.732739098279
 30
0.0
 11
-18647.56895597431
 21
4121.232739098279
 31
0.0
  0
LINE
  5
19B69
330
2
100
AcDbEntity
  8
VLB
100
AcDbLine
 10
-18647.56895597431
 20
4121.232739098279
 30
0.0
 11
-18637.75401457431
 21
4121.232739098279
 31
0.0
  0
LINE
  5
19B6A
330
2
100
AcDbEntity
  8
SPS
100
AcDbLine
 10
-18642.6614852743
 20
4129.732739098279
 30
0.0
 11
-18632.1614852743
 21
4129.732739098279
 31
0.0
  0
LINE
  5
19B6B
330
2
100
AcDbEntity
  8
VLB
100
AcDbLine
 10
-18637.75401457431
 20
4138.232739098279
 30
0.0
 11
-18647.56895597431
 21
4138.232739098279
 31
0.0
  0
LINE
  5
19B6C
330
2
100
AcDbEntity
  8
VLB
100
AcDbLine
 10
-18632.84653627431
 20
4129.732739098279
 30
0.0
 11
-18637.75401457431
 21
4138.232739098279
 31
0.0
  0
LINE
  5
19B6D
330
2
100
AcDbEntity
  8
VLB
100
AcDbLine
 10
-18647.56895597431
 20
4138.232739098279
 30
0.0
 11
-18652.4764342743
 21
4129.732739098279
 31
0.0
  0
LINE
  5
19B6E
330
2
100
AcDbEntity
  8
SPS
100
AcDbLine
 10
-18642.6614852743
 20
4129.732739098279
 30
0.0
 11
-18653.1614852743
 21
4129.732739098279
 31
0.0
  0
LINE
  5
19B6F
330
2
100
AcDbEntity
  8
VLS
100
AcDbLine
 10
-18663.02013668885
 20
4150.091390512826
 30
0.0
 11
-18648.88391313384
 21
4135.955166957812
 31
0.0
  0
ARC
  5
19B70
330
2
100
AcDbEntity
  8
VLB
100
AcDbCircle
 10
-18653.02013668885
 20
4140.885156814489
 30
0.0
 40
12.99999999999925
100
AcDbArc
 50
157.380135051969
 51
202.6198649480308
  0
LINE
  5
19B71
330
2
100
AcDbEntity
  8
SPS
100
AcDbLine
 10
-18642.6614852743
 20
4129.732739098279
 30
0.0
 11
-18642.6614852743
 21
4140.232739098279
 31
0.0
  0
LINE
  5
19B72
330
2
100
AcDbEntity
  8
VLB
100
AcDbLine
 10
-18642.66148527431
 20
3752.635092927373
 30
0.0
 11
-18634.16148527431
 21
3757.542571227372
 31
0.0
  0
LINE
  5
19B73
330
2
100
AcDbEntity
  8
SPS
100
AcDbLine
 10
-18642.66148527431
 20
3762.450041927372
 30
0.0
 11
-18632.16148527431
 21
3762.450041927372
 31
0.0
  0
LINE
  5
19B74
330
2
100
AcDbEntity
  8
VLB
100
AcDbLine
 10
-18634.16148527431
 20
3767.357512627372
 30
0.0
 11
-18642.66148527431
 21
3772.264990927373
 31
0.0
  0
CIRCLE
  5
19B75
330
2
100
AcDbEntity
  8
VLB
100
AcDbCircle
 10
-18642.66148527431
 20
3762.450041927372
 30
0.0
 40
8.5
  0
LINE
  5
19B76
330
2
100
AcDbEntity
  8
VLB
100
AcDbLine
 10
-18634.16148527431
 20
3757.542571227372
 30
0.0
 11
-18634.16148527431
 21
3767.357512627372
 31
0.0
  0
LINE
  5
19B77
330
2
100
AcDbEntity
  8
SPS
100
AcDbLine
 10
-18642.66148527431
 20
3762.450041927372
 30
0.0
 11
-18653.16148527431
 21
3762.450041927372
 31
0.0
  0
ARC
  5
19B78
330
2
100
AcDbEntity
  8
VLB
100
AcDbCircle
 10
-18653.81390299052
 20
3752.091390512827
 30
0.0
 40
12.99999999999925
100
AcDbArc
 50
247.380135051969
 51
292.6198649480308
  0
LINE
  5
19B79
330
2
100
AcDbEntity
  8
VLS
100
AcDbLine
 10
-18663.02013668885
 20
3742.091390512825
 30
0.0
 11
-18648.88391313384
 21
3756.22761406784
 31
0.0
  0
LINE
  5
19B7A
330
2
100
AcDbEntity
  8
SPS
100
AcDbLine
 10
-18642.66148527431
 20
3762.450041927372
 30
0.0
 11
-18642.66148527431
 21
3751.950041927372
 31
0.0
  0
LINE
  5
19B7B
330
2
100
AcDbEntity
  8
VLB
100
AcDbLine
 10
-18651.16148527431
 20
3757.542571227372
 30
0.0
 11
-18642.66148527431
 21
3752.635092927373
 31
0.0
  0
LINE
  5
19B7C
330
2
100
AcDbEntity
  8
VLB
100
AcDbLine
 10
-18642.66148527431
 20
3772.264990927373
 30
0.0
 11
-18651.16148527431
 21
3767.357512627372
 31
0.0
  0
LINE
  5
19B7D
330
2
100
AcDbEntity
  8
VLB
100
AcDbLine
 10
-18651.16148527431
 20
3767.357512627372
 30
0.0
 11
-18651.16148527431
 21
3757.542571227372
 31
0.0
  0
LINE
  5
19B7E
330
2
100
AcDbEntity
  8
SPS
100
AcDbLine
 10
-18642.66148527431
 20
3762.450041927372
 30
0.0
 11
-18642.66148527431
 21
3772.950041927372
 31
0.0
  0
LINE
  5
19B7F
330
2
100
AcDbEntity
  8
VLB
100
AcDbLine
 10
-18648.81390299052
 20
3740.091390512829
 30
0.0
 11
-18648.81390299052
 21
3741.091390512827
 31
0.0
  0
LINE
  5
19B80
330
2
100
AcDbEntity
  8
SPS
100
AcDbLine
 10
-18655.22543217912
 20
3753.845865436213
 30
0.0
 11
-18668.26462278513
 21
3753.845865436213
 31
0.0
  0
LINE
  5
19B81
330
2
100
AcDbEntity
  8
VLB
100
AcDbLine
 10
-18665.02013668885
 20
3748.845865436213
 30
0.0
 11
-18664.02013668885
 21
3748.845865436214
 31
0.0
  0
ARC
  5
19B82
330
2
100
AcDbEntity
  8
VLB
100
AcDbCircle
 10
-18653.02013668885
 20
3753.845865436213
 30
0.0
 40
12.99999999999925
100
AcDbArc
 50
164.0576313944421
 51
195.9423686055577
  0
ARC
  5
19B83
330
2
100
AcDbEntity
  8
VLB
100
AcDbCircle
 10
-18653.02013668897
 20
3753.845865436185
 30
0.0
 40
12.9999999998802
100
AcDbArc
 50
195.9423686055577
 51
202.6198649481446
  0
ARC
  5
19B84
330
2
100
AcDbEntity
  8
VLB
100
AcDbCircle
 10
-18653.02013668873
 20
3753.84586543616
 30
0.0
 40
13.00000000013173
100
AcDbArc
 50
157.3801350519214
 51
164.0576313944421
  0
LINE
  5
19B85
330
2
100
AcDbEntity
  8
VLB
100
AcDbLine
 10
-18665.02013668885
 20
3758.845865436212
 30
0.0
 11
-18664.02013668885
 21
3758.845865436211
 31
0.0
  0
LINE
  5
19B86
330
2
100
AcDbEntity
  8
VLB
100
AcDbLine
 10
-18658.81390299052
 20
3740.091390512829
 30
0.0
 11
-18658.81390299051
 21
3741.091390512827
 31
0.0
  0
LINE
  5
19B87
330
2
100
AcDbEntity
  8
SPS
100
AcDbLine
 10
-18653.81390299052
 20
3749.886095022553
 30
0.0
 11
-18653.81390299052
 21
3736.846904416543
 31
0.0
  0
LINE
  5
19B88
330
2
100
AcDbEntity
  8
VLB
100
AcDbLine
 10
-18265.5638391034
 20
3762.450041927369
 30
0.0
 11
-18270.4713174034
 21
3770.950041927369
 31
0.0
  0
LINE
  5
19B89
330
2
100
AcDbEntity
  8
SPS
100
AcDbLine
 10
-18275.3787881034
 20
3762.450041927369
 30
0.0
 11
-18275.3787881034
 21
3772.950041927369
 31
0.0
  0
LINE
  5
19B8A
330
2
100
AcDbEntity
  8
VLB
100
AcDbLine
 10
-18280.2862588034
 20
3770.950041927369
 30
0.0
 11
-18285.1937371034
 21
3762.450041927369
 31
0.0
  0
CIRCLE
  5
19B8B
330
2
100
AcDbEntity
  8
VLB
100
AcDbCircle
 10
-18275.3787881034
 20
3762.450041927369
 30
0.0
 40
8.5
  0
LINE
  5
19B8C
330
2
100
AcDbEntity
  8
VLB
100
AcDbLine
 10
-18270.4713174034
 20
3770.950041927369
 30
0.0
 11
-18280.2862588034
 21
3770.950041927369
 31
0.0
  0
LINE
  5
19B8D
330
2
100
AcDbEntity
  8
SPS
100
AcDbLine
 10
-18275.3787881034
 20
3762.450041927369
 30
0.0
 11
-18275.3787881034
 21
3751.950041927369
 31
0.0
  0
ARC
  5
19B8E
330
2
100
AcDbEntity
  8
VLB
100
AcDbCircle
 10
-18265.02013668886
 20
3751.29762421116
 30
0.0
 40
12.99999999999925
100
AcDbArc
 50
337.380135051969
 51
22.61986494803085
  0
LINE
  5
19B8F
330
2
100
AcDbEntity
  8
VLS
100
AcDbLine
 10
-18255.02013668885
 20
3742.091390512823
 30
0.0
 11
-18269.15636024387
 21
3756.227614067836
 31
0.0
  0
LINE
  5
19B90
330
2
100
AcDbEntity
  8
SPS
100
AcDbLine
 10
-18275.3787881034
 20
3762.450041927369
 30
0.0
 11
-18264.8787881034
 21
3762.450041927369
 31
0.0
  0
LINE
  5
19B91
330
2
100
AcDbEntity
  8
VLB
100
AcDbLine
 10
-18270.4713174034
 20
3753.950041927369
 30
0.0
 11
-18265.5638391034
 21
3762.450041927369
 31
0.0
  0
LINE
  5
19B92
330
2
100
AcDbEntity
  8
VLB
100
AcDbLine
 10
-18285.1937371034
 20
3762.450041927369
 30
0.0
 11
-18280.2862588034
 21
3753.950041927369
 31
0.0
  0
LINE
  5
19B93
330
2
100
AcDbEntity
  8
VLB
100
AcDbLine
 10
-18280.2862588034
 20
3753.950041927369
 30
0.0
 11
-18270.4713174034
 21
3753.950041927369
 31
0.0
  0
LINE
  5
19B94
330
2
100
AcDbEntity
  8
SPS
100
AcDbLine
 10
-18275.3787881034
 20
3762.450041927369
 30
0.0
 11
-18285.8787881034
 21
3762.450041927369
 31
0.0
  0
LINE
  5
19B95
330
2
100
AcDbEntity
  8
VLB
100
AcDbLine
 10
-18253.02013668886
 20
3756.297624211159
 30
0.0
 11
-18254.02013668886
 21
3756.297624211159
 31
0.0
  0
LINE
  5
19B96
330
2
100
AcDbEntity
  8
SPS
100
AcDbLine
 10
-18266.77461161224
 20
3749.886095022552
 30
0.0
 11
-18266.77461161224
 21
3736.846904416541
 31
0.0
  0
LINE
  5
19B97
330
2
100
AcDbEntity
  8
VLB
100
AcDbLine
 10
-18261.77461161224
 20
3740.091390512827
 30
0.0
 11
-18261.77461161224
 21
3741.091390512825
 31
0.0
  0
ARC
  5
19B98
330
2
100
AcDbEntity
  8
VLB
100
AcDbCircle
 10
-18266.77461161224
 20
3752.091390512826
 30
0.0
 40
12.99999999999925
100
AcDbArc
 50
254.0576313944421
 51
285.9423686055577
  0
ARC
  5
19B99
330
2
100
AcDbEntity
  8
VLB
100
AcDbCircle
 10
-18266.77461161222
 20
3752.091390512709
 30
0.0
 40
12.9999999998802
100
AcDbArc
 50
285.9423686055577
 51
292.6198649481445
  0
ARC
  5
19B9A
330
2
100
AcDbEntity
  8
VLB
100
AcDbCircle
 10
-18266.77461161219
 20
3752.091390512946
 30
0.0
 40
13.00000000013173
100
AcDbArc
 50
247.3801350519214
 51
254.0576313944421
  0
LINE
  5
19B9B
330
2
100
AcDbEntity
  8
VLB
100
AcDbLine
 10
-18271.77461161224
 20
3740.091390512827
 30
0.0
 11
-18271.77461161224
 21
3741.091390512825
 31
0.0
  0
LINE
  5
19B9C
330
2
100
AcDbEntity
  8
VLB
100
AcDbLine
 10
-18253.02013668886
 20
3746.297624211159
 30
0.0
 11
-18254.02013668886
 21
3746.297624211162
 31
0.0
  0
LINE
  5
19B9D
330
2
100
AcDbEntity
  8
SPS
100
AcDbLine
 10
-18262.81484119858
 20
3751.297624211159
 30
0.0
 11
-18249.77565059257
 21
3751.297624211159
 31
0.0
  0
LINE
  5
19B9E
330
2
100
AcDbEntity
  8
VLB
100
AcDbLine
 10
-18275.3787881034
 20
4139.547688098276
 30
0.0
 11
-18283.8787881034
 21
4134.640209798276
 31
0.0
  0
LINE
  5
19B9F
330
2
100
AcDbEntity
  8
SPS
100
AcDbLine
 10
-18275.3787881034
 20
4129.732739098276
 30
0.0
 11
-18285.8787881034
 21
4129.732739098276
 31
0.0
  0
LINE
  5
19BA0
330
2
100
AcDbEntity
  8
VLB
100
AcDbLine
 10
-18283.8787881034
 20
4124.825268398276
 30
0.0
 11
-18275.3787881034
 21
4119.917790098276
 31
0.0
  0
CIRCLE
  5
19BA1
330
2
100
AcDbEntity
  8
VLB
100
AcDbCircle
 10
-18275.3787881034
 20
4129.732739098275
 30
0.0
 40
8.5
  0
LINE
  5
19BA2
330
2
100
AcDbEntity
  8
VLB
100
AcDbLine
 10
-18283.8787881034
 20
4134.640209798276
 30
0.0
 11
-18283.8787881034
 21
4124.825268398276
 31
0.0
  0
LINE
  5
19BA3
330
2
100
AcDbEntity
  8
SPS
100
AcDbLine
 10
-18275.3787881034
 20
4129.732739098276
 30
0.0
 11
-18264.8787881034
 21
4129.732739098276
 31
0.0
  0
ARC
  5
19BA4
330
2
100
AcDbEntity
  8
VLB
100
AcDbCircle
 10
-18264.22637038719
 20
4140.09139051282
 30
0.0
 40
12.99999999999925
100
AcDbArc
 50
67.380135051969
 51
112.6198649480307
  0
LINE
  5
19BA5
330
2
100
AcDbEntity
  8
VLS
100
AcDbLine
 10
-18255.02013668885
 20
4150.091390512823
 30
0.0
 11
-18269.15636024387
 21
4135.955166957809
 31
0.0
  0
LINE
  5
19BA6
330
2
100
AcDbEntity
  8
SPS
100
AcDbLine
 10
-18275.3787881034
 20
4129.732739098276
 30
0.0
 11
-18275.3787881034
 21
4140.232739098276
 31
0.0
  0
LINE
  5
19BA7
330
2
100
AcDbEntity
  8
VLB
100
AcDbLine
 10
-18266.8787881034
 20
4134.640209798276
 30
0.0
 11
-18275.3787881034
 21
4139.547688098276
 31
0.0
  0
LINE
  5
19BA8
330
2
100
AcDbEntity
  8
VLB
100
AcDbLine
 10
-18275.3787881034
 20
4119.917790098276
 30
0.0
 11
-18266.8787881034
 21
4124.825268398276
 31
0.0
  0
LINE
  5
19BA9
330
2
100
AcDbEntity
  8
VLB
100
AcDbLine
 10
-18266.8787881034
 20
4124.825268398276
 30
0.0
 11
-18266.8787881034
 21
4134.640209798276
 31
0.0
  0
LINE
  5
19BAA
330
2
100
AcDbEntity
  8
SPS
100
AcDbLine
 10
-18275.3787881034
 20
4129.732739098276
 30
0.0
 11
-18275.3787881034
 21
4119.232739098276
 31
0.0
  0
LINE
  5
19BAB
330
2
100
AcDbEntity
  8
VLB
100
AcDbLine
 10
-18269.22637038719
 20
4152.09139051282
 30
0.0
 11
-18269.22637038719
 21
4151.091390512822
 31
0.0
  0
LINE
  5
19BAC
330
2
100
AcDbEntity
  8
SPS
100
AcDbLine
 10
-18262.81484119858
 20
4138.336915589436
 30
0.0
 11
-18249.77565059257
 21
4138.336915589436
 31
0.0
  0
LINE
  5
19BAD
330
2
100
AcDbEntity
  8
VLB
100
AcDbLine
 10
-18253.02013668886
 20
4143.336915589435
 30
0.0
 11
-18254.02013668885
 21
4143.336915589435
 31
0.0
  0
ARC
  5
19BAE
330
2
100
AcDbEntity
  8
VLB
100
AcDbCircle
 10
-18265.02013668886
 20
4138.336915589434
 30
0.0
 40
12.99999999999925
100
AcDbArc
 50
344.0576313944421
 51
15.9423686055577
  0
ARC
  5
19BAF
330
2
100
AcDbEntity
  8
VLB
100
AcDbCircle
 10
-18265.02013668874
 20
4138.336915589463
 30
0.0
 40
12.9999999998802
100
AcDbArc
 50
15.9423686055577
 51
22.61986494814455
  0
ARC
  5
19BB0
330
2
100
AcDbEntity
  8
VLB
100
AcDbCircle
 10
-18265.02013668898
 20
4138.336915589486
 30
0.0
 40
13.00000000013173
100
AcDbArc
 50
337.3801350519214
 51
344.0576313944421
  0
LINE
  5
19BB1
330
2
100
AcDbEntity
  8
VLB
100
AcDbLine
 10
-18253.02013668886
 20
4133.336915589436
 30
0.0
 11
-18254.02013668885
 21
4133.336915589437
 31
0.0
  0
LINE
  5
19BB2
330
2
100
AcDbEntity
  8
VLB
100
AcDbLine
 10
-18259.22637038719
 20
4152.09139051282
 30
0.0
 11
-18259.22637038719
 21
4151.091390512822
 31
0.0
  0
LINE
  5
19BB3
330
2
100
AcDbEntity
  8
SPS
100
AcDbLine
 10
-18264.22637038719
 20
4142.296686003095
 30
0.0
 11
-18264.22637038719
 21
4155.335876609106
 31
0.0
  0
LINE
  5
19BB4
330
2
100
AcDbEntity
  8
VLS
100
AcDbLine
 10
-18636.43905741477
 20
4123.510311238744
 30
0.0
 11
-18459.02013668885
 21
3946.091390512823
 31
0.0
  0
LINE
  5
19BB5
330
2
100
AcDbEntity
  8
VLS
100
AcDbLine
 10
-18281.60121596294
 20
4123.510311238744
 30
0.0
 11
-18459.02013668885
 21
3946.091390512823
 31
0.0
  0
LINE
  5
19BB6
330
2
100
AcDbEntity
  8
VLS
100
AcDbLine
 10
-18281.60121596294
 20
3768.672469786902
 30
0.0
 11
-18459.02013668885
 21
3946.091390512823
 31
0.0
  0
LINE
  5
19BB7
330
2
100
AcDbEntity
  8
VLS
100
AcDbLine
 10
-18636.43905741478
 20
3768.672469786905
 30
0.0
 11
-18459.02013668885
 21
3946.091390512823
 31
0.0
  0
LINE
  5
19BB9
330
2
100
AcDbEntity
  8
VLB
100
AcDbLine
 10
-18539.02013668886
 20
4151.291390512825
 30
0.0
 11
-18539.02013668886
 21
4341.291390512825
 31
0.0
  0
LINE
  5
19BBA
330
2
100
AcDbEntity
  8
VLB
100
AcDbLine
 10
-18540.52013668885
 20
4151.291390512825
 30
0.0
 11
-18540.52013668885
 21
4341.291390512825
 31
0.0
  0
LINE
  5
19BBB
330
2
100
AcDbEntity
  8
VLB
100
AcDbLine
 10
-18379.02013668885
 20
4341.291390512825
 30
0.0
 11
-18379.02013668885
 21
4151.291390512825
 31
0.0
  0
LINE
  5
19BBC
330
2
100
AcDbEntity
  8
VLB
100
AcDbLine
 10
-18377.52013668885
 20
4341.291390512825
 30
0.0
 11
-18377.52013668885
 21
4151.291390512825
 31
0.0
  0
LINE
  5
19BBD
330
2
100
AcDbEntity
  8
VLB
100
AcDbLine
 10
-18538.52013668885
 20
4169.591390512826
 30
0.0
 11
-18379.52013668885
 21
4169.591390512826
 31
0.0
  0
LINE
  5
19BBF
330
2
100
AcDbEntity
  8
SPS
100
AcDbLine
 10
-18509.02013668885
 20
4166.999633366788
 30
0.0
 11
-18509.02013668885
 21
4151.106781288945
 31
0.0
  0
CIRCLE
  5
19BC0
330
2
100
AcDbEntity
  8
VLB
100
AcDbCircle
 10
-18509.02013668885
 20
4159.591390512825
 30
0.0
 40
5.000000000001818
  0
LINE
  5
19BC1
330
2
100
AcDbEntity
  8
SPS
100
AcDbLine
 10
-18502.70878013178
 20
4159.591390512825
 30
0.0
 11
-18516.04946627642
 21
4159.591390512825
 31
0.0
  0
CIRCLE
  5
19BC2
330
2
100
AcDbEntity
  8
VLB
100
AcDbCircle
 10
-18509.02013668885
 20
4159.591390512825
 30
0.0
 40
2.550000000006548
  0
LINE
  5
19BC3
330
2
100
AcDbEntity
  8
VLB
100
AcDbLine
 10
-18538.52013668885
 20
4151.291390512825
 30
0.0
 11
-18540.52013668885
 21
4151.291390512825
 31
0.0
  0
LINE
  5
19BC4
330
2
100
AcDbEntity
  8
VLB
100
AcDbLine
 10
-18538.52013668885
 20
4150.091390512826
 30
0.0
 11
-18538.52013668885
 21
4169.591390512826
 31
0.0
  0
CIRCLE
  5
19BC5
330
2
100
AcDbEntity
  8
VLB
100
AcDbCircle
 10
-18409.02013668885
 20
4159.591390512825
 30
0.0
 40
5.000000000001818
  0
CIRCLE
  5
19BC6
330
2
100
AcDbEntity
  8
VLB
100
AcDbCircle
 10
-18409.02013668885
 20
4159.591390512825
 30
0.0
 40
2.550000000006548
  0
LINE
  5
19BC7
330
2
100
AcDbEntity
  8
SPS
100
AcDbLine
 10
-18402.70878013178
 20
4159.591390512825
 30
0.0
 11
-18416.04946627642
 21
4159.591390512825
 31
0.0
  0
LINE
  5
19BC8
330
2
100
AcDbEntity
  8
VLB
100
AcDbLine
 10
-18377.52013668885
 20
4151.291390512825
 30
0.0
 11
-18379.52013668885
 21
4151.291390512825
 31
0.0
  0
LINE
  5
19BC9
330
2
100
AcDbEntity
  8
SPS
100
AcDbLine
 10
-18409.02013668885
 20
4166.999633366788
 30
0.0
 11
-18409.02013668885
 21
4151.106781288945
 31
0.0
  0
LINE
  5
19BCA
330
2
100
AcDbEntity
  8
VLB
100
AcDbLine
 10
-18379.52013668885
 20
4150.091390512826
 30
0.0
 11
-18379.52013668885
 21
4169.591390512826
 31
0.0
  0
LINE
  5
19BCB
330
2
100
AcDbEntity
  8
VLB
100
AcDbLine
 10
-18540.52013668885
 20
4341.291390512825
 30
0.0
 11
-18377.52013668885
 21
4341.291390512825
 31
0.0
  0
LINE
  5
19BCC
330
2
100
AcDbEntity
  8
VLB
100
AcDbLine
 10
-18539.02013668886
 20
4319.791390512825
 30
0.0
 11
-18540.52013668885
 21
4319.791390512825
 31
0.0
  0
LINE
  5
19BCD
330
2
100
AcDbEntity
  8
VLB
100
AcDbLine
 10
-18377.52013668885
 20
4319.791390512824
 30
0.0
 11
-18379.02013668885
 21
4319.791390512825
 31
0.0
  0
LINE
  5
19BCE
330
2
100
AcDbEntity
  8
VLB
100
AcDbLine
 10
-18540.52013668885
 20
4206.091390512819
 30
0.0
 11
-18718.02013668885
 21
4206.091390512819
 31
0.0
  0
LINE
  5
19BCF
330
2
100
AcDbEntity
  8
VLB
100
AcDbLine
 10
-18377.52013668885
 20
4259.091390512824
 30
0.0
 11
-18147.52013668885
 21
4259.091390512824
 31
0.0
  0
LINE
  5
19BD2
330
2
100
AcDbEntity
  8
VLB
100
AcDbLine
 10
-18538.52013668885
 20
4151.091390512825
 30
0.0
 11
-18663.02013668885
 21
4151.091390512825
 31
0.0
  0
LINE
  5
19BD3
330
2
100
AcDbEntity
  8
VLB
100
AcDbLine
 10
-18538.52013668885
 20
4150.091390512826
 30
0.0
 11
-18664.02013668885
 21
4150.091390512826
 31
0.0
  0
LINE
  5
19BD4
330
2
100
AcDbEntity
  8
VLB
100
AcDbLine
 10
-18540.52013668885
 20
3550.891390512822
 30
0.0
 11
-18377.52013668885
 21
3550.891390512822
 31
0.0
  0
LINE
  5
19BD5
330
2
100
AcDbEntity
  8
VLB
100
AcDbLine
 10
-18538.52013668885
 20
3722.591390512821
 30
0.0
 11
-18379.52013668885
 21
3722.591390512821
 31
0.0
  0
LINE
  5
19BD6
330
2
100
AcDbEntity
  8
VLB
100
AcDbLine
 10
-18540.52013668885
 20
3740.891390512822
 30
0.0
 11
-18540.52013668885
 21
3550.891390512822
 31
0.0
  0
LINE
  5
19BD7
330
2
100
AcDbEntity
  8
VLB
100
AcDbLine
 10
-18539.02013668886
 20
3740.891390512822
 30
0.0
 11
-18539.02013668886
 21
3550.891390512822
 31
0.0
  0
LINE
  5
19BD8
330
2
100
AcDbEntity
  8
VLB
100
AcDbLine
 10
-18538.52013668885
 20
3742.091390512821
 30
0.0
 11
-18538.52013668885
 21
3722.591390512821
 31
0.0
  0
LINE
  5
19BD9
330
2
100
AcDbEntity
  8
VLB
100
AcDbLine
 10
-18538.52013668885
 20
3740.891390512822
 30
0.0
 11
-18540.52013668885
 21
3740.891390512822
 31
0.0
  0
CIRCLE
  5
19BDA
330
2
100
AcDbEntity
  8
VLB
100
AcDbCircle
 10
-18509.02013668885
 20
3732.591390512821
 30
0.0
 40
2.550000000006548
  0
LINE
  5
19BDB
330
2
100
AcDbEntity
  8
SPS
100
AcDbLine
 10
-18502.70878013178
 20
3732.591390512821
 30
0.0
 11
-18516.04946627642
 21
3732.591390512821
 31
0.0
  0
CIRCLE
  5
19BDC
330
2
100
AcDbEntity
  8
VLB
100
AcDbCircle
 10
-18509.02013668885
 20
3732.591390512821
 30
0.0
 40
5.000000000001818
  0
LINE
  5
19BDD
330
2
100
AcDbEntity
  8
SPS
100
AcDbLine
 10
-18509.02013668885
 20
3725.18314765886
 30
0.0
 11
-18509.02013668885
 21
3741.075999736702
 31
0.0
  0
LINE
  5
19BDE
330
2
100
AcDbEntity
  8
VLB
100
AcDbLine
 10
-18539.02013668886
 20
3572.391390512822
 30
0.0
 11
-18540.52013668885
 21
3572.391390512822
 31
0.0
  0
LINE
  5
19BDF
330
2
100
AcDbEntity
  8
VLB
100
AcDbLine
 10
-18377.52013668885
 20
3550.891390512822
 30
0.0
 11
-18377.52013668885
 21
3740.891390512822
 31
0.0
  0
LINE
  5
19BE0
330
2
100
AcDbEntity
  8
VLB
100
AcDbLine
 10
-18379.02013668885
 20
3550.891390512822
 30
0.0
 11
-18379.02013668885
 21
3740.891390512822
 31
0.0
  0
LINE
  5
19BE1
330
2
100
AcDbEntity
  8
VLB
100
AcDbLine
 10
-18379.52013668885
 20
3742.091390512821
 30
0.0
 11
-18379.52013668885
 21
3722.591390512821
 31
0.0
  0
LINE
  5
19BE2
330
2
100
AcDbEntity
  8
SPS
100
AcDbLine
 10
-18409.02013668885
 20
3725.18314765886
 30
0.0
 11
-18409.02013668885
 21
3741.075999736702
 31
0.0
  0
LINE
  5
19BE3
330
2
100
AcDbEntity
  8
VLB
100
AcDbLine
 10
-18377.52013668885
 20
3740.891390512822
 30
0.0
 11
-18379.52013668885
 21
3740.891390512822
 31
0.0
  0
LINE
  5
19BE4
330
2
100
AcDbEntity
  8
SPS
100
AcDbLine
 10
-18402.70878013178
 20
3732.591390512821
 30
0.0
 11
-18416.04946627642
 21
3732.591390512821
 31
0.0
  0
CIRCLE
  5
19BE5
330
2
100
AcDbEntity
  8
VLB
100
AcDbCircle
 10
-18409.02013668885
 20
3732.591390512821
 30
0.0
 40
2.550000000006548
  0
CIRCLE
  5
19BE6
330
2
100
AcDbEntity
  8
VLB
100
AcDbCircle
 10
-18409.02013668885
 20
3732.591390512821
 30
0.0
 40
5.000000000001818
  0
LINE
  5
19BE7
330
2
100
AcDbEntity
  8
VLB
100
AcDbLine
 10
-18377.52013668885
 20
3572.391390512824
 30
0.0
 11
-18379.02013668885
 21
3572.391390512822
 31
0.0
  0
LINE
  5
19BE8
330
2
100
AcDbEntity
  8
VLB
100
AcDbLine
 10
-18379.52013668885
 20
3741.091390512826
 30
0.0
 11
-18255.02013668885
 21
3741.091390512825
 31
0.0
  0
LINE
  5
19BE9
330
2
100
AcDbEntity
  8
VLB
100
AcDbLine
 10
-18379.52013668885
 20
3742.091390512825
 30
0.0
 11
-18254.02013668885
 21
3742.091390512824
 31
0.0
  0
LINE
  5
19BEA
330
2
100
AcDbEntity
  8
VLB
100
AcDbLine
 10
-18377.52013668885
 20
3686.091390512829
 30
0.0
 11
-18200.02013668886
 21
3686.091390512829
 31
0.0
  0
LINE
  5
19BEB
330
2
100
AcDbEntity
  8
VLB
100
AcDbLine
 10
-18377.52013668885
 20
3633.091390512823
 30
0.0
 11
-18147.02013668886
 21
3633.091390512823
 31
0.0
  0
LINE
  5
19BED
330
2
100
AcDbEntity
  8
SPS
100
AcDbLine
 10
-18683.3700453188
 20
4000.591390512825
 30
0.0
 11
-18703.67004531879
 21
4000.591390512825
 31
0.0
  0
LINE
  5
19BEE
330
2
100
AcDbEntity
  8
SPS
100
AcDbLine
 10
-18693.5200453188
 20
3881.441390512825
 30
0.0
 11
-18693.5200453188
 21
3901.741390512825
 31
0.0
  0
LINE
  5
19BF0
330
2
100
AcDbEntity
  8
SPS
100
AcDbLine
 10
-18683.3700453188
 20
3891.591390512825
 30
0.0
 11
-18703.67004531879
 21
3891.591390512825
 31
0.0
  0
LINE
  5
19BF4
330
2
100
AcDbEntity
  8
SPS
100
AcDbLine
 10
-18693.5200453188
 20
3990.441390512825
 30
0.0
 11
-18693.5200453188
 21
4010.741390512825
 31
0.0
  0
LINE
  5
19BF5
330
2
100
AcDbEntity
  8
SPS
100
AcDbLine
 10
-18234.67022805891
 20
4000.591390512825
 30
0.0
 11
-18214.37022805891
 21
4000.591390512825
 31
0.0
  0
LINE
  5
19BF7
330
2
100
AcDbEntity
  8
SPS
100
AcDbLine
 10
-18224.52022805891
 20
3990.441390512825
 30
0.0
 11
-18224.52022805891
 21
4010.741390512825
 31
0.0
  0
LINE
  5
19BF8
330
2
100
AcDbEntity
  8
SPS
100
AcDbLine
 10
-18234.67022805891
 20
3891.591390512825
 30
0.0
 11
-18214.37022805891
 21
3891.591390512825
 31
0.0
  0
LINE
  5
19BFA
330
2
100
AcDbEntity
  8
SPS
100
AcDbLine
 10
-18224.52022805891
 20
3881.441390512825
 30
0.0
 11
-18224.52022805891
 21
3901.741390512825
 31
0.0
  0
ARC
  5
19BFD
330
2
100
AcDbEntity
  8
VLB
100
AcDbCircle
 10
-18639.02013668885
 20
4252.486834512825
 30
0.0
 40
12.737889
100
AcDbArc
 50
72.41204599994038
 51
85.49730800002963
  0
ARC
  5
19BFE
330
2
100
AcDbEntity
  8
VLB
100
AcDbCircle
 10
-18633.25733668885
 20
4261.851451512824
 30
0.0
 40
3.373272
100
AcDbArc
 50
59.99999999999946
 51
124.5650930000675
  0
LINE
  5
19BFF
330
2
100
AcDbEntity
  8
VLB
100
AcDbLine
 10
-18638.02013668885
 20
4265.224723512822
 30
0.0
 11
-18632.35347068885
 21
4265.224723512822
 31
0.0
  0
LINE
  5
19C00
330
2
100
AcDbEntity
  8
VLB
100
AcDbLine
 10
-18632.35347068885
 20
4265.224723512822
 30
0.0
 11
-18631.32213468885
 21
4264.629280512822
 31
0.0
  0
LINE
  5
19C01
330
2
100
AcDbEntity
  8
VLB
100
AcDbLine
 10
-18638.02013668885
 20
4259.891390512824
 30
0.0
 11
-18639.02013668885
 21
4259.891390512824
 31
0.0
  0
LINE
  5
19C02
330
2
100
AcDbEntity
  8
VLB
100
AcDbLine
 10
-18633.08680468885
 20
4259.891390512824
 30
0.0
 11
-18633.08680468885
 21
4260.558057512823
 31
0.0
  0
LINE
  5
19C03
330
2
100
AcDbEntity
  8
VLB
100
AcDbLine
 10
-18636.93822968885
 20
4259.891390512824
 30
0.0
 11
-18633.08680468885
 21
4259.891390512824
 31
0.0
  0
LINE
  5
19C04
330
2
100
AcDbEntity
  8
VLB
100
AcDbLine
 10
-18631.52013768885
 20
4259.891390512824
 30
0.0
 11
-18638.02013668885
 21
4259.891390512824
 31
0.0
  0
LINE
  5
19C05
330
2
100
AcDbEntity
  8
VLB
100
AcDbLine
 10
-18638.02013668885
 20
4260.558057512823
 30
0.0
 11
-18631.32213468885
 21
4260.558057512823
 31
0.0
  0
LINE
  5
19C06
330
2
100
AcDbEntity
  8
VLB
100
AcDbLine
 10
-18631.52013768885
 20
4259.091390512824
 30
0.0
 11
-18631.52013768885
 21
4259.891390512824
 31
0.0
1001
ACAD
1000
ASC_BOUNDS
1002
{
1070
    16
1002
}
  0
LINE
  5
19C07
330
2
100
AcDbEntity
  8
VLB
100
AcDbLine
 10
-18635.17113568885
 20
4260.558057512823
 30
0.0
 11
-18635.17113568885
 21
4264.629280512822
 31
0.0
  0
LINE
  5
19C08
330
2
100
AcDbEntity
  8
VLB
100
AcDbLine
 10
-18631.32213468885
 20
4260.558057512823
 30
0.0
 11
-18631.32213468885
 21
4264.629280512822
 31
0.0
  0
ARC
  5
19C09
330
2
100
AcDbEntity
  8
VLB
100
AcDbCircle
 10
-18644.78293768885
 20
4261.851451512824
 30
0.0
 40
3.373272
100
AcDbArc
 50
55.43490699993245
 51
120.0000000000005
  0
LINE
  5
19C0A
330
2
100
AcDbEntity
  8
VLB
100
AcDbLine
 10
-18645.68680268885
 20
4265.224723512822
 30
0.0
 11
-18646.71813968886
 21
4264.629280512822
 31
0.0
  0
LINE
  5
19C0B
330
2
100
AcDbEntity
  8
VLB
100
AcDbLine
 10
-18644.95346968885
 20
4259.891390512824
 30
0.0
 11
-18644.95346968885
 21
4260.558057512823
 31
0.0
  0
LINE
  5
19C0C
330
2
100
AcDbEntity
  8
VLB
100
AcDbLine
 10
-18646.52013668885
 20
4259.091390512824
 30
0.0
 11
-18646.52013668885
 21
4259.891390512824
 31
0.0
1001
ACAD
1000
ASC_BOUNDS
1002
{
1070
    16
1002
}
  0
LINE
  5
19C0D
330
2
100
AcDbEntity
  8
VLB
100
AcDbLine
 10
-18646.52013668885
 20
4259.891390512824
 30
0.0
 11
-18646.52013668885
 21
4259.091390512824
 31
0.0
  0
LINE
  5
19C0E
330
2
100
AcDbEntity
  8
VLB
100
AcDbLine
 10
-18642.86913868885
 20
4260.558057512823
 30
0.0
 11
-18642.86913868885
 21
4264.629280512822
 31
0.0
  0
LINE
  5
19C0F
330
2
100
AcDbEntity
  8
VLB
100
AcDbLine
 10
-18646.71813968886
 20
4260.558057512823
 30
0.0
 11
-18646.71813968886
 21
4264.629280512822
 31
0.0
  0
LINE
  5
19C10
330
2
100
AcDbEntity
  8
VLB
100
AcDbLine
 10
-18645.68680268885
 20
4265.224723512822
 30
0.0
 11
-18638.02013668885
 21
4265.224723512822
 31
0.0
  0
ARC
  5
19C11
330
2
100
AcDbEntity
  8
VLB
100
AcDbCircle
 10
-18639.02013668885
 20
4252.486834512825
 30
0.0
 40
12.737889
100
AcDbArc
 50
85.49730800002963
 51
107.5879540000596
  0
LINE
  5
19C12
330
2
100
AcDbEntity
  8
VLB
100
AcDbLine
 10
-18639.02013668885
 20
4259.891390512824
 30
0.0
 11
-18646.52013668885
 21
4259.891390512824
 31
0.0
  0
LINE
  5
19C13
330
2
100
AcDbEntity
  8
VLB
100
AcDbLine
 10
-18646.71813968886
 20
4260.558057512823
 30
0.0
 11
-18638.02013668885
 21
4260.558057512823
 31
0.0
  0
LINE
  5
19C14
330
2
100
AcDbEntity
  8
VLB
100
AcDbLine
 10
-18644.95346968885
 20
4259.891390512824
 30
0.0
 11
-18638.02013668885
 21
4259.891390512824
 31
0.0
  0
LINE
  5
19C15
330
2
100
AcDbEntity
  8
SPS
100
AcDbLine
 10
-18639.02013668885
 20
4236.147074041952
 30
0.0
 11
-18639.02013668885
 21
4271.226642703076
 31
0.0
  0
ARC
  5
19C16
330
2
100
AcDbEntity
  8
VLB
100
AcDbCircle
 10
-18279.02013668886
 20
4252.486834512825
 30
0.0
 40
12.737889
100
AcDbArc
 50
72.41204599994038
 51
85.49730800002963
  0
ARC
  5
19C17
330
2
100
AcDbEntity
  8
VLB
100
AcDbCircle
 10
-18273.25733668885
 20
4261.851451512824
 30
0.0
 40
3.373272
100
AcDbArc
 50
59.99999999999946
 51
124.5650930000675
  0
LINE
  5
19C18
330
2
100
AcDbEntity
  8
VLB
100
AcDbLine
 10
-18278.02013668885
 20
4265.224723512822
 30
0.0
 11
-18272.35347068885
 21
4265.224723512822
 31
0.0
  0
LINE
  5
19C19
330
2
100
AcDbEntity
  8
VLB
100
AcDbLine
 10
-18272.35347068885
 20
4265.224723512822
 30
0.0
 11
-18271.32213468885
 21
4264.629280512822
 31
0.0
  0
LINE
  5
19C1A
330
2
100
AcDbEntity
  8
VLB
100
AcDbLine
 10
-18278.02013668885
 20
4259.891390512824
 30
0.0
 11
-18279.02013668886
 21
4259.891390512824
 31
0.0
  0
LINE
  5
19C1B
330
2
100
AcDbEntity
  8
VLB
100
AcDbLine
 10
-18273.08680468885
 20
4259.891390512824
 30
0.0
 11
-18273.08680468885
 21
4260.558057512823
 31
0.0
  0
LINE
  5
19C1C
330
2
100
AcDbEntity
  8
VLB
100
AcDbLine
 10
-18276.93822968885
 20
4259.891390512824
 30
0.0
 11
-18273.08680468885
 21
4259.891390512824
 31
0.0
  0
LINE
  5
19C1D
330
2
100
AcDbEntity
  8
VLB
100
AcDbLine
 10
-18271.52013768885
 20
4259.891390512824
 30
0.0
 11
-18278.02013668885
 21
4259.891390512824
 31
0.0
  0
LINE
  5
19C1E
330
2
100
AcDbEntity
  8
VLB
100
AcDbLine
 10
-18278.02013668885
 20
4260.558057512823
 30
0.0
 11
-18271.32213468885
 21
4260.558057512823
 31
0.0
  0
LINE
  5
19C1F
330
2
100
AcDbEntity
  8
VLB
100
AcDbLine
 10
-18271.52013768885
 20
4259.091390512824
 30
0.0
 11
-18271.52013768885
 21
4259.891390512824
 31
0.0
1001
ACAD
1000
ASC_BOUNDS
1002
{
1070
    16
1002
}
  0
LINE
  5
19C20
330
2
100
AcDbEntity
  8
VLB
100
AcDbLine
 10
-18275.17113568885
 20
4260.558057512823
 30
0.0
 11
-18275.17113568885
 21
4264.629280512822
 31
0.0
  0
LINE
  5
19C21
330
2
100
AcDbEntity
  8
VLB
100
AcDbLine
 10
-18271.32213468885
 20
4260.558057512823
 30
0.0
 11
-18271.32213468885
 21
4264.629280512822
 31
0.0
  0
ARC
  5
19C22
330
2
100
AcDbEntity
  8
VLB
100
AcDbCircle
 10
-18284.78293768885
 20
4261.851451512824
 30
0.0
 40
3.373272
100
AcDbArc
 50
55.43490699993245
 51
120.0000000000005
  0
LINE
  5
19C23
330
2
100
AcDbEntity
  8
VLB
100
AcDbLine
 10
-18285.68680268885
 20
4265.224723512822
 30
0.0
 11
-18286.71813968886
 21
4264.629280512822
 31
0.0
  0
LINE
  5
19C24
330
2
100
AcDbEntity
  8
VLB
100
AcDbLine
 10
-18284.95346968885
 20
4259.891390512824
 30
0.0
 11
-18284.95346968885
 21
4260.558057512823
 31
0.0
  0
LINE
  5
19C25
330
2
100
AcDbEntity
  8
VLB
100
AcDbLine
 10
-18286.52013668886
 20
4259.091390512824
 30
0.0
 11
-18286.52013668886
 21
4259.891390512824
 31
0.0
1001
ACAD
1000
ASC_BOUNDS
1002
{
1070
    16
1002
}
  0
LINE
  5
19C26
330
2
100
AcDbEntity
  8
VLB
100
AcDbLine
 10
-18286.52013668886
 20
4259.891390512824
 30
0.0
 11
-18286.52013668886
 21
4259.091390512824
 31
0.0
  0
LINE
  5
19C27
330
2
100
AcDbEntity
  8
VLB
100
AcDbLine
 10
-18282.86913868885
 20
4260.558057512823
 30
0.0
 11
-18282.86913868885
 21
4264.629280512822
 31
0.0
  0
LINE
  5
19C28
330
2
100
AcDbEntity
  8
VLB
100
AcDbLine
 10
-18286.71813968886
 20
4260.558057512823
 30
0.0
 11
-18286.71813968886
 21
4264.629280512822
 31
0.0
  0
LINE
  5
19C29
330
2
100
AcDbEntity
  8
VLB
100
AcDbLine
 10
-18285.68680268885
 20
4265.224723512822
 30
0.0
 11
-18278.02013668885
 21
4265.224723512822
 31
0.0
  0
ARC
  5
19C2A
330
2
100
AcDbEntity
  8
VLB
100
AcDbCircle
 10
-18279.02013668886
 20
4252.486834512825
 30
0.0
 40
12.737889
100
AcDbArc
 50
85.49730800002963
 51
107.5879540000596
  0
LINE
  5
19C2B
330
2
100
AcDbEntity
  8
VLB
100
AcDbLine
 10
-18279.02013668886
 20
4259.891390512824
 30
0.0
 11
-18286.52013668886
 21
4259.891390512824
 31
0.0
  0
LINE
  5
19C2C
330
2
100
AcDbEntity
  8
VLB
100
AcDbLine
 10
-18286.71813968886
 20
4260.558057512823
 30
0.0
 11
-18278.02013668885
 21
4260.558057512823
 31
0.0
  0
LINE
  5
19C2D
330
2
100
AcDbEntity
  8
VLB
100
AcDbLine
 10
-18284.95346968885
 20
4259.891390512824
 30
0.0
 11
-18278.02013668885
 21
4259.891390512824
 31
0.0
  0
LINE
  5
19C2E
330
2
100
AcDbEntity
  8
SPS
100
AcDbLine
 10
-18279.02013668886
 20
4236.147074041952
 30
0.0
 11
-18279.02013668886
 21
4271.226642703076
 31
0.0
  0
LINE
  5
19C2F
330
2
100
AcDbEntity
  8
SPS
100
AcDbLine
 10
-18749.07582021798
 20
3766.091390512825
 30
0.0
 11
-18784.15538887911
 21
3766.091390512825
 31
0.0
  0
LINE
  5
19C30
330
2
100
AcDbEntity
  8
VLB
100
AcDbLine
 10
-18772.82013668885
 20
3760.158057512827
 30
0.0
 11
-18772.82013668885
 21
3767.091390512828
 31
0.0
  0
LINE
  5
19C31
330
2
100
AcDbEntity
  8
VLB
100
AcDbLine
 10
-18773.48680368885
 20
3758.393387512823
 30
0.0
 11
-18773.48680368885
 21
3767.091390512828
 31
0.0
  0
LINE
  5
19C32
330
2
100
AcDbEntity
  8
VLB
100
AcDbLine
 10
-18772.82013668885
 20
3766.091390512825
 30
0.0
 11
-18772.82013668885
 21
3758.591390512824
 31
0.0
  0
ARC
  5
19C33
330
2
100
AcDbEntity
  8
VLB
100
AcDbCircle
 10
-18765.41558068885
 20
3766.091390512824
 30
0.0
 40
12.737889
100
AcDbArc
 50
175.4973080000296
 51
197.5879540000596
  0
LINE
  5
19C34
330
2
100
AcDbEntity
  8
VLB
100
AcDbLine
 10
-18778.15346968885
 20
3759.424724512824
 30
0.0
 11
-18778.15346968885
 21
3767.091390512828
 31
0.0
  0
LINE
  5
19C35
330
2
100
AcDbEntity
  8
VLB
100
AcDbLine
 10
-18773.48680368885
 20
3758.393387512823
 30
0.0
 11
-18777.55802668885
 21
3758.393387512823
 31
0.0
  0
LINE
  5
19C36
330
2
100
AcDbEntity
  8
VLB
100
AcDbLine
 10
-18773.48680368885
 20
3762.242388512825
 30
0.0
 11
-18777.55802668885
 21
3762.242388512825
 31
0.0
  0
LINE
  5
19C37
330
2
100
AcDbEntity
  8
VLB
100
AcDbLine
 10
-18772.82013668885
 20
3758.591390512824
 30
0.0
 11
-18772.02013668885
 21
3758.591390512824
 31
0.0
  0
LINE
  5
19C38
330
2
100
AcDbEntity
  8
VLB
100
AcDbLine
 10
-18772.02013668885
 20
3758.591390512824
 30
0.0
 11
-18772.82013668885
 21
3758.591390512824
 31
0.0
1001
ACAD
1000
ASC_BOUNDS
1002
{
1070
    16
1002
}
  0
LINE
  5
19C39
330
2
100
AcDbEntity
  8
VLB
100
AcDbLine
 10
-18772.82013668885
 20
3760.158057512827
 30
0.0
 11
-18773.48680368885
 21
3760.158057512827
 31
0.0
  0
LINE
  5
19C3A
330
2
100
AcDbEntity
  8
VLB
100
AcDbLine
 10
-18778.15346968885
 20
3759.424724512824
 30
0.0
 11
-18777.55802668885
 21
3758.393387512823
 31
0.0
  0
ARC
  5
19C3B
330
2
100
AcDbEntity
  8
VLB
100
AcDbCircle
 10
-18774.78019768885
 20
3760.328589512823
 30
0.0
 40
3.373272
100
AcDbArc
 50
145.4349069999324
 51
210.0000000000004
  0
LINE
  5
19C3C
330
2
100
AcDbEntity
  8
VLB
100
AcDbLine
 10
-18773.48680368885
 20
3773.789392512825
 30
0.0
 11
-18777.55802668885
 21
3773.789392512825
 31
0.0
  0
LINE
  5
19C3D
330
2
100
AcDbEntity
  8
VLB
100
AcDbLine
 10
-18773.48680368885
 20
3769.940391512824
 30
0.0
 11
-18777.55802668885
 21
3769.940391512824
 31
0.0
  0
LINE
  5
19C3E
330
2
100
AcDbEntity
  8
VLB
100
AcDbLine
 10
-18772.02013668885
 20
3773.591389512827
 30
0.0
 11
-18772.82013668885
 21
3773.591389512827
 31
0.0
1001
ACAD
1000
ASC_BOUNDS
1002
{
1070
    16
1002
}
  0
LINE
  5
19C3F
330
2
100
AcDbEntity
  8
VLB
100
AcDbLine
 10
-18773.48680368885
 20
3767.091390512828
 30
0.0
 11
-18773.48680368885
 21
3773.789392512825
 31
0.0
  0
LINE
  5
19C40
330
2
100
AcDbEntity
  8
VLB
100
AcDbLine
 10
-18772.82013668885
 20
3773.591389512827
 30
0.0
 11
-18772.82013668885
 21
3767.091390512828
 31
0.0
  0
LINE
  5
19C41
330
2
100
AcDbEntity
  8
VLB
100
AcDbLine
 10
-18772.82013668885
 20
3768.173297512827
 30
0.0
 11
-18772.82013668885
 21
3772.024722512825
 31
0.0
  0
LINE
  5
19C42
330
2
100
AcDbEntity
  8
VLB
100
AcDbLine
 10
-18772.82013668885
 20
3772.024722512825
 30
0.0
 11
-18773.48680368885
 21
3772.024722512825
 31
0.0
  0
LINE
  5
19C43
330
2
100
AcDbEntity
  8
VLB
100
AcDbLine
 10
-18772.82013668885
 20
3767.091390512828
 30
0.0
 11
-18772.82013668885
 21
3766.091390512825
 31
0.0
  0
LINE
  5
19C44
330
2
100
AcDbEntity
  8
VLB
100
AcDbLine
 10
-18778.15346968885
 20
3772.758056512826
 30
0.0
 11
-18777.55802668885
 21
3773.789392512825
 31
0.0
  0
LINE
  5
19C45
330
2
100
AcDbEntity
  8
VLB
100
AcDbLine
 10
-18778.15346968885
 20
3767.091390512828
 30
0.0
 11
-18778.15346968885
 21
3772.758056512826
 31
0.0
  0
ARC
  5
19C46
330
2
100
AcDbEntity
  8
VLB
100
AcDbCircle
 10
-18774.78019768885
 20
3771.854190512824
 30
0.0
 40
3.373272
100
AcDbArc
 50
149.9999999999994
 51
214.5650930000674
  0
ARC
  5
19C47
330
2
100
AcDbEntity
  8
VLB
100
AcDbCircle
 10
-18765.41558068885
 20
3766.091390512824
 30
0.0
 40
12.737889
100
AcDbArc
 50
162.4120459999403
 51
175.4973080000296
  0
LINE
  5
19C48
330
2
100
AcDbEntity
  8
SPS
100
AcDbLine
 10
-18749.07582021798
 20
4126.091390512825
 30
0.0
 11
-18784.15538887911
 21
4126.091390512825
 31
0.0
  0
LINE
  5
19C49
330
2
100
AcDbEntity
  8
VLB
100
AcDbLine
 10
-18772.82013668885
 20
4120.158057512827
 30
0.0
 11
-18772.82013668885
 21
4127.091390512828
 31
0.0
  0
LINE
  5
19C4A
330
2
100
AcDbEntity
  8
VLB
100
AcDbLine
 10
-18773.48680368885
 20
4118.393387512823
 30
0.0
 11
-18773.48680368885
 21
4127.091390512828
 31
0.0
  0
LINE
  5
19C4B
330
2
100
AcDbEntity
  8
VLB
100
AcDbLine
 10
-18772.82013668885
 20
4126.091390512825
 30
0.0
 11
-18772.82013668885
 21
4118.591390512825
 31
0.0
  0
ARC
  5
19C4C
330
2
100
AcDbEntity
  8
VLB
100
AcDbCircle
 10
-18765.41558068885
 20
4126.091390512823
 30
0.0
 40
12.737889
100
AcDbArc
 50
175.4973080000296
 51
197.5879540000596
  0
LINE
  5
19C4D
330
2
100
AcDbEntity
  8
VLB
100
AcDbLine
 10
-18778.15346968885
 20
4119.424724512824
 30
0.0
 11
-18778.15346968885
 21
4127.091390512828
 31
0.0
  0
LINE
  5
19C4E
330
2
100
AcDbEntity
  8
VLB
100
AcDbLine
 10
-18773.48680368885
 20
4118.393387512823
 30
0.0
 11
-18777.55802668885
 21
4118.393387512823
 31
0.0
  0
LINE
  5
19C4F
330
2
100
AcDbEntity
  8
VLB
100
AcDbLine
 10
-18773.48680368885
 20
4122.242388512826
 30
0.0
 11
-18777.55802668885
 21
4122.242388512826
 31
0.0
  0
LINE
  5
19C50
330
2
100
AcDbEntity
  8
VLB
100
AcDbLine
 10
-18772.82013668885
 20
4118.591390512825
 30
0.0
 11
-18772.02013668885
 21
4118.591390512825
 31
0.0
  0
LINE
  5
19C51
330
2
100
AcDbEntity
  8
VLB
100
AcDbLine
 10
-18772.02013668885
 20
4118.591390512825
 30
0.0
 11
-18772.82013668885
 21
4118.591390512825
 31
0.0
1001
ACAD
1000
ASC_BOUNDS
1002
{
1070
    16
1002
}
  0
LINE
  5
19C52
330
2
100
AcDbEntity
  8
VLB
100
AcDbLine
 10
-18772.82013668885
 20
4120.158057512827
 30
0.0
 11
-18773.48680368885
 21
4120.158057512827
 31
0.0
  0
LINE
  5
19C53
330
2
100
AcDbEntity
  8
VLB
100
AcDbLine
 10
-18778.15346968885
 20
4119.424724512824
 30
0.0
 11
-18777.55802668885
 21
4118.393387512823
 31
0.0
  0
ARC
  5
19C54
330
2
100
AcDbEntity
  8
VLB
100
AcDbCircle
 10
-18774.78019768885
 20
4120.328589512823
 30
0.0
 40
3.373272
100
AcDbArc
 50
145.4349069999324
 51
210.0000000000004
  0
LINE
  5
19C55
330
2
100
AcDbEntity
  8
VLB
100
AcDbLine
 10
-18773.48680368885
 20
4133.789392512825
 30
0.0
 11
-18777.55802668885
 21
4133.789392512825
 31
0.0
  0
LINE
  5
19C56
330
2
100
AcDbEntity
  8
VLB
100
AcDbLine
 10
-18773.48680368885
 20
4129.940391512823
 30
0.0
 11
-18777.55802668885
 21
4129.940391512823
 31
0.0
  0
LINE
  5
19C57
330
2
100
AcDbEntity
  8
VLB
100
AcDbLine
 10
-18772.02013668885
 20
4133.591389512828
 30
0.0
 11
-18772.82013668885
 21
4133.591389512828
 31
0.0
1001
ACAD
1000
ASC_BOUNDS
1002
{
1070
    16
1002
}
  0
LINE
  5
19C58
330
2
100
AcDbEntity
  8
VLB
100
AcDbLine
 10
-18773.48680368885
 20
4127.091390512828
 30
0.0
 11
-18773.48680368885
 21
4133.789392512825
 31
0.0
  0
LINE
  5
19C59
330
2
100
AcDbEntity
  8
VLB
100
AcDbLine
 10
-18772.82013668885
 20
4133.591389512828
 30
0.0
 11
-18772.82013668885
 21
4127.091390512828
 31
0.0
  0
LINE
  5
19C5A
330
2
100
AcDbEntity
  8
VLB
100
AcDbLine
 10
-18772.82013668885
 20
4128.173297512828
 30
0.0
 11
-18772.82013668885
 21
4132.024722512825
 31
0.0
  0
LINE
  5
19C5B
330
2
100
AcDbEntity
  8
VLB
100
AcDbLine
 10
-18772.82013668885
 20
4132.024722512825
 30
0.0
 11
-18773.48680368885
 21
4132.024722512825
 31
0.0
  0
LINE
  5
19C5C
330
2
100
AcDbEntity
  8
VLB
100
AcDbLine
 10
-18772.82013668885
 20
4127.091390512828
 30
0.0
 11
-18772.82013668885
 21
4126.091390512825
 31
0.0
  0
LINE
  5
19C5D
330
2
100
AcDbEntity
  8
VLB
100
AcDbLine
 10
-18778.15346968885
 20
4132.758056512826
 30
0.0
 11
-18777.55802668885
 21
4133.789392512825
 31
0.0
  0
LINE
  5
19C5E
330
2
100
AcDbEntity
  8
VLB
100
AcDbLine
 10
-18778.15346968885
 20
4127.091390512828
 30
0.0
 11
-18778.15346968885
 21
4132.758056512826
 31
0.0
  0
ARC
  5
19C5F
330
2
100
AcDbEntity
  8
VLB
100
AcDbCircle
 10
-18774.78019768885
 20
4131.854190512824
 30
0.0
 40
3.373272
100
AcDbArc
 50
149.9999999999994
 51
214.5650930000674
  0
ARC
  5
19C60
330
2
100
AcDbEntity
  8
VLB
100
AcDbCircle
 10
-18765.41558068885
 20
4126.091390512823
 30
0.0
 40
12.737889
100
AcDbArc
 50
162.4120459999403
 51
175.4973080000296
  0
LINE
  5
19C61
330
2
100
AcDbEntity
  8
SPS
100
AcDbLine
 10
-18279.02013668886
 20
3656.035706983695
 30
0.0
 11
-18279.02013668886
 21
3620.956138322572
 31
0.0
  0
LINE
  5
19C62
330
2
100
AcDbEntity
  8
VLB
100
AcDbLine
 10
-18273.08680368886
 20
3632.291390512824
 30
0.0
 11
-18280.02013668886
 21
3632.291390512824
 31
0.0
  0
LINE
  5
19C63
330
2
100
AcDbEntity
  8
VLB
100
AcDbLine
 10
-18271.32213368885
 20
3631.624723512825
 30
0.0
 11
-18280.02013668886
 21
3631.624723512825
 31
0.0
  0
LINE
  5
19C64
330
2
100
AcDbEntity
  8
VLB
100
AcDbLine
 10
-18279.02013668886
 20
3632.291390512824
 30
0.0
 11
-18271.52013668885
 21
3632.291390512824
 31
0.0
  0
ARC
  5
19C65
330
2
100
AcDbEntity
  8
VLB
100
AcDbCircle
 10
-18279.02013668886
 20
3639.695946512824
 30
0.0
 40
12.737889
100
AcDbArc
 50
265.4973080000296
 51
287.5879540000596
  0
LINE
  5
19C66
330
2
100
AcDbEntity
  8
VLB
100
AcDbLine
 10
-18272.35347068885
 20
3626.958057512826
 30
0.0
 11
-18280.02013668886
 21
3626.958057512826
 31
0.0
  0
LINE
  5
19C67
330
2
100
AcDbEntity
  8
VLB
100
AcDbLine
 10
-18271.32213368885
 20
3631.624723512825
 30
0.0
 11
-18271.32213368885
 21
3627.553500512826
 31
0.0
  0
LINE
  5
19C68
330
2
100
AcDbEntity
  8
VLB
100
AcDbLine
 10
-18275.17113468885
 20
3631.624723512825
 30
0.0
 11
-18275.17113468885
 21
3627.553500512826
 31
0.0
  0
LINE
  5
19C69
330
2
100
AcDbEntity
  8
VLB
100
AcDbLine
 10
-18271.52013668885
 20
3632.291390512824
 30
0.0
 11
-18271.52013668885
 21
3633.091390512823
 31
0.0
  0
LINE
  5
19C6A
330
2
100
AcDbEntity
  8
VLB
100
AcDbLine
 10
-18271.52013668885
 20
3633.091390512823
 30
0.0
 11
-18271.52013668885
 21
3632.291390512824
 31
0.0
1001
ACAD
1000
ASC_BOUNDS
1002
{
1070
    16
1002
}
  0
LINE
  5
19C6B
330
2
100
AcDbEntity
  8
VLB
100
AcDbLine
 10
-18273.08680368886
 20
3632.291390512824
 30
0.0
 11
-18273.08680368886
 21
3631.624723512825
 31
0.0
  0
LINE
  5
19C6C
330
2
100
AcDbEntity
  8
VLB
100
AcDbLine
 10
-18272.35347068885
 20
3626.958057512826
 30
0.0
 11
-18271.32213368885
 21
3627.553500512826
 31
0.0
  0
ARC
  5
19C6D
330
2
100
AcDbEntity
  8
VLB
100
AcDbCircle
 10
-18273.25733568885
 20
3630.331329512825
 30
0.0
 40
3.373272
100
AcDbArc
 50
235.4349069999324
 51
300.0000000000005
  0
LINE
  5
19C6E
330
2
100
AcDbEntity
  8
VLB
100
AcDbLine
 10
-18286.71813868885
 20
3631.624723512825
 30
0.0
 11
-18286.71813868885
 21
3627.553500512826
 31
0.0
  0
LINE
  5
19C6F
330
2
100
AcDbEntity
  8
VLB
100
AcDbLine
 10
-18282.86913768885
 20
3631.624723512825
 30
0.0
 11
-18282.86913768885
 21
3627.553500512826
 31
0.0
  0
LINE
  5
19C70
330
2
100
AcDbEntity
  8
VLB
100
AcDbLine
 10
-18286.52013568886
 20
3633.091390512823
 30
0.0
 11
-18286.52013568886
 21
3632.291390512824
 31
0.0
1001
ACAD
1000
ASC_BOUNDS
1002
{
1070
    16
1002
}
  0
LINE
  5
19C71
330
2
100
AcDbEntity
  8
VLB
100
AcDbLine
 10
-18280.02013668886
 20
3631.624723512825
 30
0.0
 11
-18286.71813868885
 21
3631.624723512825
 31
0.0
  0
LINE
  5
19C72
330
2
100
AcDbEntity
  8
VLB
100
AcDbLine
 10
-18286.52013568886
 20
3632.291390512824
 30
0.0
 11
-18280.02013668886
 21
3632.291390512824
 31
0.0
  0
LINE
  5
19C73
330
2
100
AcDbEntity
  8
VLB
100
AcDbLine
 10
-18281.10204368886
 20
3632.291390512824
 30
0.0
 11
-18284.95346868885
 21
3632.291390512824
 31
0.0
  0
LINE
  5
19C74
330
2
100
AcDbEntity
  8
VLB
100
AcDbLine
 10
-18284.95346868885
 20
3632.291390512824
 30
0.0
 11
-18284.95346868885
 21
3631.624723512825
 31
0.0
  0
LINE
  5
19C75
330
2
100
AcDbEntity
  8
VLB
100
AcDbLine
 10
-18280.02013668886
 20
3632.291390512824
 30
0.0
 11
-18279.02013668886
 21
3632.291390512824
 31
0.0
  0
LINE
  5
19C76
330
2
100
AcDbEntity
  8
VLB
100
AcDbLine
 10
-18285.68680268885
 20
3626.958057512826
 30
0.0
 11
-18286.71813868885
 21
3627.553500512826
 31
0.0
  0
LINE
  5
19C77
330
2
100
AcDbEntity
  8
VLB
100
AcDbLine
 10
-18280.02013668886
 20
3626.958057512826
 30
0.0
 11
-18285.68680268885
 21
3626.958057512826
 31
0.0
  0
ARC
  5
19C78
330
2
100
AcDbEntity
  8
VLB
100
AcDbCircle
 10
-18284.78293668885
 20
3630.331329512825
 30
0.0
 40
3.373272
100
AcDbArc
 50
239.9999999999994
 51
304.5650930000675
  0
ARC
  5
19C79
330
2
100
AcDbEntity
  8
VLB
100
AcDbCircle
 10
-18279.02013668886
 20
3639.695946512824
 30
0.0
 40
12.737889
100
AcDbArc
 50
252.4120459999403
 51
265.4973080000296
  0
LINE
  5
19C7A
330
2
100
AcDbEntity
  8
SPS
100
AcDbLine
 10
-18639.02013668885
 20
3656.035706983696
 30
0.0
 11
-18639.02013668885
 21
3620.956138322572
 31
0.0
  0
LINE
  5
19C7B
330
2
100
AcDbEntity
  8
VLB
100
AcDbLine
 10
-18633.08680368886
 20
3632.291390512824
 30
0.0
 11
-18640.02013668886
 21
3632.291390512824
 31
0.0
  0
LINE
  5
19C7C
330
2
100
AcDbEntity
  8
VLB
100
AcDbLine
 10
-18631.32213368885
 20
3631.624723512825
 30
0.0
 11
-18640.02013668886
 21
3631.624723512825
 31
0.0
  0
LINE
  5
19C7D
330
2
100
AcDbEntity
  8
VLB
100
AcDbLine
 10
-18639.02013668885
 20
3632.291390512824
 30
0.0
 11
-18631.52013668885
 21
3632.291390512824
 31
0.0
  0
ARC
  5
19C7E
330
2
100
AcDbEntity
  8
VLB
100
AcDbCircle
 10
-18639.02013668885
 20
3639.695946512825
 30
0.0
 40
12.737889
100
AcDbArc
 50
265.4973080000296
 51
287.5879540000596
  0
LINE
  5
19C7F
330
2
100
AcDbEntity
  8
VLB
100
AcDbLine
 10
-18632.35347068885
 20
3626.958057512826
 30
0.0
 11
-18640.02013668886
 21
3626.958057512826
 31
0.0
  0
LINE
  5
19C80
330
2
100
AcDbEntity
  8
VLB
100
AcDbLine
 10
-18631.32213368885
 20
3631.624723512825
 30
0.0
 11
-18631.32213368885
 21
3627.553500512826
 31
0.0
  0
LINE
  5
19C81
330
2
100
AcDbEntity
  8
VLB
100
AcDbLine
 10
-18635.17113468885
 20
3631.624723512825
 30
0.0
 11
-18635.17113468885
 21
3627.553500512826
 31
0.0
  0
LINE
  5
19C82
330
2
100
AcDbEntity
  8
VLB
100
AcDbLine
 10
-18631.52013668885
 20
3632.291390512824
 30
0.0
 11
-18631.52013668885
 21
3633.091390512824
 31
0.0
  0
LINE
  5
19C83
330
2
100
AcDbEntity
  8
VLB
100
AcDbLine
 10
-18631.52013668885
 20
3633.091390512824
 30
0.0
 11
-18631.52013668885
 21
3632.291390512824
 31
0.0
1001
ACAD
1000
ASC_BOUNDS
1002
{
1070
    16
1002
}
  0
LINE
  5
19C84
330
2
100
AcDbEntity
  8
VLB
100
AcDbLine
 10
-18633.08680368886
 20
3632.291390512824
 30
0.0
 11
-18633.08680368886
 21
3631.624723512825
 31
0.0
  0
LINE
  5
19C85
330
2
100
AcDbEntity
  8
VLB
100
AcDbLine
 10
-18632.35347068885
 20
3626.958057512826
 30
0.0
 11
-18631.32213368885
 21
3627.553500512826
 31
0.0
  0
ARC
  5
19C86
330
2
100
AcDbEntity
  8
VLB
100
AcDbCircle
 10
-18633.25733568885
 20
3630.331329512825
 30
0.0
 40
3.373272
100
AcDbArc
 50
235.4349069999324
 51
300.0000000000005
  0
LINE
  5
19C87
330
2
100
AcDbEntity
  8
VLB
100
AcDbLine
 10
-18646.71813868886
 20
3631.624723512825
 30
0.0
 11
-18646.71813868886
 21
3627.553500512826
 31
0.0
  0
LINE
  5
19C88
330
2
100
AcDbEntity
  8
VLB
100
AcDbLine
 10
-18642.86913768885
 20
3631.624723512825
 30
0.0
 11
-18642.86913768885
 21
3627.553500512826
 31
0.0
  0
LINE
  5
19C89
330
2
100
AcDbEntity
  8
VLB
100
AcDbLine
 10
-18646.52013568886
 20
3633.091390512824
 30
0.0
 11
-18646.52013568886
 21
3632.291390512824
 31
0.0
1001
ACAD
1000
ASC_BOUNDS
1002
{
1070
    16
1002
}
  0
LINE
  5
19C8A
330
2
100
AcDbEntity
  8
VLB
100
AcDbLine
 10
-18640.02013668886
 20
3631.624723512825
 30
0.0
 11
-18646.71813868886
 21
3631.624723512825
 31
0.0
  0
LINE
  5
19C8B
330
2
100
AcDbEntity
  8
VLB
100
AcDbLine
 10
-18646.52013568886
 20
3632.291390512824
 30
0.0
 11
-18640.02013668886
 21
3632.291390512824
 31
0.0
  0
LINE
  5
19C8C
330
2
100
AcDbEntity
  8
VLB
100
AcDbLine
 10
-18641.10204368886
 20
3632.291390512824
 30
0.0
 11
-18644.95346868885
 21
3632.291390512824
 31
0.0
  0
LINE
  5
19C8D
330
2
100
AcDbEntity
  8
VLB
100
AcDbLine
 10
-18644.95346868885
 20
3632.291390512824
 30
0.0
 11
-18644.95346868885
 21
3631.624723512825
 31
0.0
  0
LINE
  5
19C8E
330
2
100
AcDbEntity
  8
VLB
100
AcDbLine
 10
-18640.02013668886
 20
3632.291390512824
 30
0.0
 11
-18639.02013668885
 21
3632.291390512824
 31
0.0
  0
LINE
  5
19C8F
330
2
100
AcDbEntity
  8
VLB
100
AcDbLine
 10
-18645.68680268885
 20
3626.958057512826
 30
0.0
 11
-18646.71813868886
 21
3627.553500512826
 31
0.0
  0
LINE
  5
19C90
330
2
100
AcDbEntity
  8
VLB
100
AcDbLine
 10
-18640.02013668886
 20
3626.958057512826
 30
0.0
 11
-18645.68680268885
 21
3626.958057512826
 31
0.0
  0
ARC
  5
19C91
330
2
100
AcDbEntity
  8
VLB
100
AcDbCircle
 10
-18644.78293668885
 20
3630.331329512825
 30
0.0
 40
3.373272
100
AcDbArc
 50
239.9999999999994
 51
304.5650930000675
  0
ARC
  5
19C92
330
2
100
AcDbEntity
  8
VLB
100
AcDbCircle
 10
-18639.02013668885
 20
3639.695946512825
 30
0.0
 40
12.737889
100
AcDbArc
 50
252.4120459999403
 51
265.4973080000296
  0
LINE
  5
19C93
330
2
100
AcDbEntity
  8
SPS
100
AcDbLine
 10
-18168.96445315973
 20
4126.091390512825
 30
0.0
 11
-18133.8848844986
 21
4126.091390512825
 31
0.0
  0
LINE
  5
19C94
330
2
100
AcDbEntity
  8
VLB
100
AcDbLine
 10
-18145.22013668885
 20
4132.024723512822
 30
0.0
 11
-18145.22013668885
 21
4125.09139051282
 31
0.0
  0
LINE
  5
19C95
330
2
100
AcDbEntity
  8
VLB
100
AcDbLine
 10
-18144.55346968885
 20
4133.789393512826
 30
0.0
 11
-18144.55346968885
 21
4125.09139051282
 31
0.0
  0
LINE
  5
19C96
330
2
100
AcDbEntity
  8
VLB
100
AcDbLine
 10
-18145.22013668885
 20
4126.091390512825
 30
0.0
 11
-18145.22013668885
 21
4133.591390512824
 31
0.0
  0
ARC
  5
19C97
330
2
100
AcDbEntity
  8
VLB
100
AcDbCircle
 10
-18152.62469268886
 20
4126.091390512823
 30
0.0
 40
12.737889
100
AcDbArc
 50
355.4973080000296
 51
17.58795400005955
  0
LINE
  5
19C98
330
2
100
AcDbEntity
  8
VLB
100
AcDbLine
 10
-18139.88680368886
 20
4132.758056512826
 30
0.0
 11
-18139.88680368886
 21
4125.09139051282
 31
0.0
  0
LINE
  5
19C99
330
2
100
AcDbEntity
  8
VLB
100
AcDbLine
 10
-18144.55346968885
 20
4133.789393512826
 30
0.0
 11
-18140.48224668885
 21
4133.789393512826
 31
0.0
  0
LINE
  5
19C9A
330
2
100
AcDbEntity
  8
VLB
100
AcDbLine
 10
-18144.55346968885
 20
4129.940392512824
 30
0.0
 11
-18140.48224668885
 21
4129.940392512824
 31
0.0
  0
LINE
  5
19C9B
330
2
100
AcDbEntity
  8
VLB
100
AcDbLine
 10
-18145.22013668885
 20
4133.591390512824
 30
0.0
 11
-18146.02013668885
 21
4133.591390512824
 31
0.0
  0
LINE
  5
19C9C
330
2
100
AcDbEntity
  8
VLB
100
AcDbLine
 10
-18146.02013668885
 20
4133.591390512824
 30
0.0
 11
-18145.22013668885
 21
4133.591390512824
 31
0.0
1001
ACAD
1000
ASC_BOUNDS
1002
{
1070
    16
1002
}
  0
LINE
  5
19C9D
330
2
100
AcDbEntity
  8
VLB
100
AcDbLine
 10
-18145.22013668885
 20
4132.024723512822
 30
0.0
 11
-18144.55346968885
 21
4132.024723512822
 31
0.0
  0
LINE
  5
19C9E
330
2
100
AcDbEntity
  8
VLB
100
AcDbLine
 10
-18139.88680368886
 20
4132.758056512826
 30
0.0
 11
-18140.48224668885
 21
4133.789393512826
 31
0.0
  0
ARC
  5
19C9F
330
2
100
AcDbEntity
  8
VLB
100
AcDbCircle
 10
-18143.26007568886
 20
4131.854191512824
 30
0.0
 40
3.373272
100
AcDbArc
 50
325.4349069999323
 51
30.00000000000048
  0
LINE
  5
19CA0
330
2
100
AcDbEntity
  8
VLB
100
AcDbLine
 10
-18144.55346968885
 20
4118.393388512823
 30
0.0
 11
-18140.48224668885
 21
4118.393388512823
 31
0.0
  0
LINE
  5
19CA1
330
2
100
AcDbEntity
  8
VLB
100
AcDbLine
 10
-18144.55346968885
 20
4122.242389512826
 30
0.0
 11
-18140.48224668885
 21
4122.242389512826
 31
0.0
  0
LINE
  5
19CA2
330
2
100
AcDbEntity
  8
VLB
100
AcDbLine
 10
-18146.02013668885
 20
4118.591391512821
 30
0.0
 11
-18145.22013668885
 21
4118.591391512821
 31
0.0
1001
ACAD
1000
ASC_BOUNDS
1002
{
1070
    16
1002
}
  0
LINE
  5
19CA3
330
2
100
AcDbEntity
  8
VLB
100
AcDbLine
 10
-18144.55346968885
 20
4125.09139051282
 30
0.0
 11
-18144.55346968885
 21
4118.393388512823
 31
0.0
  0
LINE
  5
19CA4
330
2
100
AcDbEntity
  8
VLB
100
AcDbLine
 10
-18145.22013668885
 20
4118.591391512821
 30
0.0
 11
-18145.22013668885
 21
4125.09139051282
 31
0.0
  0
LINE
  5
19CA5
330
2
100
AcDbEntity
  8
VLB
100
AcDbLine
 10
-18145.22013668885
 20
4124.00948351282
 30
0.0
 11
-18145.22013668885
 21
4120.158058512823
 31
0.0
  0
LINE
  5
19CA6
330
2
100
AcDbEntity
  8
VLB
100
AcDbLine
 10
-18145.22013668885
 20
4120.158058512823
 30
0.0
 11
-18144.55346968885
 21
4120.158058512823
 31
0.0
  0
LINE
  5
19CA7
330
2
100
AcDbEntity
  8
VLB
100
AcDbLine
 10
-18145.22013668885
 20
4125.09139051282
 30
0.0
 11
-18145.22013668885
 21
4126.091390512825
 31
0.0
  0
LINE
  5
19CA8
330
2
100
AcDbEntity
  8
VLB
100
AcDbLine
 10
-18139.88680368886
 20
4119.424724512824
 30
0.0
 11
-18140.48224668885
 21
4118.393388512823
 31
0.0
  0
LINE
  5
19CA9
330
2
100
AcDbEntity
  8
VLB
100
AcDbLine
 10
-18139.88680368886
 20
4125.09139051282
 30
0.0
 11
-18139.88680368886
 21
4119.424724512824
 31
0.0
  0
ARC
  5
19CAA
330
2
100
AcDbEntity
  8
VLB
100
AcDbCircle
 10
-18143.26007568886
 20
4120.328590512823
 30
0.0
 40
3.373272
100
AcDbArc
 50
329.9999999999994
 51
34.56509300006749
  0
ARC
  5
19CAB
330
2
100
AcDbEntity
  8
VLB
100
AcDbCircle
 10
-18152.62469268886
 20
4126.091390512823
 30
0.0
 40
12.737889
100
AcDbArc
 50
342.4120459999403
 51
355.4973080000296
  0
LINE
  5
19CAC
330
2
100
AcDbEntity
  8
SPS
100
AcDbLine
 10
-18168.96445315973
 20
3766.091390512825
 30
0.0
 11
-18133.8848844986
 21
3766.091390512825
 31
0.0
  0
LINE
  5
19CAD
330
2
100
AcDbEntity
  8
VLB
100
AcDbLine
 10
-18145.22013668885
 20
3772.024723512822
 30
0.0
 11
-18145.22013668885
 21
3765.091390512821
 31
0.0
  0
LINE
  5
19CAE
330
2
100
AcDbEntity
  8
VLB
100
AcDbLine
 10
-18144.55346968885
 20
3773.789393512826
 30
0.0
 11
-18144.55346968885
 21
3765.091390512821
 31
0.0
  0
LINE
  5
19CAF
330
2
100
AcDbEntity
  8
VLB
100
AcDbLine
 10
-18145.22013668885
 20
3766.091390512825
 30
0.0
 11
-18145.22013668885
 21
3773.591390512825
 31
0.0
  0
ARC
  5
19CB0
330
2
100
AcDbEntity
  8
VLB
100
AcDbCircle
 10
-18152.62469268886
 20
3766.091390512824
 30
0.0
 40
12.737889
100
AcDbArc
 50
355.4973080000296
 51
17.58795400005955
  0
LINE
  5
19CB1
330
2
100
AcDbEntity
  8
VLB
100
AcDbLine
 10
-18139.88680368886
 20
3772.758056512826
 30
0.0
 11
-18139.88680368886
 21
3765.091390512821
 31
0.0
  0
LINE
  5
19CB2
330
2
100
AcDbEntity
  8
VLB
100
AcDbLine
 10
-18144.55346968885
 20
3773.789393512826
 30
0.0
 11
-18140.48224668885
 21
3773.789393512826
 31
0.0
  0
LINE
  5
19CB3
330
2
100
AcDbEntity
  8
VLB
100
AcDbLine
 10
-18144.55346968885
 20
3769.940392512824
 30
0.0
 11
-18140.48224668885
 21
3769.940392512824
 31
0.0
  0
LINE
  5
19CB4
330
2
100
AcDbEntity
  8
VLB
100
AcDbLine
 10
-18145.22013668885
 20
3773.591390512825
 30
0.0
 11
-18146.02013668885
 21
3773.591390512825
 31
0.0
  0
LINE
  5
19CB5
330
2
100
AcDbEntity
  8
VLB
100
AcDbLine
 10
-18146.02013668885
 20
3773.591390512825
 30
0.0
 11
-18145.22013668885
 21
3773.591390512825
 31
0.0
1001
ACAD
1000
ASC_BOUNDS
1002
{
1070
    16
1002
}
  0
LINE
  5
19CB6
330
2
100
AcDbEntity
  8
VLB
100
AcDbLine
 10
-18145.22013668885
 20
3772.024723512822
 30
0.0
 11
-18144.55346968885
 21
3772.024723512822
 31
0.0
  0
LINE
  5
19CB7
330
2
100
AcDbEntity
  8
VLB
100
AcDbLine
 10
-18139.88680368886
 20
3772.758056512826
 30
0.0
 11
-18140.48224668885
 21
3773.789393512826
 31
0.0
  0
ARC
  5
19CB8
330
2
100
AcDbEntity
  8
VLB
100
AcDbCircle
 10
-18143.26007568886
 20
3771.854191512824
 30
0.0
 40
3.373272
100
AcDbArc
 50
325.4349069999323
 51
30.00000000000048
  0
LINE
  5
19CB9
330
2
100
AcDbEntity
  8
VLB
100
AcDbLine
 10
-18144.55346968885
 20
3758.393388512824
 30
0.0
 11
-18140.48224668885
 21
3758.393388512824
 31
0.0
  0
LINE
  5
19CBA
330
2
100
AcDbEntity
  8
VLB
100
AcDbLine
 10
-18144.55346968885
 20
3762.242389512826
 30
0.0
 11
-18140.48224668885
 21
3762.242389512826
 31
0.0
  0
LINE
  5
19CBB
330
2
100
AcDbEntity
  8
VLB
100
AcDbLine
 10
-18146.02013668885
 20
3758.591391512821
 30
0.0
 11
-18145.22013668885
 21
3758.591391512821
 31
0.0
1001
ACAD
1000
ASC_BOUNDS
1002
{
1070
    16
1002
}
  0
LINE
  5
19CBC
330
2
100
AcDbEntity
  8
VLB
100
AcDbLine
 10
-18144.55346968885
 20
3765.091390512821
 30
0.0
 11
-18144.55346968885
 21
3758.393388512824
 31
0.0
  0
LINE
  5
19CBD
330
2
100
AcDbEntity
  8
VLB
100
AcDbLine
 10
-18145.22013668885
 20
3758.591391512821
 30
0.0
 11
-18145.22013668885
 21
3765.091390512821
 31
0.0
  0
LINE
  5
19CBE
330
2
100
AcDbEntity
  8
VLB
100
AcDbLine
 10
-18145.22013668885
 20
3764.009483512821
 30
0.0
 11
-18145.22013668885
 21
3760.158058512824
 31
0.0
  0
LINE
  5
19CBF
330
2
100
AcDbEntity
  8
VLB
100
AcDbLine
 10
-18145.22013668885
 20
3760.158058512824
 30
0.0
 11
-18144.55346968885
 21
3760.158058512824
 31
0.0
  0
LINE
  5
19CC0
330
2
100
AcDbEntity
  8
VLB
100
AcDbLine
 10
-18145.22013668885
 20
3765.091390512821
 30
0.0
 11
-18145.22013668885
 21
3766.091390512825
 31
0.0
  0
LINE
  5
19CC1
330
2
100
AcDbEntity
  8
VLB
100
AcDbLine
 10
-18139.88680368886
 20
3759.424724512824
 30
0.0
 11
-18140.48224668885
 21
3758.393388512824
 31
0.0
  0
LINE
  5
19CC2
330
2
100
AcDbEntity
  8
VLB
100
AcDbLine
 10
-18139.88680368886
 20
3765.091390512821
 30
0.0
 11
-18139.88680368886
 21
3759.424724512824
 31
0.0
  0
ARC
  5
19CC3
330
2
100
AcDbEntity
  8
VLB
100
AcDbCircle
 10
-18143.26007568886
 20
3760.328590512823
 30
0.0
 40
3.373272
100
AcDbArc
 50
329.9999999999994
 51
34.56509300006749
  0
ARC
  5
19CC4
330
2
100
AcDbEntity
  8
VLB
100
AcDbCircle
 10
-18152.62469268886
 20
3766.091390512824
 30
0.0
 40
12.737889
100
AcDbArc
 50
342.4120459999403
 51
355.4973080000296
  0
TEXT
  5
19CCA
330
2
100
AcDbEntity
  8
VLB
100
AcDbText
 10
-18201.55011323728
 20
5816.851113222138
 30
0.0
 40
80.0
  1
FDA 31-25..-..
  7
ROMANS8
100
AcDbText
  0
LINE
  5
1B445
330
2
100
AcDbEntity
  8
VLB
100
AcDbLine
 10
-18693.52004531879
 20
4008.096929412825
 30
0.0
 11
-18700.02004531879
 21
4004.344160012825
 31
0.0
  0
LINE
  5
1B446
330
2
100
AcDbEntity
  8
VLB
100
AcDbLine
 10
-18687.02004531879
 20
4004.344160012825
 30
0.0
 11
-18693.52004531879
 21
4008.096929412825
 31
0.0
  0
LINE
  5
1B447
330
2
100
AcDbEntity
  8
SPS
100
AcDbLine
 10
-18693.52004531879
 20
4000.591390512825
 30
0.0
 11
-18702.02004531879
 21
4000.591390512825
 31
0.0
  0
LINE
  5
1B448
330
2
100
AcDbEntity
  8
VLB
100
AcDbLine
 10
-18700.02004531879
 20
3996.838621012825
 30
0.0
 11
-18693.52004531879
 21
3993.085851612825
 31
0.0
  0
LINE
  5
1B449
330
2
100
AcDbEntity
  8
SPS
100
AcDbLine
 10
-18693.52004531879
 20
4000.591390512825
 30
0.0
 11
-18693.52004531879
 21
3992.091390512825
 31
0.0
  0
LINE
  5
1B44A
330
2
100
AcDbEntity
  8
VLB
100
AcDbLine
 10
-18693.52004531879
 20
3993.085851612825
 30
0.0
 11
-18687.02004531879
 21
3996.838621012825
 31
0.0
  0
LINE
  5
1B44B
330
2
100
AcDbEntity
  8
SPS
100
AcDbLine
 10
-18693.52004531879
 20
4000.591390512825
 30
0.0
 11
-18685.02004531879
 21
4000.591390512825
 31
0.0
  0
LINE
  5
1B44C
330
2
100
AcDbEntity
  8
SPS
100
AcDbLine
 10
-18693.52004531879
 20
4000.591390512825
 30
0.0
 11
-18693.52004531879
 21
4009.091390512825
 31
0.0
  0
LINE
  5
1B44D
330
2
100
AcDbEntity
  8
VLB
100
AcDbLine
 10
-18700.02004531879
 20
4004.344160012825
 30
0.0
 11
-18700.02004531879
 21
3996.838621012825
 31
0.0
  0
LINE
  5
1B44E
330
2
100
AcDbEntity
  8
VLB
100
AcDbLine
 10
-18687.02004531879
 20
3996.838621012825
 30
0.0
 11
-18687.02004531879
 21
4004.344160012825
 31
0.0
  0
CIRCLE
  5
1B44F
330
2
100
AcDbEntity
  8
VLB
100
AcDbCircle
 10
-18693.52004531879
 20
4000.591390512825
 30
0.0
 40
6.5
  0
LINE
  5
1B450
330
2
100
AcDbEntity
  8
VLB
100
AcDbLine
 10
-18693.52004531879
 20
3899.096929412825
 30
0.0
 11
-18700.02004531879
 21
3895.344160012825
 31
0.0
  0
LINE
  5
1B451
330
2
100
AcDbEntity
  8
VLB
100
AcDbLine
 10
-18687.02004531879
 20
3895.344160012825
 30
0.0
 11
-18693.52004531879
 21
3899.096929412825
 31
0.0
  0
LINE
  5
1B452
330
2
100
AcDbEntity
  8
SPS
100
AcDbLine
 10
-18693.52004531879
 20
3891.591390512825
 30
0.0
 11
-18702.02004531879
 21
3891.591390512825
 31
0.0
  0
LINE
  5
1B453
330
2
100
AcDbEntity
  8
VLB
100
AcDbLine
 10
-18700.02004531879
 20
3887.838621012825
 30
0.0
 11
-18693.52004531879
 21
3884.085851612825
 31
0.0
  0
LINE
  5
1B454
330
2
100
AcDbEntity
  8
SPS
100
AcDbLine
 10
-18693.52004531879
 20
3891.591390512825
 30
0.0
 11
-18693.52004531879
 21
3883.091390512825
 31
0.0
  0
LINE
  5
1B455
330
2
100
AcDbEntity
  8
VLB
100
AcDbLine
 10
-18693.52004531879
 20
3884.085851612825
 30
0.0
 11
-18687.02004531879
 21
3887.838621012825
 31
0.0
  0
LINE
  5
1B456
330
2
100
AcDbEntity
  8
SPS
100
AcDbLine
 10
-18693.52004531879
 20
3891.591390512825
 30
0.0
 11
-18685.02004531879
 21
3891.591390512825
 31
0.0
  0
LINE
  5
1B457
330
2
100
AcDbEntity
  8
SPS
100
AcDbLine
 10
-18693.52004531879
 20
3891.591390512825
 30
0.0
 11
-18693.52004531879
 21
3900.091390512825
 31
0.0
  0
LINE
  5
1B458
330
2
100
AcDbEntity
  8
VLB
100
AcDbLine
 10
-18700.02004531879
 20
3895.344160012825
 30
0.0
 11
-18700.02004531879
 21
3887.838621012825
 31
0.0
  0
LINE
  5
1B459
330
2
100
AcDbEntity
  8
VLB
100
AcDbLine
 10
-18687.02004531879
 20
3887.838621012825
 30
0.0
 11
-18687.02004531879
 21
3895.344160012825
 31
0.0
  0
CIRCLE
  5
1B45A
330
2
100
AcDbEntity
  8
VLB
100
AcDbCircle
 10
-18693.52004531879
 20
3891.591390512825
 30
0.0
 40
6.5
  0
LINE
  5
1B45B
330
2
100
AcDbEntity
  8
VLB
100
AcDbLine
 10
-18224.52022805892
 20
4008.096929412825
 30
0.0
 11
-18231.02022805891
 21
4004.344160012825
 31
0.0
  0
LINE
  5
1B45C
330
2
100
AcDbEntity
  8
VLB
100
AcDbLine
 10
-18218.02022805892
 20
4004.344160012825
 30
0.0
 11
-18224.52022805892
 21
4008.096929412825
 31
0.0
  0
LINE
  5
1B45D
330
2
100
AcDbEntity
  8
SPS
100
AcDbLine
 10
-18224.52022805892
 20
4000.591390512825
 30
0.0
 11
-18233.02022805891
 21
4000.591390512825
 31
0.0
  0
LINE
  5
1B45E
330
2
100
AcDbEntity
  8
VLB
100
AcDbLine
 10
-18231.02022805891
 20
3996.838621012825
 30
0.0
 11
-18224.52022805892
 21
3993.085851612825
 31
0.0
  0
LINE
  5
1B45F
330
2
100
AcDbEntity
  8
SPS
100
AcDbLine
 10
-18224.52022805892
 20
4000.591390512825
 30
0.0
 11
-18224.52022805892
 21
3992.091390512825
 31
0.0
  0
LINE
  5
1B460
330
2
100
AcDbEntity
  8
VLB
100
AcDbLine
 10
-18224.52022805892
 20
3993.085851612825
 30
0.0
 11
-18218.02022805892
 21
3996.838621012825
 31
0.0
  0
LINE
  5
1B461
330
2
100
AcDbEntity
  8
SPS
100
AcDbLine
 10
-18224.52022805892
 20
4000.591390512825
 30
0.0
 11
-18216.02022805891
 21
4000.591390512825
 31
0.0
  0
LINE
  5
1B462
330
2
100
AcDbEntity
  8
SPS
100
AcDbLine
 10
-18224.52022805892
 20
4000.591390512825
 30
0.0
 11
-18224.52022805892
 21
4009.091390512825
 31
0.0
  0
LINE
  5
1B463
330
2
100
AcDbEntity
  8
VLB
100
AcDbLine
 10
-18231.02022805891
 20
4004.344160012825
 30
0.0
 11
-18231.02022805891
 21
3996.838621012825
 31
0.0
  0
LINE
  5
1B464
330
2
100
AcDbEntity
  8
VLB
100
AcDbLine
 10
-18218.02022805892
 20
3996.838621012825
 30
0.0
 11
-18218.02022805892
 21
4004.344160012825
 31
0.0
  0
CIRCLE
  5
1B465
330
2
100
AcDbEntity
  8
VLB
100
AcDbCircle
 10
-18224.52022805892
 20
4000.591390512825
 30
0.0
 40
6.5
  0
LINE
  5
1B466
330
2
100
AcDbEntity
  8
VLB
100
AcDbLine
 10
-18224.52022805892
 20
3899.096929412825
 30
0.0
 11
-18231.02022805891
 21
3895.344160012825
 31
0.0
  0
LINE
  5
1B467
330
2
100
AcDbEntity
  8
VLB
100
AcDbLine
 10
-18218.02022805892
 20
3895.344160012825
 30
0.0
 11
-18224.52022805892
 21
3899.096929412825
 31
0.0
  0
LINE
  5
1B468
330
2
100
AcDbEntity
  8
SPS
100
AcDbLine
 10
-18224.52022805892
 20
3891.591390512825
 30
0.0
 11
-18233.02022805891
 21
3891.591390512825
 31
0.0
  0
LINE
  5
1B469
330
2
100
AcDbEntity
  8
VLB
100
AcDbLine
 10
-18231.02022805891
 20
3887.838621012825
 30
0.0
 11
-18224.52022805892
 21
3884.085851612825
 31
0.0
  0
LINE
  5
1B46A
330
2
100
AcDbEntity
  8
SPS
100
AcDbLine
 10
-18224.52022805892
 20
3891.591390512825
 30
0.0
 11
-18224.52022805892
 21
3883.091390512825
 31
0.0
  0
LINE
  5
1B46B
330
2
100
AcDbEntity
  8
VLB
100
AcDbLine
 10
-18224.52022805892
 20
3884.085851612825
 30
0.0
 11
-18218.02022805892
 21
3887.838621012825
 31
0.0
  0
LINE
  5
1B46C
330
2
100
AcDbEntity
  8
SPS
100
AcDbLine
 10
-18224.52022805892
 20
3891.591390512825
 30
0.0
 11
-18216.02022805891
 21
3891.591390512825
 31
0.0
  0
LINE
  5
1B46D
330
2
100
AcDbEntity
  8
SPS
100
AcDbLine
 10
-18224.52022805892
 20
3891.591390512825
 30
0.0
 11
-18224.52022805892
 21
3900.091390512825
 31
0.0
  0
LINE
  5
1B46E
330
2
100
AcDbEntity
  8
VLB
100
AcDbLine
 10
-18231.02022805891
 20
3895.344160012825
 30
0.0
 11
-18231.02022805891
 21
3887.838621012825
 31
0.0
  0
LINE
  5
1B46F
330
2
100
AcDbEntity
  8
VLB
100
AcDbLine
 10
-18218.02022805892
 20
3887.838621012825
 30
0.0
 11
-18218.02022805892
 21
3895.344160012825
 31
0.0
  0
CIRCLE
  5
1B470
330
2
100
AcDbEntity
  8
VLB
100
AcDbCircle
 10
-18224.52022805892
 20
3891.591390512825
 30
0.0
 40
6.5
  0
LINE
  5
1F493
330
2
100
AcDbEntity
  8
SPS
100
AcDbLine
 10
-18647.76612910976
 20
4535.860404006809
 30
0.0
 11
-18630.27414426795
 21
4535.860404006809
 31
0.0
  0
LWPOLYLINE
  5
1F494
330
2
100
AcDbEntity
  8
VLB
100
AcDbPolyline
 90
        6
 70
     1
 43
0.0
 10
-18642.77291343858
 20
4542.360404006809
 10
-18646.52569018832
 20
4535.860404006809
 10
-18642.77291343858
 20
4529.360404006809
 10
-18635.26735993912
 20
4529.360404006809
 10
-18631.51458318939
 20
4535.860404006809
 10
-18635.26735993912
 20
4542.360404006809
  0
CIRCLE
  5
1F495
330
2
100
AcDbEntity
  8
VLB
100
AcDbCircle
 10
-18639.02013668885
 20
4535.860404006809
 30
0.0
 40
6.5
  0
LINE
  5
1F496
330
2
100
AcDbEntity
  8
SPS
100
AcDbLine
 10
-18639.02013668885
 20
4544.606396427711
 30
0.0
 11
-18639.02013668885
 21
4527.114411585908
 31
0.0
  0
LINE
  5
1F497
330
2
100
AcDbEntity
  8
SPS
100
AcDbLine
 10
-18287.76612910976
 20
4535.860404006809
 30
0.0
 11
-18270.27414426795
 21
4535.860404006809
 31
0.0
  0
LWPOLYLINE
  5
1F498
330
2
100
AcDbEntity
  8
VLB
100
AcDbPolyline
 90
        6
 70
     1
 43
0.0
 10
-18282.77291343859
 20
4542.360404006809
 10
-18286.52569018832
 20
4535.860404006809
 10
-18282.77291343859
 20
4529.360404006809
 10
-18275.26735993912
 20
4529.360404006809
 10
-18271.51458318939
 20
4535.860404006809
 10
-18275.26735993912
 20
4542.360404006809
  0
CIRCLE
  5
1F499
330
2
100
AcDbEntity
  8
VLB
100
AcDbCircle
 10
-18279.02013668886
 20
4535.860404006809
 30
0.0
 40
6.5
  0
LINE
  5
1F49A
330
2
100
AcDbEntity
  8
SPS
100
AcDbLine
 10
-18279.02013668886
 20
4544.606396427711
 30
0.0
 11
-18279.02013668886
 21
4527.114411585908
 31
0.0
  0
LINE
  5
1F49B
330
2
100
AcDbEntity
  8
SPS
100
AcDbLine
 10
-17552.71615140637
 20
4535.860404006809
 30
0.0
 11
-17535.22416656456
 21
4535.860404006809
 31
0.0
  0
LWPOLYLINE
  5
1F49C
330
2
100
AcDbEntity
  8
VLB
100
AcDbPolyline
 90
        6
 70
     1
 43
0.0
 10
-17547.72293573519
 20
4542.360404006809
 10
-17551.47571248493
 20
4535.860404006809
 10
-17547.72293573519
 20
4529.360404006809
 10
-17540.21738223573
 20
4529.360404006809
 10
-17536.464605486
 20
4535.860404006809
 10
-17540.21738223573
 20
4542.360404006809
  0
CIRCLE
  5
1F49D
330
2
100
AcDbEntity
  8
VLB
100
AcDbCircle
 10
-17543.97015898546
 20
4535.860404006809
 30
0.0
 40
6.5
  0
LINE
  5
1F49E
330
2
100
AcDbEntity
  8
SPS
100
AcDbLine
 10
-17543.97015898546
 20
4544.606396427711
 30
0.0
 11
-17543.97015898546
 21
4527.114411585908
 31
0.0
  0
LINE
  5
1F49F
330
2
100
AcDbEntity
  8
SPS
100
AcDbLine
 10
-17192.71615140637
 20
4535.860404006809
 30
0.0
 11
-17175.22416656456
 21
4535.860404006809
 31
0.0
  0
LWPOLYLINE
  5
1F4A0
330
2
100
AcDbEntity
  8
VLB
100
AcDbPolyline
 90
        6
 70
     1
 43
0.0
 10
-17187.72293573519
 20
4542.360404006809
 10
-17191.47571248493
 20
4535.860404006809
 10
-17187.72293573519
 20
4529.360404006809
 10
-17180.21738223573
 20
4529.360404006809
 10
-17176.464605486
 20
4535.860404006809
 10
-17180.21738223573
 20
4542.360404006809
  0
CIRCLE
  5
1F4A1
330
2
100
AcDbEntity
  8
VLB
100
AcDbCircle
 10
-17183.97015898546
 20
4535.860404006809
 30
0.0
 40
6.5
  0
LINE
  5
1F4A2
330
2
100
AcDbEntity
  8
SPS
100
AcDbLine
 10
-17183.97015898546
 20
4544.606396427711
 30
0.0
 11
-17183.97015898546
 21
4527.114411585908
 31
0.0
  0
LINE
  5
1F949
330
2
100
AcDbEntity
  8
VLB
100
AcDbLine
 10
-18770.52013668885
 20
4520.86040400681
 30
0.0
 11
-18770.52013668885
 21
5175.860404006812
 31
0.0
  0
LINE
  5
1F94A
330
2
100
AcDbEntity
  8
VLB
100
AcDbLine
 10
-18147.02013668886
 20
4520.86040400681
 30
0.0
 11
-18147.02013668886
 21
5175.860404006811
 31
0.0
  0
LINE
  5
1F94B
330
2
100
AcDbEntity
  8
VLB
100
AcDbLine
 10
-17675.47015898546
 20
4520.86040400681
 30
0.0
 11
-17675.47015898546
 21
5175.860404006812
 31
0.0
  0
LINE
  5
1F94C
330
2
100
AcDbEntity
  8
VLB
100
AcDbLine
 10
-17051.97015898547
 20
4520.86040400681
 30
0.0
 11
-17051.97015898547
 21
5175.860404006811
 31
0.0
  0
LINE
  5
1FBA1
330
2
100
AcDbEntity
  8
VLB
100
AcDbLine
 10
-17566.97015898546
 20
5198.86040400681
 30
0.0
 11
-17566.97015898546
 21
5175.860404006811
 31
0.0
  0
LINE
  5
1FBA2
330
2
100
AcDbEntity
  8
VLB
100
AcDbLine
 10
-18662.02013668885
 20
5198.86040400681
 30
0.0
 11
-18662.02013668885
 21
5175.860404006811
 31
0.0
  0
LINE
  5
1FBA4
330
2
100
AcDbEntity
  8
VLB
100
AcDbLine
 10
-18255.02013668885
 20
5213.893333642221
 30
0.0
 11
-18255.02013668885
 21
5175.860404006811
 31
0.0
  0
LINE
  5
1FBA5
330
2
100
AcDbEntity
  8
VLB
100
AcDbLine
 10
-17159.97015898546
 20
5213.86040400681
 30
0.0
 11
-17159.97015898546
 21
5175.860404006811
 31
0.0
  0
LINE
  5
1FBA9
330
2
100
AcDbEntity
  8
VLB
100
AcDbLine
 10
-17567.97015898546
 20
5213.86040400681
 30
0.0
 11
-17567.97015898546
 21
5198.86040400681
 31
0.0
  0
VIEWPORT
  5
51E
330
7
100
AcDbEntity
 67
     1
  8
0
100
AcDbViewport
 10
222.9989965408922
 20
359.8485954918802
 30
0.0
 40
1687.01080625753
 41
963.3348615119601
 68
     1
 69
     1
1001
ACAD
1000
MVIEW
1002
{
1070
    16
1010
0.0
1020
0.0
1030
0.0
1010
0.0
1020
0.0
1030
1.0
1040
0.0
1040
963.3348615119601
1040
222.9989965408922
1040
359.8485954918802
1040
50.0
1040
0.0
1040
0.0
1070
     0
1070
   100
1070
     1
1070
     1
1070
     0
1070
     0
1070
     0
1070
     0
1040
0.0
1040
0.0
1040
0.0
1040
1.0
1040
1.0
1040
10.0
1040
10.0
1070
     0
1002
{
1002
}
1002
}
  0
ENDSEC
  0
SECTION
  2
OBJECTS
  0
DICTIONARY
  5
1A
330
0
100
AcDbDictionary
  3
ACAD_GROUP
350
18
  3
ACAD_LAYOUT
350
EDC7
  3
ACAD_MLINESTYLE
350
19
  3
ACAD_PLOTSETTINGS
350
EDC8
  3
ACAD_PLOTSTYLENAME
350
EDC5
  3
ACDBHEADERROUNDTRIPXREC
350
1FE4F
  3
ACDBVARIABLEDICTIONARY
350
EDE7
  3
CONTENTDICTIONARY
350
81A
  0
DICTIONARY
  5
1FE70
330
2
100
AcDbDictionary
280
     1
  3
ACAD_LAYOUTSELFREF
360
1FE71
  0
DICTIONARY
  5
1FE72
330
7
100
AcDbDictionary
280
     1
  3
ACAD_LAYOUTSELFREF
360
1FE73
  0
DICTIONARY
  5
18
102
{ACAD_REACTORS
330
1A
102
}
330
1A
100
AcDbDictionary
  3
*A1
350
63B1
  3
*A10
350
6405
  3
*A100
350
63D6
  3
*A1000
350
1ADD
  3
*A1001
350
1C12
  3
*A1002
350
1C57
  3
*A1003
350
484A
  3
*A1004
350
494A
  3
*A1005
350
4908
  3
*A1006
350
6231
  3
*A1007
350
4836
  3
*A1008
350
4856
  3
*A1009
350
48CB
  3
*A101
350
62A2
  3
*A1010
350
483E
  3
*A1011
350
4809
  3
*A1012
350
1BD9
  3
*A1013
350
62E5
  3
*A1014
350
63F5
  3
*A1015
350
62FF
  3
*A1016
350
1AD6
  3
*A1017
350
6420
  3
*A1018
350
499D
  3
*A1019
350
62B4
  3
*A102
350
6350
  3
*A1020
350
49DA
  3
*A1021
350
63BE
  3
*A1022
350
1C5B
  3
*A1023
350
6315
  3
*A1024
350
4892
  3
*A1025
350
630C
  3
*A1026
350
6352
  3
*A1027
350
4901
  3
*A1028
350
1C60
  3
*A1029
350
6413
  3
*A103
350
6400
  3
*A1030
350
63C6
  3
*A1031
350
1BA5
  3
*A1032
350
4829
  3
*A1033
350
48A3
  3
*A1034
350
62EF
  3
*A1035
350
6377
  3
*A1036
350
4857
  3
*A104
350
6399
  3
*A105
350
625C
  3
*A106
350
1ACE
  3
*A107
350
1BA6
  3
*A108
350
1BB4
  3
*A109
350
1C03
  3
*A11
350
1C1D
  3
*A110
350
4995
  3
*A111
350
1C45
  3
*A112
350
49FC
  3
*A113
350
6283
  3
*A114
350
6284
  3
*A115
350
6341
  3
*A116
350
1C61
  3
*A117
350
1BA8
  3
*A118
350
63F0
  3
*A119
350
482D
  3
*A12
350
1BCF
  3
*A120
350
49D8
  3
*A121
350
4990
  3
*A122
350
629B
  3
*A123
350
1C0E
  3
*A124
350
1460
  3
*A125
350
6381
  3
*A126
350
37B9
  3
*A127
350
4858
  3
*A128
350
1C51
  3
*A129
350
1AD1
  3
*A13
350
48C9
  3
*A130
350
1AF3
  3
*A131
350
4886
  3
*A132
350
635B
  3
*A133
350
1BBD
  3
*A134
350
1B16
  3
*A135
350
1B62
  3
*A136
350
494D
  3
*A137
350
1AFD
  3
*A138
350
63B3
  3
*A139
350
37C2
  3
*A14
350
1AEB
  3
*A140
350
49D5
  3
*A141
350
6298
  3
*A142
350
4A0F
  3
*A143
350
1BC2
  3
*A144
350
6392
  3
*A145
350
1BED
  3
*A146
350
1BF5
  3
*A147
350
62E9
  3
*A148
350
48B3
  3
*A149
350
1C0C
  3
*A15
350
1B6E
  3
*A150
350
1BE4
  3
*A151
350
62C8
  3
*A152
350
638B
  3
*A153
350
48E3
  3
*A154
350
4929
  3
*A155
350
4909
  3
*A156
350
1BFC
  3
*A157
350
6316
  3
*A158
350
37BF
  3
*A159
350
1BBB
  3
*A16
350
6279
  3
*A160
350
6304
  3
*A161
350
49BE
  3
*A162
350
1BE1
  3
*A163
350
49F0
  3
*A164
350
1AEC
  3
*A165
350
498C
  3
*A166
350
1B0C
  3
*A167
350
1BB6
  3
*A168
350
487F
  3
*A169
350
48CC
  3
*A17
350
63DC
  3
*A170
350
1B2F
  3
*A171
350
488F
  3
*A172
350
493F
  3
*A173
350
625E
  3
*A174
350
4989
  3
*A175
350
4899
  3
*A176
350
1BBF
  3
*A177
350
63C9
  3
*A178
350
6375
  3
*A179
350
4911
  3
*A18
350
4842
  3
*A180
350
4968
  3
*A181
350
635C
  3
*A182
350
487D
  3
*A183
350
4913
  3
*A184
350
493C
  3
*A185
350
1B5D
  3
*A186
350
63BB
  3
*A187
350
637A
  3
*A188
350
6261
  3
*A189
350
49CF
  3
*A19
350
4A02
  3
*A190
350
6262
  3
*A191
350
1C02
  3
*A192
350
49C3
  3
*A193
350
6394
  3
*A194
350
6245
  3
*A195
350
1BB1
  3
*A196
350
48E8
  3
*A197
350
62A6
  3
*A198
350
37A3
  3
*A199
350
49AA
  3
*A2
350
62D4
  3
*A20
350
1BEA
  3
*A200
350
63BC
  3
*A201
350
62AF
  3
*A202
350
48E1
  3
*A203
350
6311
  3
*A204
350
49EF
  3
*A205
350
1B3B
  3
*A206
350
6369
  3
*A207
350
1C53
  3
*A208
350
499A
  3
*A209
350
4874
  3
*A21
350
1C5D
  3
*A210
350
1C39
  3
*A211
350
4896
  3
*A212
350
481F
  3
*A213
350
1459
  3
*A214
350
49F8
  3
*A215
350
4974
  3
*A216
350
48C6
  3
*A217
350
4895
  3
*A218
350
6322
  3
*A219
350
497E
  3
*A22
350
631D
  3
*A220
350
1AD0
  3
*A221
350
639E
  3
*A222
350
6220
  3
*A223
350
63E1
  3
*A224
350
6300
  3
*A225
350
48B4
  3
*A226
350
4A17
  3
*A227
350
62D8
  3
*A228
350
1B92
  3
*A229
350
1B2A
  3
*A23
350
1C25
  3
*A230
350
4991
  3
*A231
350
48D2
  3
*A232
350
1C15
  3
*A233
350
1C58
  3
*A234
350
49BD
  3
*A235
350
1B8B
  3
*A236
350
1C1B
  3
*A237
350
634C
  3
*A238
350
37C1
  3
*A239
350
495E
  3
*A24
350
1B77
  3
*A240
350
1C20
  3
*A241
350
1C3A
  3
*A242
350
48C8
  3
*A243
350
49E8
  3
*A244
350
37A6
  3
*A245
350
635A
  3
*A246
350
1BD4
  3
*A247
350
62A0
  3
*A248
350
4997
  3
*A249
350
1BEF
  3
*A25
350
63CF
  3
*A250
350
6317
  3
*A251
350
1C47
  3
*A252
350
1C21
  3
*A253
350
1AEE
  3
*A254
350
62B2
  3
*A255
350
6248
  3
*A256
350
1AED
  3
*A257
350
497F
  3
*A258
350
1C48
  3
*A259
350
1BD3
  3
*A26
350
49E3
  3
*A260
350
6291
  3
*A261
350
49F1
  3
*A262
350
48BB
  3
*A263
350
1C37
  3
*A264
350
1C44
  3
*A265
350
633C
  3
*A266
350
49F6
  3
*A267
350
62CA
  3
*A268
350
496F
  3
*A269
350
62AA
  3
*A27
350
6337
  3
*A270
350
49D3
  3
*A271
350
4955
  3
*A272
350
37BC
  3
*A273
350
1BE9
  3
*A274
350
49C7
  3
*A275
350
48AC
  3
*A276
350
6327
  3
*A277
350
4973
  3
*A278
350
1B4A
  3
*A279
350
1B3E
  3
*A28
350
1B50
  3
*A280
350
1C08
  3
*A281
350
62F1
  3
*A282
350
1BBA
  3
*A283
350
489D
  3
*A284
350
484C
  3
*A285
350
1462
  3
*A286
350
1B13
  3
*A287
350
62C2
  3
*A288
350
1C46
  3
*A289
350
63AC
  3
*A29
350
48F8
  3
*A290
350
62F5
  3
*A291
350
633A
  3
*A292
350
628F
  3
*A293
350
1BF9
  3
*A294
350
630A
  3
*A295
350
1466
  3
*A296
350
1B69
  3
*A297
350
48F2
  3
*A298
350
49DD
  3
*A299
350
4894
  3
*A3
350
1BAE
  3
*A30
350
4A04
  3
*A300
350
1B75
  3
*A301
350
48E6
  3
*A302
350
1C2B
  3
*A303
350
1C27
  3
*A304
350
629C
  3
*A305
350
1B7B
  3
*A306
350
4937
  3
*A307
350
1458
  3
*A308
350
1BC4
  3
*A309
350
63D2
  3
*A31
350
636A
  3
*A310
350
1C4D
  3
*A311
350
48F5
  3
*A312
350
4813
  3
*A313
350
63B6
  3
*A314
350
49EB
  3
*A315
350
486C
  3
*A316
350
1457
  3
*A317
350
37C0
  3
*A318
350
1BCC
  3
*A319
350
4A03
  3
*A32
350
6346
  3
*A320
350
6242
  3
*A321
350
48B7
  3
*A322
350
497D
  3
*A323
350
4912
  3
*A324
350
48FF
  3
*A325
350
630E
  3
*A326
350
6370
  3
*A327
350
1B7E
  3
*A328
350
1C56
  3
*A329
350
622D
  3
*A33
350
6347
  3
*A330
350
4988
  3
*A331
350
62BE
  3
*A332
350
6241
  3
*A333
350
48FC
  3
*A334
350
4958
  3
*A335
350
63EA
  3
*A336
350
1BDF
  3
*A337
350
6307
  3
*A338
350
1B19
  3
*A339
350
4824
  3
*A34
350
4A0C
  3
*A340
350
63DD
  3
*A341
350
489E
  3
*A342
350
49C9
  3
*A343
350
499B
  3
*A344
350
37A5
  3
*A345
350
6236
  3
*A346
350
6264
  3
*A347
350
1B70
  3
*A348
350
37B5
  3
*A349
350
6282
  3
*A35
350
640C
  3
*A350
350
63C2
  3
*A351
350
4952
  3
*A352
350
49B1
  3
*A353
350
48BD
  3
*A354
350
49A5
  3
*A355
350
1BD1
  3
*A356
350
1B99
  3
*A357
350
4993
  3
*A358
350
4948
  3
*A359
350
63FC
  3
*A36
350
622C
  3
*A360
350
4898
  3
*A361
350
62F9
  3
*A362
350
4981
  3
*A363
350
4962
  3
*A364
350
4931
  3
*A365
350
1B22
  3
*A366
350
4932
  3
*A367
350
1C23
  3
*A368
350
1BF6
  3
*A369
350
63A8
  3
*A37
350
49C4
  3
*A370
350
63A5
  3
*A371
350
4833
  3
*A372
350
6333
  3
*A373
350
379B
  3
*A374
350
62A5
  3
*A375
350
6227
  3
*A376
350
1B79
  3
*A377
350
4880
  3
*A378
350
1AE0
  3
*A379
350
1B8C
  3
*A38
350
4887
  3
*A380
350
49AB
  3
*A381
350
1B72
  3
*A382
350
621A
  3
*A383
350
1C28
  3
*A384
350
1BDE
  3
*A385
350
48EC
  3
*A386
350
638A
  3
*A387
350
4890
  3
*A388
350
6309
  3
*A389
350
1BFB
  3
*A39
350
62B0
  3
*A390
350
4864
  3
*A391
350
497B
  3
*A392
350
62D3
  3
*A393
350
6233
  3
*A394
350
63BA
  3
*A395
350
1BB7
  3
*A396
350
1C01
  3
*A397
350
62AE
  3
*A398
350
48E0
  3
*A399
350
633E
  3
*A4
350
4945
  3
*A40
350
48FA
  3
*A400
350
63D9
  3
*A401
350
6424
  3
*A402
350
492D
  3
*A403
350
48B5
  3
*A404
350
4964
  3
*A405
350
6398
  3
*A406
350
4884
  3
*A407
350
1B41
  3
*A408
350
1BB2
  3
*A409
350
49CB
  3
*A41
350
49F5
  3
*A410
350
145B
  3
*A411
350
1AE5
  3
*A412
350
4950
  3
*A413
350
1B5F
  3
*A414
350
6308
  3
*A415
350
4845
  3
*A416
350
49AD
  3
*A417
350
1C05
  3
*A418
350
1C4E
  3
*A419
350
49B9
  3
*A42
350
6302
  3
*A420
350
63E3
  3
*A421
350
1BF3
  3
*A422
350
1C35
  3
*A423
350
4946
  3
*A424
350
62C3
  3
*A425
350
6219
  3
*A426
350
63F7
  3
*A427
350
48A5
  3
*A428
350
631E
  3
*A429
350
49AE
  3
*A43
350
62F7
  3
*A430
350
4A01
  3
*A431
350
4847
  3
*A432
350
37A9
  3
*A433
350
6395
  3
*A434
350
1B24
  3
*A435
350
49EA
  3
*A436
350
497C
  3
*A437
350
63B7
  3
*A438
350
62C1
  3
*A439
350
63CA
  3
*A44
350
1C1A
  3
*A440
350
1B12
  3
*A441
350
37B7
  3
*A442
350
63D1
  3
*A443
350
1C22
  3
*A444
350
638C
  3
*A445
350
6362
  3
*A446
350
62C0
  3
*A447
350
1C3F
  3
*A448
350
1B07
  3
*A449
350
6292
  3
*A45
350
63DE
  3
*A450
350
636B
  3
*A451
350
1BD5
  3
*A452
350
1B51
  3
*A453
350
4967
  3
*A454
350
482C
  3
*A455
350
634D
  3
*A456
350
49E4
  3
*A457
350
49BC
  3
*A458
350
49A9
  3
*A459
350
6359
  3
*A46
350
1B6C
  3
*A460
350
492A
  3
*A461
350
4926
  3
*A462
350
1ACF
  3
*A463
350
1B7F
  3
*A464
350
4A18
  3
*A465
350
1B09
  3
*A466
350
634E
  3
*A467
350
4872
  3
*A468
350
6404
  3
*A469
350
1B6A
  3
*A47
350
1469
  3
*A470
350
63D4
  3
*A471
350
1B60
  3
*A472
350
63FA
  3
*A473
350
63F8
  3
*A474
350
1B8D
  3
*A475
350
6357
  3
*A476
350
49B2
  3
*A477
350
1B03
  3
*A478
350
6224
  3
*A479
350
1C24
  3
*A48
350
1B6F
  3
*A480
350
1C07
  3
*A481
350
6417
  3
*A482
350
4975
  3
*A483
350
1AEF
  3
*A484
350
1B53
  3
*A485
350
63FE
  3
*A486
350
486F
  3
*A487
350
1BBE
  3
*A488
350
62ED
  3
*A489
350
1BC0
  3
*A49
350
1BB5
  3
*A490
350
62B9
  3
*A491
350
49E6
  3
*A492
350
632B
  3
*A493
350
6406
  3
*A494
350
489B
  3
*A495
350
6240
  3
*A496
350
482E
  3
*A497
350
48E4
  3
*A498
350
1B98
  3
*A499
350
4811
  3
*A5
350
1B94
  3
*A50
350
63B5
  3
*A500
350
1C18
  3
*A501
350
37AD
  3
*A502
350
623F
  3
*A503
350
49D2
  3
*A504
350
4903
  3
*A505
350
63FF
  3
*A506
350
63CB
  3
*A507
350
1BD8
  3
*A508
350
6393
  3
*A509
350
6383
  3
*A51
350
62DF
  3
*A510
350
63E5
  3
*A511
350
639D
  3
*A512
350
6277
  3
*A513
350
1BD6
  3
*A514
350
1BB8
  3
*A515
350
489F
  3
*A516
350
4817
  3
*A517
350
49CA
  3
*A518
350
1B58
  3
*A519
350
62EE
  3
*A52
350
6294
  3
*A520
350
63E7
  3
*A521
350
48D3
  3
*A522
350
4905
  3
*A523
350
6415
  3
*A524
350
49CE
  3
*A525
350
1C1C
  3
*A526
350
48DC
  3
*A527
350
4871
  3
*A528
350
379A
  3
*A529
350
49FA
  3
*A53
350
62CD
  3
*A530
350
37AC
  3
*A531
350
49A6
  3
*A532
350
636F
  3
*A533
350
1B7D
  3
*A534
350
4882
  3
*A535
350
637C
  3
*A536
350
4957
  3
*A537
350
1B52
  3
*A538
350
49E2
  3
*A539
350
484D
  3
*A54
350
4A15
  3
*A540
350
49B7
  3
*A541
350
49BA
  3
*A542
350
1BCD
  3
*A543
350
6223
  3
*A544
350
4A08
  3
*A545
350
1BEC
  3
*A546
350
488B
  3
*A547
350
1ACD
  3
*A548
350
4999
  3
*A549
350
1465
  3
*A55
350
628C
  3
*A550
350
48DA
  3
*A551
350
629A
  3
*A552
350
1B45
  3
*A553
350
6222
  3
*A554
350
6218
  3
*A555
350
4915
  3
*A556
350
491A
  3
*A557
350
48FE
  3
*A558
350
1C29
  3
*A559
350
1BF8
  3
*A56
350
49B3
  3
*A560
350
629F
  3
*A561
350
624F
  3
*A562
350
1B1A
  3
*A563
350
1AF2
  3
*A564
350
48B2
  3
*A565
350
37AE
  3
*A566
350
63D7
  3
*A567
350
6216
  3
*A568
350
1B37
  3
*A569
350
4986
  3
*A57
350
62AC
  3
*A570
350
1B54
  3
*A571
350
1BEE
  3
*A572
350
4821
  3
*A573
350
37A1
  3
*A574
350
1B80
  3
*A575
350
6378
  3
*A576
350
1B34
  3
*A577
350
1B8E
  3
*A578
350
1B9F
  3
*A579
350
63D3
  3
*A58
350
1AFA
  3
*A580
350
1B49
  3
*A581
350
1B9D
  3
*A582
350
63EC
  3
*A583
350
4893
  3
*A584
350
63BF
  3
*A585
350
6364
  3
*A586
350
62E0
  3
*A587
350
6348
  3
*A588
350
623D
  3
*A589
350
627C
  3
*A59
350
48A9
  3
*A590
350
4839
  3
*A591
350
1B36
  3
*A592
350
62A9
  3
*A593
350
6313
  3
*A594
350
1BEB
  3
*A595
350
494C
  3
*A596
350
1454
  3
*A597
350
62BF
  3
*A598
350
4830
  3
*A599
350
63C7
  3
*A6
350
49B5
  3
*A60
350
496A
  3
*A600
350
1B28
  3
*A601
350
4944
  3
*A602
350
6263
  3
*A603
350
1B65
  3
*A604
350
1BD7
  3
*A605
350
4815
  3
*A606
350
49FF
  3
*A607
350
49F3
  3
*A608
350
62F3
  3
*A609
350
1AF6
  3
*A61
350
49D4
  3
*A610
350
1C0D
  3
*A611
350
480C
  3
*A612
350
484E
  3
*A613
350
49E5
  3
*A614
350
4825
  3
*A615
350
1C10
  3
*A616
350
4998
  3
*A617
350
1BDC
  3
*A618
350
37B4
  3
*A619
350
1B57
  3
*A62
350
4891
  3
*A620
350
4A09
  3
*A621
350
4970
  3
*A622
350
1C3E
  3
*A623
350
1C4F
  3
*A624
350
1B87
  3
*A625
350
62FB
  3
*A626
350
627E
  3
*A627
350
480B
  3
*A628
350
6237
  3
*A629
350
1C1F
  3
*A63
350
4A06
  3
*A630
350
6320
  3
*A631
350
631F
  3
*A632
350
379C
  3
*A633
350
1B46
  3
*A634
350
37A0
  3
*A635
350
1C04
  3
*A636
350
1BE5
  3
*A637
350
63AB
  3
*A638
350
625A
  3
*A639
350
49C5
  3
*A64
350
37B3
  3
*A640
350
1B6B
  3
*A641
350
495F
  3
*A642
350
1AFB
  3
*A643
350
1ADC
  3
*A644
350
1B97
  3
*A645
350
624B
  3
*A646
350
4A19
  3
*A647
350
1B85
  3
*A648
350
1ADE
  3
*A649
350
493A
  3
*A65
350
483D
  3
*A650
350
4818
  3
*A651
350
63A6
  3
*A652
350
4910
  3
*A653
350
6389
  3
*A654
350
145C
  3
*A655
350
1B44
  3
*A656
350
490E
  3
*A657
350
1C40
  3
*A658
350
1C33
  3
*A659
350
1C0F
  3
*A66
350
37B2
  3
*A660
350
1B42
  3
*A661
350
1B23
  3
*A662
350
635D
  3
*A663
350
48CD
  3
*A664
350
6358
  3
*A665
350
1C2C
  3
*A666
350
49BF
  3
*A667
350
1BC3
  3
*A668
350
4838
  3
*A669
350
1B17
  3
*A67
350
1AD8
  3
*A670
350
1B71
  3
*A671
350
63B0
  3
*A672
350
145D
  3
*A673
350
62E7
  3
*A674
350
4820
  3
*A675
350
638E
  3
*A676
350
1C31
  3
*A677
350
6416
  3
*A678
350
62D6
  3
*A679
350
640E
  3
*A68
350
37AB
  3
*A680
350
1B5A
  3
*A681
350
631B
  3
*A682
350
48AF
  3
*A683
350
48F7
  3
*A684
350
1B40
  3
*A685
350
1B66
  3
*A686
350
1C2E
  3
*A687
350
4885
  3
*A688
350
1B1C
  3
*A689
350
62D5
  3
*A69
350
63E2
  3
*A690
350
6344
  3
*A691
350
486A
  3
*A692
350
1B3F
  3
*A693
350
49D6
  3
*A694
350
628B
  3
*A695
350
494E
  3
*A696
350
6312
  3
*A697
350
49A8
  3
*A698
350
48C7
  3
*A699
350
1BAC
  3
*A7
350
1BFE
  3
*A70
350
495C
  3
*A700
350
493B
  3
*A701
350
4A13
  3
*A702
350
62A1
  3
*A703
350
1B11
  3
*A704
350
6382
  3
*A705
350
62A3
  3
*A706
350
633F
  3
*A707
350
1464
  3
*A708
350
48EE
  3
*A709
350
4877
  3
*A71
350
62C4
  3
*A710
350
6407
  3
*A711
350
1BD2
  3
*A712
350
49D0
  3
*A713
350
1B61
  3
*A714
350
63B8
  3
*A715
350
48DE
  3
*A716
350
634B
  3
*A717
350
62D9
  3
*A718
350
6310
  3
*A719
350
492F
  3
*A72
350
495D
  3
*A720
350
145F
  3
*A721
350
63AA
  3
*A722
350
48E2
  3
*A723
350
48CA
  3
*A724
350
48A1
  3
*A725
350
499F
  3
*A726
350
6388
  3
*A727
350
62A8
  3
*A728
350
4860
  3
*A729
350
1BF1
  3
*A73
350
4834
  3
*A730
350
1468
  3
*A731
350
62B6
  3
*A732
350
4828
  3
*A733
350
4938
  3
*A734
350
4940
  3
*A735
350
1BFD
  3
*A736
350
48D8
  3
*A737
350
63F1
  3
*A738
350
490A
  3
*A739
350
48ED
  3
*A74
350
6365
  3
*A740
350
1B15
  3
*A741
350
62BD
  3
*A742
350
1C2F
  3
*A743
350
1B7C
  3
*A744
350
3798
  3
*A745
350
1AE3
  3
*A746
350
636C
  3
*A747
350
37B1
  3
*A748
350
4889
  3
*A749
350
4943
  3
*A75
350
488D
  3
*A750
350
63C4
  3
*A751
350
1B33
  3
*A752
350
629E
  3
*A753
350
623C
  3
*A754
350
484B
  3
*A755
350
1B76
  3
*A756
350
1BA1
  3
*A757
350
1B63
  3
*A758
350
63DB
  3
*A759
350
4816
  3
*A76
350
635F
  3
*A760
350
6281
  3
*A761
350
4851
  3
*A762
350
62E2
  3
*A763
350
1AE4
  3
*A764
350
628D
  3
*A765
350
641E
  3
*A766
350
639B
  3
*A767
350
6259
  3
*A768
350
62BC
  3
*A769
350
4985
  3
*A77
350
48B1
  3
*A770
350
481C
  3
*A771
350
62DC
  3
*A772
350
63B4
  3
*A773
350
495A
  3
*A774
350
48F3
  3
*A775
350
622E
  3
*A776
350
1B90
  3
*A777
350
4A0A
  3
*A778
350
632A
  3
*A779
350
1C06
  3
*A78
350
1B1D
  3
*A780
350
62EB
  3
*A781
350
1B21
  3
*A782
350
48B0
  3
*A783
350
1BA4
  3
*A784
350
640F
  3
*A785
350
62FA
  3
*A786
350
6366
  3
*A787
350
1C0B
  3
*A788
350
49A3
  3
*A789
350
1B0F
  3
*A79
350
1C5A
  3
*A790
350
1ADB
  3
*A791
350
494F
  3
*A792
350
6235
  3
*A793
350
379D
  3
*A794
350
48FD
  3
*A795
350
1B9B
  3
*A796
350
4906
  3
*A797
350
6380
  3
*A798
350
49A4
  3
*A799
350
486D
  3
*A8
350
63EF
  3
*A80
350
63B2
  3
*A800
350
482A
  3
*A801
350
4835
  3
*A802
350
1C11
  3
*A803
350
483B
  3
*A804
350
6385
  3
*A805
350
4965
  3
*A806
350
4904
  3
*A807
350
1AEA
  3
*A808
350
1C0A
  3
*A809
350
1AD3
  3
*A81
350
496B
  3
*A810
350
6296
  3
*A811
350
48CF
  3
*A812
350
6257
  3
*A813
350
1ACB
  3
*A814
350
1B05
  3
*A815
350
637D
  3
*A816
350
1AFC
  3
*A817
350
48B6
  3
*A818
350
498E
  3
*A819
350
4876
  3
*A82
350
1B82
  3
*A820
350
62FC
  3
*A821
350
48C0
  3
*A822
350
484F
  3
*A823
350
4976
  3
*A824
350
1BA0
  3
*A825
350
63A0
  3
*A826
350
1BA9
  3
*A827
350
6271
  3
*A828
350
48A6
  3
*A829
350
6411
  3
*A83
350
1BA2
  3
*A830
350
6374
  3
*A831
350
1C55
  3
*A832
350
1B81
  3
*A833
350
498B
  3
*A834
350
627A
  3
*A835
350
1B29
  3
*A836
350
48FB
  3
*A837
350
63A7
  3
*A838
350
4959
  3
*A839
350
4854
  3
*A84
350
48A2
  3
*A840
350
1AFE
  3
*A841
350
6265
  3
*A842
350
37C3
  3
*A843
350
480D
  3
*A844
350
49C6
  3
*A845
350
6254
  3
*A846
350
1C5F
  3
*A847
350
1BC5
  3
*A848
350
1455
  3
*A849
350
6239
  3
*A85
350
1B0A
  3
*A850
350
48CE
  3
*A851
350
6345
  3
*A852
350
6287
  3
*A853
350
63F3
  3
*A854
350
63E0
  3
*A855
350
37A2
  3
*A856
350
1B32
  3
*A857
350
6367
  3
*A858
350
62E4
  3
*A859
350
494B
  3
*A86
350
6229
  3
*A860
350
49D9
  3
*A861
350
1C49
  3
*A862
350
1B30
  3
*A863
350
49DF
  3
*A864
350
629D
  3
*A865
350
6419
  3
*A866
350
49F7
  3
*A867
350
641C
  3
*A868
350
6355
  3
*A869
350
63C0
  3
*A87
350
1C59
  3
*A870
350
63CC
  3
*A871
350
1C32
  3
*A872
350
62DB
  3
*A873
350
4826
  3
*A874
350
6305
  3
*A875
350
6293
  3
*A876
350
1AE7
  3
*A877
350
6426
  3
*A878
350
6410
  3
*A879
350
1B4E
  3
*A88
350
1B88
  3
*A880
350
1C16
  3
*A881
350
48D7
  3
*A882
350
491E
  3
*A883
350
1C26
  3
*A884
350
1BE7
  3
*A885
350
6376
  3
*A886
350
49F9
  3
*A887
350
37B8
  3
*A888
350
1AF9
  3
*A889
350
4994
  3
*A89
350
625B
  3
*A890
350
1BA7
  3
*A891
350
1B67
  3
*A892
350
37AF
  3
*A893
350
1AE9
  3
*A894
350
4941
  3
*A895
350
624A
  3
*A896
350
1B31
  3
*A897
350
6336
  3
*A898
350
1B4D
  3
*A899
350
1AF8
  3
*A9
350
1BF0
  3
*A90
350
1B04
  3
*A900
350
63DF
  3
*A901
350
63D8
  3
*A902
350
6251
  3
*A903
350
482F
  3
*A904
350
1B2C
  3
*A905
350
488E
  3
*A906
350
1BC6
  3
*A907
350
1C2A
  3
*A908
350
1B96
  3
*A909
350
49A7
  3
*A91
350
487A
  3
*A910
350
489A
  3
*A911
350
6246
  3
*A912
350
496D
  3
*A913
350
62DA
  3
*A914
350
499E
  3
*A915
350
1C36
  3
*A916
350
640D
  3
*A917
350
1BAF
  3
*A918
350
6349
  3
*A919
350
48A7
  3
*A92
350
1B2B
  3
*A920
350
1C30
  3
*A921
350
1B2D
  3
*A922
350
49D1
  3
*A923
350
4969
  3
*A924
350
48EA
  3
*A925
350
493E
  3
*A926
350
4978
  3
*A927
350
49C2
  3
*A928
350
49F2
  3
*A929
350
62E8
  3
*A93
350
6232
  3
*A930
350
6225
  3
*A931
350
62D7
  3
*A932
350
62F0
  3
*A933
350
1B01
  3
*A934
350
1C38
  3
*A935
350
4939
  3
*A936
350
623E
  3
*A937
350
48DB
  3
*A938
350
6396
  3
*A939
350
63A4
  3
*A94
350
63E6
  3
*A940
350
49AF
  3
*A941
350
623A
  3
*A942
350
6403
  3
*A943
350
62B3
  3
*A944
350
4987
  3
*A945
350
1B9C
  3
*A946
350
1AF1
  3
*A947
350
6250
  3
*A948
350
6372
  3
*A949
350
6425
  3
*A95
350
487E
  3
*A950
350
4963
  3
*A951
350
4832
  3
*A952
350
6351
  3
*A953
350
6243
  3
*A954
350
48EF
  3
*A955
350
62D0
  3
*A956
350
1AE6
  3
*A957
350
6409
  3
*A958
350
48D5
  3
*A959
350
6422
  3
*A96
350
63A2
  3
*A960
350
49ED
  3
*A961
350
63FD
  3
*A962
350
628A
  3
*A963
350
4A00
  3
*A964
350
6258
  3
*A965
350
1BC8
  3
*A966
350
491D
  3
*A967
350
37BA
  3
*A968
350
1BE6
  3
*A969
350
4934
  3
*A97
350
4844
  3
*A970
350
4875
  3
*A971
350
626D
  3
*A972
350
4831
  3
*A973
350
630B
  3
*A974
350
6353
  3
*A975
350
62A7
  3
*A976
350
1B0D
  3
*A977
350
1B39
  3
*A978
350
1AD5
  3
*A979
350
489C
  3
*A98
350
1B35
  3
*A980
350
1AF7
  3
*A981
350
623B
  3
*A982
350
4843
  3
*A983
350
1B4C
  3
*A984
350
627F
  3
*A985
350
6252
  3
*A986
350
48C3
  3
*A987
350
1BFF
  3
*A988
350
63D0
  3
*A989
350
621E
  3
*A99
350
6402
  3
*A990
350
6371
  3
*A991
350
49CC
  3
*A992
350
63A1
  3
*A993
350
4A11
  3
*A994
350
62AB
  3
*A995
350
481A
  3
*A996
350
1BDB
  3
*A997
350
1B6D
  3
*A998
350
63F2
  3
*A999
350
4855
  0
DICTIONARY
  5
EDC7
102
{ACAD_REACTORS
330
1A
102
}
330
1A
100
AcDbDictionary
  0
DICTIONARY
  5
19
102
{ACAD_REACTORS
330
1A
102
}
330
1A
100
AcDbDictionary
  3
STANDARD
350
1D
  0
DICTIONARY
  5
EDC8
102
{ACAD_REACTORS
330
1A
102
}
330
1A
100
AcDbDictionary
  0
ACDBDICTIONARYWDFLT
  5
EDC5
102
{ACAD_REACTORS
330
1A
102
}
330
1A
100
AcDbDictionary
281
     1
  3
Normal
350
EDC6
100
AcDbDictionaryWithDefault
340
EDC6
  0
DICTIONARY
  5
1FE4F
102
{ACAD_REACTORS
330
1A
102
}
330
1A
100
AcDbDictionary
  3
CEPSNTYPE
350
1FE59
  3
DIMSTYLEDATA
350
1FE5D
  3
FINGERPRINTGUID
350
1FE5A
  3
HYPERLINKBASE
350
1FE52
  3
INSUNITS
350
1FE58
  3
LAYOUTDICT
350
1FE54
  3
LWETCUNION
350
1FE57
  3
PLOTSETDICT
350
1FE55
  3
PLOTSTYLNAMDICT
350
1FE56
  3
PSVPSCALE
350
1FE5C
  3
PUCSBASE
350
1FE60
  3
PUCSORGBACK
350
1FE66
  3
PUCSORGBOTTOM
350
1FE62
  3
PUCSORGFRONT
350
1FE65
  3
PUCSORGLEFT
350
1FE63
  3
PUCSORGRIGHT
350
1FE64
  3
PUCSORGTOP
350
1FE61
  3
PUCSORTHOREF
350
1FE5E
  3
PUCSORTHOVIEW
350
1FE5F
  3
STYLESHEET
350
1FE53
  3
TSTACKALIGN
350
1FE50
  3
TSTACKSIZE
350
1FE51
  3
UCSBASE
350
1FE69
  3
UCSORGBACK
350
1FE6F
  3
UCSORGBOTTOM
350
1FE6B
  3
UCSORGFRONT
350
1FE6E
  3
UCSORGLEFT
350
1FE6C
  3
UCSORGRIGHT
350
1FE6D
  3
UCSORGTOP
350
1FE6A
  3
UCSORTHOREF
350
1FE67
  3
UCSORTHOVIEW
350
1FE68
  3
VERSIONGUID
350
1FE5B
  0
DICTIONARY
  5
EDE7
102
{ACAD_REACTORS
330
1A
102
}
330
1A
100
AcDbDictionary
  3
DIMASSOC
350
EDE8
  0
DICTIONARY
  5
81A
102
{ACAD_REACTORS
330
1A
102
}
330
1A
100
AcDbDictionary
  0
XRECORD
  5
1FE71
102
{ACAD_REACTORS
330
1FE70
102
}
330
1FE70
100
AcDbXrecord
340
2
  0
XRECORD
  5
1FE73
102
{ACAD_REACTORS
330
1FE72
102
}
330
1FE72
100
AcDbXrecord
340
7
  0
GROUP
  5
63B1
102
{ACAD_REACTORS
330
18
102
}
330
18
100
AcDbGroup
300

 70
     3
 71
     0
  0
GROUP
  5
6405
102
{ACAD_REACTORS
330
18
102
}
330
18
100
AcDbGroup
300

 70
     3
 71
     0
  0
GROUP
  5
63D6
102
{ACAD_REACTORS
330
18
102
}
330
18
100
AcDbGroup
300

 70
     3
 71
     0
  0
GROUP
  5
1ADD
102
{ACAD_REACTORS
330
18
102
}
330
18
100
AcDbGroup
300

 70
     3
 71
     0
  0
GROUP
  5
1C12
102
{ACAD_REACTORS
330
18
102
}
330
18
100
AcDbGroup
300

 70
     3
 71
     0
  0
GROUP
  5
1C57
102
{ACAD_REACTORS
330
18
102
}
330
18
100
AcDbGroup
300

 70
     3
 71
     0
  0
GROUP
  5
484A
102
{ACAD_REACTORS
330
18
102
}
330
18
100
AcDbGroup
300

 70
     3
 71
     0
  0
GROUP
  5
494A
102
{ACAD_REACTORS
330
18
102
}
330
18
100
AcDbGroup
300

 70
     3
 71
     0
  0
GROUP
  5
4908
102
{ACAD_REACTORS
330
18
102
}
330
18
100
AcDbGroup
300

 70
     3
 71
     0
  0
GROUP
  5
6231
102
{ACAD_REACTORS
330
18
102
}
330
18
100
AcDbGroup
300

 70
     3
 71
     0
  0
GROUP
  5
4836
102
{ACAD_REACTORS
330
18
102
}
330
18
100
AcDbGroup
300

 70
     3
 71
     0
  0
GROUP
  5
4856
102
{ACAD_REACTORS
330
18
102
}
330
18
100
AcDbGroup
300

 70
     3
 71
     0
  0
GROUP
  5
48CB
102
{ACAD_REACTORS
330
18
102
}
330
18
100
AcDbGroup
300

 70
     3
 71
     0
  0
GROUP
  5
62A2
102
{ACAD_REACTORS
330
18
102
}
330
18
100
AcDbGroup
300

 70
     3
 71
     0
  0
GROUP
  5
483E
102
{ACAD_REACTORS
330
18
102
}
330
18
100
AcDbGroup
300

 70
     3
 71
     0
  0
GROUP
  5
4809
102
{ACAD_REACTORS
330
18
102
}
330
18
100
AcDbGroup
300

 70
     3
 71
     0
  0
GROUP
  5
1BD9
102
{ACAD_REACTORS
330
18
102
}
330
18
100
AcDbGroup
300

 70
     3
 71
     0
  0
GROUP
  5
62E5
102
{ACAD_REACTORS
330
18
102
}
330
18
100
AcDbGroup
300

 70
     3
 71
     0
  0
GROUP
  5
63F5
102
{ACAD_REACTORS
330
18
102
}
330
18
100
AcDbGroup
300

 70
     3
 71
     0
  0
GROUP
  5
62FF
102
{ACAD_REACTORS
330
18
102
}
330
18
100
AcDbGroup
300

 70
     3
 71
     0
  0
GROUP
  5
1AD6
102
{ACAD_REACTORS
330
18
102
}
330
18
100
AcDbGroup
300

 70
     3
 71
     0
  0
GROUP
  5
6420
102
{ACAD_REACTORS
330
18
102
}
330
18
100
AcDbGroup
300

 70
     3
 71
     0
  0
GROUP
  5
499D
102
{ACAD_REACTORS
330
18
102
}
330
18
100
AcDbGroup
300

 70
     3
 71
     0
  0
GROUP
  5
62B4
102
{ACAD_REACTORS
330
18
102
}
330
18
100
AcDbGroup
300

 70
     3
 71
     0
  0
GROUP
  5
6350
102
{ACAD_REACTORS
330
18
102
}
330
18
100
AcDbGroup
300

 70
     3
 71
     0
  0
GROUP
  5
49DA
102
{ACAD_REACTORS
330
18
102
}
330
18
100
AcDbGroup
300

 70
     3
 71
     0
  0
GROUP
  5
63BE
102
{ACAD_REACTORS
330
18
102
}
330
18
100
AcDbGroup
300

 70
     3
 71
     0
  0
GROUP
  5
1C5B
102
{ACAD_REACTORS
330
18
102
}
330
18
100
AcDbGroup
300

 70
     3
 71
     0
  0
GROUP
  5
6315
102
{ACAD_REACTORS
330
18
102
}
330
18
100
AcDbGroup
300

 70
     3
 71
     0
  0
GROUP
  5
4892
102
{ACAD_REACTORS
330
18
102
}
330
18
100
AcDbGroup
300

 70
     3
 71
     0
  0
GROUP
  5
630C
102
{ACAD_REACTORS
330
18
102
}
330
18
100
AcDbGroup
300

 70
     3
 71
     0
  0
GROUP
  5
6352
102
{ACAD_REACTORS
330
18
102
}
330
18
100
AcDbGroup
300

 70
     3
 71
     0
  0
GROUP
  5
4901
102
{ACAD_REACTORS
330
18
102
}
330
18
100
AcDbGroup
300

 70
     3
 71
     0
  0
GROUP
  5
1C60
102
{ACAD_REACTORS
330
18
102
}
330
18
100
AcDbGroup
300

 70
     3
 71
     0
  0
GROUP
  5
6413
102
{ACAD_REACTORS
330
18
102
}
330
18
100
AcDbGroup
300

 70
     3
 71
     0
  0
GROUP
  5
6400
102
{ACAD_REACTORS
330
18
102
}
330
18
100
AcDbGroup
300

 70
     3
 71
     0
  0
GROUP
  5
63C6
102
{ACAD_REACTORS
330
18
102
}
330
18
100
AcDbGroup
300

 70
     3
 71
     0
  0
GROUP
  5
1BA5
102
{ACAD_REACTORS
330
18
102
}
330
18
100
AcDbGroup
300

 70
     3
 71
     0
  0
GROUP
  5
4829
102
{ACAD_REACTORS
330
18
102
}
330
18
100
AcDbGroup
300

 70
     3
 71
     0
  0
GROUP
  5
48A3
102
{ACAD_REACTORS
330
18
102
}
330
18
100
AcDbGroup
300

 70
     3
 71
     0
  0
GROUP
  5
62EF
102
{ACAD_REACTORS
330
18
102
}
330
18
100
AcDbGroup
300

 70
     3
 71
     0
  0
GROUP
  5
6377
102
{ACAD_REACTORS
330
18
102
}
330
18
100
AcDbGroup
300

 70
     3
 71
     0
  0
GROUP
  5
4857
102
{ACAD_REACTORS
330
18
102
}
330
18
100
AcDbGroup
300

 70
     3
 71
     0
  0
GROUP
  5
6399
102
{ACAD_REACTORS
330
18
102
}
330
18
100
AcDbGroup
300

 70
     3
 71
     0
  0
GROUP
  5
625C
102
{ACAD_REACTORS
330
18
102
}
330
18
100
AcDbGroup
300

 70
     3
 71
     0
  0
GROUP
  5
1ACE
102
{ACAD_REACTORS
330
18
102
}
330
18
100
AcDbGroup
300

 70
     3
 71
     0
  0
GROUP
  5
1BA6
102
{ACAD_REACTORS
330
18
102
}
330
18
100
AcDbGroup
300

 70
     3
 71
     0
  0
GROUP
  5
1BB4
102
{ACAD_REACTORS
330
18
102
}
330
18
100
AcDbGroup
300

 70
     3
 71
     0
  0
GROUP
  5
1C03
102
{ACAD_REACTORS
330
18
102
}
330
18
100
AcDbGroup
300

 70
     3
 71
     0
  0
GROUP
  5
1C1D
102
{ACAD_REACTORS
330
18
102
}
330
18
100
AcDbGroup
300

 70
     3
 71
     0
  0
GROUP
  5
4995
102
{ACAD_REACTORS
330
18
102
}
330
18
100
AcDbGroup
300

 70
     3
 71
     0
  0
GROUP
  5
1C45
102
{ACAD_REACTORS
330
18
102
}
330
18
100
AcDbGroup
300

 70
     3
 71
     0
  0
GROUP
  5
49FC
102
{ACAD_REACTORS
330
18
102
}
330
18
100
AcDbGroup
300

 70
     3
 71
     0
  0
GROUP
  5
6283
102
{ACAD_REACTORS
330
18
102
}
330
18
100
AcDbGroup
300

 70
     3
 71
     0
  0
GROUP
  5
6284
102
{ACAD_REACTORS
330
18
102
}
330
18
100
AcDbGroup
300

 70
     3
 71
     0
  0
GROUP
  5
6341
102
{ACAD_REACTORS
330
18
102
}
330
18
100
AcDbGroup
300

 70
     3
 71
     0
  0
GROUP
  5
1C61
102
{ACAD_REACTORS
330
18
102
}
330
18
100
AcDbGroup
300

 70
     3
 71
     0
  0
GROUP
  5
1BA8
102
{ACAD_REACTORS
330
18
102
}
330
18
100
AcDbGroup
300

 70
     3
 71
     0
  0
GROUP
  5
63F0
102
{ACAD_REACTORS
330
18
102
}
330
18
100
AcDbGroup
300

 70
     3
 71
     0
  0
GROUP
  5
482D
102
{ACAD_REACTORS
330
18
102
}
330
18
100
AcDbGroup
300

 70
     3
 71
     0
  0
GROUP
  5
1BCF
102
{ACAD_REACTORS
330
18
102
}
330
18
100
AcDbGroup
300

 70
     3
 71
     0
  0
GROUP
  5
49D8
102
{ACAD_REACTORS
330
18
102
}
330
18
100
AcDbGroup
300

 70
     3
 71
     0
  0
GROUP
  5
4990
102
{ACAD_REACTORS
330
18
102
}
330
18
100
AcDbGroup
300

 70
     3
 71
     0
  0
GROUP
  5
629B
102
{ACAD_REACTORS
330
18
102
}
330
18
100
AcDbGroup
300

 70
     3
 71
     0
  0
GROUP
  5
1C0E
102
{ACAD_REACTORS
330
18
102
}
330
18
100
AcDbGroup
300

 70
     3
 71
     0
  0
GROUP
  5
1460
102
{ACAD_REACTORS
330
18
102
}
330
18
100
AcDbGroup
300

 70
     3
 71
     0
  0
GROUP
  5
6381
102
{ACAD_REACTORS
330
18
102
}
330
18
100
AcDbGroup
300

 70
     3
 71
     0
  0
GROUP
  5
37B9
102
{ACAD_REACTORS
330
18
102
}
330
18
100
AcDbGroup
300

 70
     3
 71
     0
  0
GROUP
  5
4858
102
{ACAD_REACTORS
330
18
102
}
330
18
100
AcDbGroup
300

 70
     3
 71
     0
  0
GROUP
  5
1C51
102
{ACAD_REACTORS
330
18
102
}
330
18
100
AcDbGroup
300

 70
     3
 71
     0
  0
GROUP
  5
1AD1
102
{ACAD_REACTORS
330
18
102
}
330
18
100
AcDbGroup
300

 70
     3
 71
     0
  0
GROUP
  5
48C9
102
{ACAD_REACTORS
330
18
102
}
330
18
100
AcDbGroup
300

 70
     3
 71
     0
  0
GROUP
  5
1AF3
102
{ACAD_REACTORS
330
18
102
}
330
18
100
AcDbGroup
300

 70
     3
 71
     0
  0
GROUP
  5
4886
102
{ACAD_REACTORS
330
18
102
}
330
18
100
AcDbGroup
300

 70
     3
 71
     0
  0
GROUP
  5
635B
102
{ACAD_REACTORS
330
18
102
}
330
18
100
AcDbGroup
300

 70
     3
 71
     0
  0
GROUP
  5
1BBD
102
{ACAD_REACTORS
330
18
102
}
330
18
100
AcDbGroup
300

 70
     3
 71
     0
  0
GROUP
  5
1B16
102
{ACAD_REACTORS
330
18
102
}
330
18
100
AcDbGroup
300

 70
     3
 71
     0
  0
GROUP
  5
1B62
102
{ACAD_REACTORS
330
18
102
}
330
18
100
AcDbGroup
300

 70
     3
 71
     0
  0
GROUP
  5
494D
102
{ACAD_REACTORS
330
18
102
}
330
18
100
AcDbGroup
300

 70
     3
 71
     0
  0
GROUP
  5
1AFD
102
{ACAD_REACTORS
330
18
102
}
330
18
100
AcDbGroup
300

 70
     3
 71
     0
  0
GROUP
  5
63B3
102
{ACAD_REACTORS
330
18
102
}
330
18
100
AcDbGroup
300

 70
     3
 71
     0
  0
GROUP
  5
37C2
102
{ACAD_REACTORS
330
18
102
}
330
18
100
AcDbGroup
300

 70
     3
 71
     0
  0
GROUP
  5
1AEB
102
{ACAD_REACTORS
330
18
102
}
330
18
100
AcDbGroup
300

 70
     3
 71
     0
  0
GROUP
  5
49D5
102
{ACAD_REACTORS
330
18
102
}
330
18
100
AcDbGroup
300

 70
     3
 71
     0
  0
GROUP
  5
6298
102
{ACAD_REACTORS
330
18
102
}
330
18
100
AcDbGroup
300

 70
     3
 71
     0
  0
GROUP
  5
4A0F
102
{ACAD_REACTORS
330
18
102
}
330
18
100
AcDbGroup
300

 70
     3
 71
     0
  0
GROUP
  5
1BC2
102
{ACAD_REACTORS
330
18
102
}
330
18
100
AcDbGroup
300

 70
     3
 71
     0
  0
GROUP
  5
6392
102
{ACAD_REACTORS
330
18
102
}
330
18
100
AcDbGroup
300

 70
     3
 71
     0
  0
GROUP
  5
1BED
102
{ACAD_REACTORS
330
18
102
}
330
18
100
AcDbGroup
300

 70
     3
 71
     0
  0
GROUP
  5
1BF5
102
{ACAD_REACTORS
330
18
102
}
330
18
100
AcDbGroup
300

 70
     3
 71
     0
  0
GROUP
  5
62E9
102
{ACAD_REACTORS
330
18
102
}
330
18
100
AcDbGroup
300

 70
     3
 71
     0
  0
GROUP
  5
48B3
102
{ACAD_REACTORS
330
18
102
}
330
18
100
AcDbGroup
300

 70
     3
 71
     0
  0
GROUP
  5
1C0C
102
{ACAD_REACTORS
330
18
102
}
330
18
100
AcDbGroup
300

 70
     3
 71
     0
  0
GROUP
  5
1B6E
102
{ACAD_REACTORS
330
18
102
}
330
18
100
AcDbGroup
300

 70
     3
 71
     0
  0
GROUP
  5
1BE4
102
{ACAD_REACTORS
330
18
102
}
330
18
100
AcDbGroup
300

 70
     3
 71
     0
  0
GROUP
  5
62C8
102
{ACAD_REACTORS
330
18
102
}
330
18
100
AcDbGroup
300

 70
     3
 71
     0
  0
GROUP
  5
638B
102
{ACAD_REACTORS
330
18
102
}
330
18
100
AcDbGroup
300

 70
     3
 71
     0
  0
GROUP
  5
48E3
102
{ACAD_REACTORS
330
18
102
}
330
18
100
AcDbGroup
300

 70
     3
 71
     0
  0
GROUP
  5
4929
102
{ACAD_REACTORS
330
18
102
}
330
18
100
AcDbGroup
300

 70
     3
 71
     0
  0
GROUP
  5
4909
102
{ACAD_REACTORS
330
18
102
}
330
18
100
AcDbGroup
300

 70
     3
 71
     0
  0
GROUP
  5
1BFC
102
{ACAD_REACTORS
330
18
102
}
330
18
100
AcDbGroup
300

 70
     3
 71
     0
  0
GROUP
  5
6316
102
{ACAD_REACTORS
330
18
102
}
330
18
100
AcDbGroup
300

 70
     3
 71
     0
  0
GROUP
  5
37BF
102
{ACAD_REACTORS
330
18
102
}
330
18
100
AcDbGroup
300

 70
     3
 71
     0
  0
GROUP
  5
1BBB
102
{ACAD_REACTORS
330
18
102
}
330
18
100
AcDbGroup
300

 70
     3
 71
     0
  0
GROUP
  5
6279
102
{ACAD_REACTORS
330
18
102
}
330
18
100
AcDbGroup
300

 70
     3
 71
     0
  0
GROUP
  5
6304
102
{ACAD_REACTORS
330
18
102
}
330
18
100
AcDbGroup
300

 70
     3
 71
     0
  0
GROUP
  5
49BE
102
{ACAD_REACTORS
330
18
102
}
330
18
100
AcDbGroup
300

 70
     3
 71
     0
  0
GROUP
  5
1BE1
102
{ACAD_REACTORS
330
18
102
}
330
18
100
AcDbGroup
300

 70
     3
 71
     0
  0
GROUP
  5
49F0
102
{ACAD_REACTORS
330
18
102
}
330
18
100
AcDbGroup
300

 70
     3
 71
     0
  0
GROUP
  5
1AEC
102
{ACAD_REACTORS
330
18
102
}
330
18
100
AcDbGroup
300

 70
     3
 71
     0
  0
GROUP
  5
498C
102
{ACAD_REACTORS
330
18
102
}
330
18
100
AcDbGroup
300

 70
     3
 71
     0
  0
GROUP
  5
1B0C
102
{ACAD_REACTORS
330
18
102
}
330
18
100
AcDbGroup
300

 70
     3
 71
     0
  0
GROUP
  5
1BB6
102
{ACAD_REACTORS
330
18
102
}
330
18
100
AcDbGroup
300

 70
     3
 71
     0
  0
GROUP
  5
487F
102
{ACAD_REACTORS
330
18
102
}
330
18
100
AcDbGroup
300

 70
     3
 71
     0
  0
GROUP
  5
48CC
102
{ACAD_REACTORS
330
18
102
}
330
18
100
AcDbGroup
300

 70
     3
 71
     0
  0
GROUP
  5
63DC
102
{ACAD_REACTORS
330
18
102
}
330
18
100
AcDbGroup
300

 70
     3
 71
     0
  0
GROUP
  5
1B2F
102
{ACAD_REACTORS
330
18
102
}
330
18
100
AcDbGroup
300

 70
     3
 71
     0
  0
GROUP
  5
488F
102
{ACAD_REACTORS
330
18
102
}
330
18
100
AcDbGroup
300

 70
     3
 71
     0
  0
GROUP
  5
493F
102
{ACAD_REACTORS
330
18
102
}
330
18
100
AcDbGroup
300

 70
     3
 71
     0
  0
GROUP
  5
625E
102
{ACAD_REACTORS
330
18
102
}
330
18
100
AcDbGroup
300

 70
     3
 71
     0
  0
GROUP
  5
4989
102
{ACAD_REACTORS
330
18
102
}
330
18
100
AcDbGroup
300

 70
     3
 71
     0
  0
GROUP
  5
4899
102
{ACAD_REACTORS
330
18
102
}
330
18
100
AcDbGroup
300

 70
     3
 71
     0
  0
GROUP
  5
1BBF
102
{ACAD_REACTORS
330
18
102
}
330
18
100
AcDbGroup
300

 70
     3
 71
     0
  0
GROUP
  5
63C9
102
{ACAD_REACTORS
330
18
102
}
330
18
100
AcDbGroup
300

 70
     3
 71
     0
  0
GROUP
  5
6375
102
{ACAD_REACTORS
330
18
102
}
330
18
100
AcDbGroup
300

 70
     3
 71
     0
  0
GROUP
  5
4911
102
{ACAD_REACTORS
330
18
102
}
330
18
100
AcDbGroup
300

 70
     3
 71
     0
  0
GROUP
  5
4842
102
{ACAD_REACTORS
330
18
102
}
330
18
100
AcDbGroup
300

 70
     3
 71
     0
  0
GROUP
  5
4968
102
{ACAD_REACTORS
330
18
102
}
330
18
100
AcDbGroup
300

 70
     3
 71
     0
  0
GROUP
  5
635C
102
{ACAD_REACTORS
330
18
102
}
330
18
100
AcDbGroup
300

 70
     3
 71
     0
  0
GROUP
  5
487D
102
{ACAD_REACTORS
330
18
102
}
330
18
100
AcDbGroup
300

 70
     3
 71
     0
  0
GROUP
  5
4913
102
{ACAD_REACTORS
330
18
102
}
330
18
100
AcDbGroup
300

 70
     3
 71
     0
  0
GROUP
  5
493C
102
{ACAD_REACTORS
330
18
102
}
330
18
100
AcDbGroup
300

 70
     3
 71
     0
  0
GROUP
  5
1B5D
102
{ACAD_REACTORS
330
18
102
}
330
18
100
AcDbGroup
300

 70
     3
 71
     0
  0
GROUP
  5
63BB
102
{ACAD_REACTORS
330
18
102
}
330
18
100
AcDbGroup
300

 70
     3
 71
     0
  0
GROUP
  5
637A
102
{ACAD_REACTORS
330
18
102
}
330
18
100
AcDbGroup
300

 70
     3
 71
     0
  0
GROUP
  5
6261
102
{ACAD_REACTORS
330
18
102
}
330
18
100
AcDbGroup
300

 70
     3
 71
     0
  0
GROUP
  5
49CF
102
{ACAD_REACTORS
330
18
102
}
330
18
100
AcDbGroup
300

 70
     3
 71
     0
  0
GROUP
  5
4A02
102
{ACAD_REACTORS
330
18
102
}
330
18
100
AcDbGroup
300

 70
     3
 71
     0
  0
GROUP
  5
6262
102
{ACAD_REACTORS
330
18
102
}
330
18
100
AcDbGroup
300

 70
     3
 71
     0
  0
GROUP
  5
1C02
102
{ACAD_REACTORS
330
18
102
}
330
18
100
AcDbGroup
300

 70
     3
 71
     0
  0
GROUP
  5
49C3
102
{ACAD_REACTORS
330
18
102
}
330
18
100
AcDbGroup
300

 70
     3
 71
     0
  0
GROUP
  5
6394
102
{ACAD_REACTORS
330
18
102
}
330
18
100
AcDbGroup
300

 70
     3
 71
     0
  0
GROUP
  5
6245
102
{ACAD_REACTORS
330
18
102
}
330
18
100
AcDbGroup
300

 70
     3
 71
     0
  0
GROUP
  5
1BB1
102
{ACAD_REACTORS
330
18
102
}
330
18
100
AcDbGroup
300

 70
     3
 71
     0
  0
GROUP
  5
48E8
102
{ACAD_REACTORS
330
18
102
}
330
18
100
AcDbGroup
300

 70
     3
 71
     0
  0
GROUP
  5
62A6
102
{ACAD_REACTORS
330
18
102
}
330
18
100
AcDbGroup
300

 70
     3
 71
     0
  0
GROUP
  5
37A3
102
{ACAD_REACTORS
330
18
102
}
330
18
100
AcDbGroup
300

 70
     3
 71
     0
  0
GROUP
  5
49AA
102
{ACAD_REACTORS
330
18
102
}
330
18
100
AcDbGroup
300

 70
     3
 71
     0
  0
GROUP
  5
62D4
102
{ACAD_REACTORS
330
18
102
}
330
18
100
AcDbGroup
300

 70
     3
 71
     1
  0
GROUP
  5
1BEA
102
{ACAD_REACTORS
330
18
102
}
330
18
100
AcDbGroup
300

 70
     3
 71
     0
  0
GROUP
  5
63BC
102
{ACAD_REACTORS
330
18
102
}
330
18
100
AcDbGroup
300

 70
     3
 71
     0
  0
GROUP
  5
62AF
102
{ACAD_REACTORS
330
18
102
}
330
18
100
AcDbGroup
300

 70
     3
 71
     0
  0
GROUP
  5
48E1
102
{ACAD_REACTORS
330
18
102
}
330
18
100
AcDbGroup
300

 70
     3
 71
     0
  0
GROUP
  5
6311
102
{ACAD_REACTORS
330
18
102
}
330
18
100
AcDbGroup
300

 70
     3
 71
     0
  0
GROUP
  5
49EF
102
{ACAD_REACTORS
330
18
102
}
330
18
100
AcDbGroup
300

 70
     3
 71
     0
  0
GROUP
  5
1B3B
102
{ACAD_REACTORS
330
18
102
}
330
18
100
AcDbGroup
300

 70
     3
 71
     0
  0
GROUP
  5
6369
102
{ACAD_REACTORS
330
18
102
}
330
18
100
AcDbGroup
300

 70
     3
 71
     0
  0
GROUP
  5
1C53
102
{ACAD_REACTORS
330
18
102
}
330
18
100
AcDbGroup
300

 70
     3
 71
     0
  0
GROUP
  5
499A
102
{ACAD_REACTORS
330
18
102
}
330
18
100
AcDbGroup
300

 70
     3
 71
     0
  0
GROUP
  5
4874
102
{ACAD_REACTORS
330
18
102
}
330
18
100
AcDbGroup
300

 70
     3
 71
     0
  0
GROUP
  5
1C5D
102
{ACAD_REACTORS
330
18
102
}
330
18
100
AcDbGroup
300

 70
     3
 71
     0
  0
GROUP
  5
1C39
102
{ACAD_REACTORS
330
18
102
}
330
18
100
AcDbGroup
300

 70
     3
 71
     0
  0
GROUP
  5
4896
102
{ACAD_REACTORS
330
18
102
}
330
18
100
AcDbGroup
300

 70
     3
 71
     0
  0
GROUP
  5
481F
102
{ACAD_REACTORS
330
18
102
}
330
18
100
AcDbGroup
300

 70
     3
 71
     0
  0
GROUP
  5
1459
102
{ACAD_REACTORS
330
18
102
}
330
18
100
AcDbGroup
300

 70
     3
 71
     0
  0
GROUP
  5
49F8
102
{ACAD_REACTORS
330
18
102
}
330
18
100
AcDbGroup
300

 70
     3
 71
     0
  0
GROUP
  5
4974
102
{ACAD_REACTORS
330
18
102
}
330
18
100
AcDbGroup
300

 70
     3
 71
     0
  0
GROUP
  5
48C6
102
{ACAD_REACTORS
330
18
102
}
330
18
100
AcDbGroup
300

 70
     3
 71
     1
  0
GROUP
  5
4895
102
{ACAD_REACTORS
330
18
102
}
330
18
100
AcDbGroup
300

 70
     3
 71
     0
  0
GROUP
  5
6322
102
{ACAD_REACTORS
330
18
102
}
330
18
100
AcDbGroup
300

 70
     3
 71
     0
  0
GROUP
  5
497E
102
{ACAD_REACTORS
330
18
102
}
330
18
100
AcDbGroup
300

 70
     3
 71
     0
  0
GROUP
  5
631D
102
{ACAD_REACTORS
330
18
102
}
330
18
100
AcDbGroup
300

 70
     3
 71
     0
  0
GROUP
  5
1AD0
102
{ACAD_REACTORS
330
18
102
}
330
18
100
AcDbGroup
300

 70
     3
 71
     0
  0
GROUP
  5
639E
102
{ACAD_REACTORS
330
18
102
}
330
18
100
AcDbGroup
300

 70
     3
 71
     0
  0
GROUP
  5
6220
102
{ACAD_REACTORS
330
18
102
}
330
18
100
AcDbGroup
300

 70
     3
 71
     0
  0
GROUP
  5
63E1
102
{ACAD_REACTORS
330
18
102
}
330
18
100
AcDbGroup
300

 70
     3
 71
     0
  0
GROUP
  5
6300
102
{ACAD_REACTORS
330
18
102
}
330
18
100
AcDbGroup
300

 70
     3
 71
     0
  0
GROUP
  5
48B4
102
{ACAD_REACTORS
330
18
102
}
330
18
100
AcDbGroup
300

 70
     3
 71
     0
  0
GROUP
  5
4A17
102
{ACAD_REACTORS
330
18
102
}
330
18
100
AcDbGroup
300

 70
     3
 71
     0
  0
GROUP
  5
62D8
102
{ACAD_REACTORS
330
18
102
}
330
18
100
AcDbGroup
300

 70
     3
 71
     0
  0
GROUP
  5
1B92
102
{ACAD_REACTORS
330
18
102
}
330
18
100
AcDbGroup
300

 70
     3
 71
     0
  0
GROUP
  5
1B2A
102
{ACAD_REACTORS
330
18
102
}
330
18
100
AcDbGroup
300

 70
     3
 71
     0
  0
GROUP
  5
1C25
102
{ACAD_REACTORS
330
18
102
}
330
18
100
AcDbGroup
300

 70
     3
 71
     0
  0
GROUP
  5
4991
102
{ACAD_REACTORS
330
18
102
}
330
18
100
AcDbGroup
300

 70
     3
 71
     0
  0
GROUP
  5
48D2
102
{ACAD_REACTORS
330
18
102
}
330
18
100
AcDbGroup
300

 70
     3
 71
     0
  0
GROUP
  5
1C15
102
{ACAD_REACTORS
330
18
102
}
330
18
100
AcDbGroup
300

 70
     3
 71
     0
  0
GROUP
  5
1C58
102
{ACAD_REACTORS
330
18
102
}
330
18
100
AcDbGroup
300

 70
     3
 71
     0
  0
GROUP
  5
49BD
102
{ACAD_REACTORS
330
18
102
}
330
18
100
AcDbGroup
300

 70
     3
 71
     0
  0
GROUP
  5
1B8B
102
{ACAD_REACTORS
330
18
102
}
330
18
100
AcDbGroup
300

 70
     3
 71
     0
  0
GROUP
  5
1C1B
102
{ACAD_REACTORS
330
18
102
}
330
18
100
AcDbGroup
300

 70
     3
 71
     0
  0
GROUP
  5
634C
102
{ACAD_REACTORS
330
18
102
}
330
18
100
AcDbGroup
300

 70
     3
 71
     0
  0
GROUP
  5
37C1
102
{ACAD_REACTORS
330
18
102
}
330
18
100
AcDbGroup
300

 70
     3
 71
     0
  0
GROUP
  5
495E
102
{ACAD_REACTORS
330
18
102
}
330
18
100
AcDbGroup
300

 70
     3
 71
     0
  0
GROUP
  5
1B77
102
{ACAD_REACTORS
330
18
102
}
330
18
100
AcDbGroup
300

 70
     3
 71
     0
  0
GROUP
  5
1C20
102
{ACAD_REACTORS
330
18
102
}
330
18
100
AcDbGroup
300

 70
     3
 71
     0
  0
GROUP
  5
1C3A
102
{ACAD_REACTORS
330
18
102
}
330
18
100
AcDbGroup
300

 70
     3
 71
     0
  0
GROUP
  5
48C8
102
{ACAD_REACTORS
330
18
102
}
330
18
100
AcDbGroup
300

 70
     3
 71
     0
  0
GROUP
  5
49E8
102
{ACAD_REACTORS
330
18
102
}
330
18
100
AcDbGroup
300

 70
     3
 71
     0
  0
GROUP
  5
37A6
102
{ACAD_REACTORS
330
18
102
}
330
18
100
AcDbGroup
300

 70
     3
 71
     0
  0
GROUP
  5
635A
102
{ACAD_REACTORS
330
18
102
}
330
18
100
AcDbGroup
300

 70
     3
 71
     0
  0
GROUP
  5
1BD4
102
{ACAD_REACTORS
330
18
102
}
330
18
100
AcDbGroup
300

 70
     3
 71
     0
  0
GROUP
  5
62A0
102
{ACAD_REACTORS
330
18
102
}
330
18
100
AcDbGroup
300

 70
     3
 71
     0
  0
GROUP
  5
4997
102
{ACAD_REACTORS
330
18
102
}
330
18
100
AcDbGroup
300

 70
     3
 71
     0
  0
GROUP
  5
1BEF
102
{ACAD_REACTORS
330
18
102
}
330
18
100
AcDbGroup
300

 70
     3
 71
     0
  0
GROUP
  5
63CF
102
{ACAD_REACTORS
330
18
102
}
330
18
100
AcDbGroup
300

 70
     3
 71
     0
  0
GROUP
  5
6317
102
{ACAD_REACTORS
330
18
102
}
330
18
100
AcDbGroup
300

 70
     3
 71
     0
  0
GROUP
  5
1C47
102
{ACAD_REACTORS
330
18
102
}
330
18
100
AcDbGroup
300

 70
     3
 71
     0
  0
GROUP
  5
1C21
102
{ACAD_REACTORS
330
18
102
}
330
18
100
AcDbGroup
300

 70
     3
 71
     0
  0
GROUP
  5
1AEE
102
{ACAD_REACTORS
330
18
102
}
330
18
100
AcDbGroup
300

 70
     3
 71
     0
  0
GROUP
  5
62B2
102
{ACAD_REACTORS
330
18
102
}
330
18
100
AcDbGroup
300

 70
     3
 71
     0
  0
GROUP
  5
6248
102
{ACAD_REACTORS
330
18
102
}
330
18
100
AcDbGroup
300

 70
     3
 71
     0
  0
GROUP
  5
1AED
102
{ACAD_REACTORS
330
18
102
}
330
18
100
AcDbGroup
300

 70
     3
 71
     0
  0
GROUP
  5
497F
102
{ACAD_REACTORS
330
18
102
}
330
18
100
AcDbGroup
300

 70
     3
 71
     0
  0
GROUP
  5
1C48
102
{ACAD_REACTORS
330
18
102
}
330
18
100
AcDbGroup
300

 70
     3
 71
     0
  0
GROUP
  5
1BD3
102
{ACAD_REACTORS
330
18
102
}
330
18
100
AcDbGroup
300

 70
     3
 71
     0
  0
GROUP
  5
49E3
102
{ACAD_REACTORS
330
18
102
}
330
18
100
AcDbGroup
300

 70
     3
 71
     0
  0
GROUP
  5
6291
102
{ACAD_REACTORS
330
18
102
}
330
18
100
AcDbGroup
300

 70
     3
 71
     0
  0
GROUP
  5
49F1
102
{ACAD_REACTORS
330
18
102
}
330
18
100
AcDbGroup
300

 70
     3
 71
     0
  0
GROUP
  5
48BB
102
{ACAD_REACTORS
330
18
102
}
330
18
100
AcDbGroup
300

 70
     3
 71
     0
  0
GROUP
  5
1C37
102
{ACAD_REACTORS
330
18
102
}
330
18
100
AcDbGroup
300

 70
     3
 71
     0
  0
GROUP
  5
1C44
102
{ACAD_REACTORS
330
18
102
}
330
18
100
AcDbGroup
300

 70
     3
 71
     0
  0
GROUP
  5
633C
102
{ACAD_REACTORS
330
18
102
}
330
18
100
AcDbGroup
300

 70
     3
 71
     0
  0
GROUP
  5
49F6
102
{ACAD_REACTORS
330
18
102
}
330
18
100
AcDbGroup
300

 70
     3
 71
     0
  0
GROUP
  5
62CA
102
{ACAD_REACTORS
330
18
102
}
330
18
100
AcDbGroup
300

 70
     3
 71
     0
  0
GROUP
  5
496F
102
{ACAD_REACTORS
330
18
102
}
330
18
100
AcDbGroup
300

 70
     3
 71
     0
  0
GROUP
  5
62AA
102
{ACAD_REACTORS
330
18
102
}
330
18
100
AcDbGroup
300

 70
     3
 71
     0
  0
GROUP
  5
6337
102
{ACAD_REACTORS
330
18
102
}
330
18
100
AcDbGroup
300

 70
     3
 71
     0
  0
GROUP
  5
49D3
102
{ACAD_REACTORS
330
18
102
}
330
18
100
AcDbGroup
300

 70
     3
 71
     0
  0
GROUP
  5
4955
102
{ACAD_REACTORS
330
18
102
}
330
18
100
AcDbGroup
300

 70
     3
 71
     0
  0
GROUP
  5
37BC
102
{ACAD_REACTORS
330
18
102
}
330
18
100
AcDbGroup
300

 70
     3
 71
     0
  0
GROUP
  5
1BE9
102
{ACAD_REACTORS
330
18
102
}
330
18
100
AcDbGroup
300

 70
     3
 71
     0
  0
GROUP
  5
49C7
102
{ACAD_REACTORS
330
18
102
}
330
18
100
AcDbGroup
300

 70
     3
 71
     0
  0
GROUP
  5
48AC
102
{ACAD_REACTORS
330
18
102
}
330
18
100
AcDbGroup
300

 70
     3
 71
     0
  0
GROUP
  5
6327
102
{ACAD_REACTORS
330
18
102
}
330
18
100
AcDbGroup
300

 70
     3
 71
     0
  0
GROUP
  5
4973
102
{ACAD_REACTORS
330
18
102
}
330
18
100
AcDbGroup
300

 70
     3
 71
     0
  0
GROUP
  5
1B4A
102
{ACAD_REACTORS
330
18
102
}
330
18
100
AcDbGroup
300

 70
     3
 71
     0
  0
GROUP
  5
1B3E
102
{ACAD_REACTORS
330
18
102
}
330
18
100
AcDbGroup
300

 70
     3
 71
     0
  0
GROUP
  5
1B50
102
{ACAD_REACTORS
330
18
102
}
330
18
100
AcDbGroup
300

 70
     3
 71
     0
  0
GROUP
  5
1C08
102
{ACAD_REACTORS
330
18
102
}
330
18
100
AcDbGroup
300

 70
     3
 71
     0
  0
GROUP
  5
62F1
102
{ACAD_REACTORS
330
18
102
}
330
18
100
AcDbGroup
300

 70
     3
 71
     0
  0
GROUP
  5
1BBA
102
{ACAD_REACTORS
330
18
102
}
330
18
100
AcDbGroup
300

 70
     3
 71
     0
  0
GROUP
  5
489D
102
{ACAD_REACTORS
330
18
102
}
330
18
100
AcDbGroup
300

 70
     3
 71
     0
  0
GROUP
  5
484C
102
{ACAD_REACTORS
330
18
102
}
330
18
100
AcDbGroup
300

 70
     3
 71
     0
  0
GROUP
  5
1462
102
{ACAD_REACTORS
330
18
102
}
330
18
100
AcDbGroup
300

 70
     3
 71
     0
  0
GROUP
  5
1B13
102
{ACAD_REACTORS
330
18
102
}
330
18
100
AcDbGroup
300

 70
     3
 71
     0
  0
GROUP
  5
62C2
102
{ACAD_REACTORS
330
18
102
}
330
18
100
AcDbGroup
300

 70
     3
 71
     0
  0
GROUP
  5
1C46
102
{ACAD_REACTORS
330
18
102
}
330
18
100
AcDbGroup
300

 70
     3
 71
     0
  0
GROUP
  5
63AC
102
{ACAD_REACTORS
330
18
102
}
330
18
100
AcDbGroup
300

 70
     3
 71
     0
  0
GROUP
  5
48F8
102
{ACAD_REACTORS
330
18
102
}
330
18
100
AcDbGroup
300

 70
     3
 71
     0
  0
GROUP
  5
62F5
102
{ACAD_REACTORS
330
18
102
}
330
18
100
AcDbGroup
300

 70
     3
 71
     0
  0
GROUP
  5
633A
102
{ACAD_REACTORS
330
18
102
}
330
18
100
AcDbGroup
300

 70
     3
 71
     0
  0
GROUP
  5
628F
102
{ACAD_REACTORS
330
18
102
}
330
18
100
AcDbGroup
300

 70
     3
 71
     0
  0
GROUP
  5
1BF9
102
{ACAD_REACTORS
330
18
102
}
330
18
100
AcDbGroup
300

 70
     3
 71
     0
  0
GROUP
  5
630A
102
{ACAD_REACTORS
330
18
102
}
330
18
100
AcDbGroup
300

 70
     3
 71
     0
  0
GROUP
  5
1466
102
{ACAD_REACTORS
330
18
102
}
330
18
100
AcDbGroup
300

 70
     3
 71
     0
  0
GROUP
  5
1B69
102
{ACAD_REACTORS
330
18
102
}
330
18
100
AcDbGroup
300

 70
     3
 71
     0
  0
GROUP
  5
48F2
102
{ACAD_REACTORS
330
18
102
}
330
18
100
AcDbGroup
300

 70
     3
 71
     0
  0
GROUP
  5
49DD
102
{ACAD_REACTORS
330
18
102
}
330
18
100
AcDbGroup
300

 70
     3
 71
     0
  0
GROUP
  5
4894
102
{ACAD_REACTORS
330
18
102
}
330
18
100
AcDbGroup
300

 70
     3
 71
     0
  0
GROUP
  5
1BAE
102
{ACAD_REACTORS
330
18
102
}
330
18
100
AcDbGroup
300

 70
     3
 71
     0
  0
GROUP
  5
4A04
102
{ACAD_REACTORS
330
18
102
}
330
18
100
AcDbGroup
300

 70
     3
 71
     0
  0
GROUP
  5
1B75
102
{ACAD_REACTORS
330
18
102
}
330
18
100
AcDbGroup
300

 70
     3
 71
     0
  0
GROUP
  5
48E6
102
{ACAD_REACTORS
330
18
102
}
330
18
100
AcDbGroup
300

 70
     3
 71
     0
  0
GROUP
  5
1C2B
102
{ACAD_REACTORS
330
18
102
}
330
18
100
AcDbGroup
300

 70
     3
 71
     0
  0
GROUP
  5
1C27
102
{ACAD_REACTORS
330
18
102
}
330
18
100
AcDbGroup
300

 70
     3
 71
     0
  0
GROUP
  5
629C
102
{ACAD_REACTORS
330
18
102
}
330
18
100
AcDbGroup
300

 70
     3
 71
     0
  0
GROUP
  5
1B7B
102
{ACAD_REACTORS
330
18
102
}
330
18
100
AcDbGroup
300

 70
     3
 71
     0
  0
GROUP
  5
4937
102
{ACAD_REACTORS
330
18
102
}
330
18
100
AcDbGroup
300

 70
     3
 71
     0
  0
GROUP
  5
1458
102
{ACAD_REACTORS
330
18
102
}
330
18
100
AcDbGroup
300

 70
     3
 71
     0
  0
GROUP
  5
1BC4
102
{ACAD_REACTORS
330
18
102
}
330
18
100
AcDbGroup
300

 70
     3
 71
     0
  0
GROUP
  5
63D2
102
{ACAD_REACTORS
330
18
102
}
330
18
100
AcDbGroup
300

 70
     3
 71
     0
  0
GROUP
  5
636A
102
{ACAD_REACTORS
330
18
102
}
330
18
100
AcDbGroup
300

 70
     3
 71
     0
  0
GROUP
  5
1C4D
102
{ACAD_REACTORS
330
18
102
}
330
18
100
AcDbGroup
300

 70
     3
 71
     0
  0
GROUP
  5
48F5
102
{ACAD_REACTORS
330
18
102
}
330
18
100
AcDbGroup
300

 70
     3
 71
     0
  0
GROUP
  5
4813
102
{ACAD_REACTORS
330
18
102
}
330
18
100
AcDbGroup
300

 70
     3
 71
     0
  0
GROUP
  5
63B6
102
{ACAD_REACTORS
330
18
102
}
330
18
100
AcDbGroup
300

 70
     3
 71
     0
  0
GROUP
  5
49EB
102
{ACAD_REACTORS
330
18
102
}
330
18
100
AcDbGroup
300

 70
     3
 71
     0
  0
GROUP
  5
486C
102
{ACAD_REACTORS
330
18
102
}
330
18
100
AcDbGroup
300

 70
     3
 71
     0
  0
GROUP
  5
1457
102
{ACAD_REACTORS
330
18
102
}
330
18
100
AcDbGroup
300

 70
     3
 71
     0
  0
GROUP
  5
37C0
102
{ACAD_REACTORS
330
18
102
}
330
18
100
AcDbGroup
300

 70
     3
 71
     0
  0
GROUP
  5
1BCC
102
{ACAD_REACTORS
330
18
102
}
330
18
100
AcDbGroup
300

 70
     3
 71
     0
  0
GROUP
  5
4A03
102
{ACAD_REACTORS
330
18
102
}
330
18
100
AcDbGroup
300

 70
     3
 71
     0
  0
GROUP
  5
6346
102
{ACAD_REACTORS
330
18
102
}
330
18
100
AcDbGroup
300

 70
     3
 71
     0
  0
GROUP
  5
6242
102
{ACAD_REACTORS
330
18
102
}
330
18
100
AcDbGroup
300

 70
     3
 71
     0
  0
GROUP
  5
48B7
102
{ACAD_REACTORS
330
18
102
}
330
18
100
AcDbGroup
300

 70
     3
 71
     0
  0
GROUP
  5
497D
102
{ACAD_REACTORS
330
18
102
}
330
18
100
AcDbGroup
300

 70
     3
 71
     0
  0
GROUP
  5
4912
102
{ACAD_REACTORS
330
18
102
}
330
18
100
AcDbGroup
300

 70
     3
 71
     0
  0
GROUP
  5
48FF
102
{ACAD_REACTORS
330
18
102
}
330
18
100
AcDbGroup
300

 70
     3
 71
     0
  0
GROUP
  5
630E
102
{ACAD_REACTORS
330
18
102
}
330
18
100
AcDbGroup
300

 70
     3
 71
     0
  0
GROUP
  5
6370
102
{ACAD_REACTORS
330
18
102
}
330
18
100
AcDbGroup
300

 70
     3
 71
     0
  0
GROUP
  5
1B7E
102
{ACAD_REACTORS
330
18
102
}
330
18
100
AcDbGroup
300

 70
     3
 71
     0
  0
GROUP
  5
1C56
102
{ACAD_REACTORS
330
18
102
}
330
18
100
AcDbGroup
300

 70
     3
 71
     0
  0
GROUP
  5
622D
102
{ACAD_REACTORS
330
18
102
}
330
18
100
AcDbGroup
300

 70
     3
 71
     0
  0
GROUP
  5
6347
102
{ACAD_REACTORS
330
18
102
}
330
18
100
AcDbGroup
300

 70
     3
 71
     0
  0
GROUP
  5
4988
102
{ACAD_REACTORS
330
18
102
}
330
18
100
AcDbGroup
300

 70
     3
 71
     0
  0
GROUP
  5
62BE
102
{ACAD_REACTORS
330
18
102
}
330
18
100
AcDbGroup
300

 70
     3
 71
     0
  0
GROUP
  5
6241
102
{ACAD_REACTORS
330
18
102
}
330
18
100
AcDbGroup
300

 70
     3
 71
     0
  0
GROUP
  5
48FC
102
{ACAD_REACTORS
330
18
102
}
330
18
100
AcDbGroup
300

 70
     3
 71
     0
  0
GROUP
  5
4958
102
{ACAD_REACTORS
330
18
102
}
330
18
100
AcDbGroup
300

 70
     3
 71
     0
  0
GROUP
  5
63EA
102
{ACAD_REACTORS
330
18
102
}
330
18
100
AcDbGroup
300

 70
     3
 71
     0
  0
GROUP
  5
1BDF
102
{ACAD_REACTORS
330
18
102
}
330
18
100
AcDbGroup
300

 70
     3
 71
     0
  0
GROUP
  5
6307
102
{ACAD_REACTORS
330
18
102
}
330
18
100
AcDbGroup
300

 70
     3
 71
     0
  0
GROUP
  5
1B19
102
{ACAD_REACTORS
330
18
102
}
330
18
100
AcDbGroup
300

 70
     3
 71
     0
  0
GROUP
  5
4824
102
{ACAD_REACTORS
330
18
102
}
330
18
100
AcDbGroup
300

 70
     3
 71
     0
  0
GROUP
  5
4A0C
102
{ACAD_REACTORS
330
18
102
}
330
18
100
AcDbGroup
300

 70
     3
 71
     0
  0
GROUP
  5
63DD
102
{ACAD_REACTORS
330
18
102
}
330
18
100
AcDbGroup
300

 70
     3
 71
     0
  0
GROUP
  5
489E
102
{ACAD_REACTORS
330
18
102
}
330
18
100
AcDbGroup
300

 70
     3
 71
     0
  0
GROUP
  5
49C9
102
{ACAD_REACTORS
330
18
102
}
330
18
100
AcDbGroup
300

 70
     3
 71
     0
  0
GROUP
  5
499B
102
{ACAD_REACTORS
330
18
102
}
330
18
100
AcDbGroup
300

 70
     3
 71
     0
  0
GROUP
  5
37A5
102
{ACAD_REACTORS
330
18
102
}
330
18
100
AcDbGroup
300

 70
     3
 71
     0
  0
GROUP
  5
6236
102
{ACAD_REACTORS
330
18
102
}
330
18
100
AcDbGroup
300

 70
     3
 71
     0
  0
GROUP
  5
6264
102
{ACAD_REACTORS
330
18
102
}
330
18
100
AcDbGroup
300

 70
     3
 71
     0
  0
GROUP
  5
1B70
102
{ACAD_REACTORS
330
18
102
}
330
18
100
AcDbGroup
300

 70
     3
 71
     0
  0
GROUP
  5
37B5
102
{ACAD_REACTORS
330
18
102
}
330
18
100
AcDbGroup
300

 70
     3
 71
     0
  0
GROUP
  5
6282
102
{ACAD_REACTORS
330
18
102
}
330
18
100
AcDbGroup
300

 70
     3
 71
     0
  0
GROUP
  5
640C
102
{ACAD_REACTORS
330
18
102
}
330
18
100
AcDbGroup
300

 70
     3
 71
     0
  0
GROUP
  5
63C2
102
{ACAD_REACTORS
330
18
102
}
330
18
100
AcDbGroup
300

 70
     3
 71
     0
  0
GROUP
  5
4952
102
{ACAD_REACTORS
330
18
102
}
330
18
100
AcDbGroup
300

 70
     3
 71
     0
  0
GROUP
  5
49B1
102
{ACAD_REACTORS
330
18
102
}
330
18
100
AcDbGroup
300

 70
     3
 71
     0
  0
GROUP
  5
48BD
102
{ACAD_REACTORS
330
18
102
}
330
18
100
AcDbGroup
300

 70
     3
 71
     0
  0
GROUP
  5
49A5
102
{ACAD_REACTORS
330
18
102
}
330
18
100
AcDbGroup
300

 70
     3
 71
     0
  0
GROUP
  5
1BD1
102
{ACAD_REACTORS
330
18
102
}
330
18
100
AcDbGroup
300

 70
     3
 71
     0
  0
GROUP
  5
1B99
102
{ACAD_REACTORS
330
18
102
}
330
18
100
AcDbGroup
300

 70
     3
 71
     0
  0
GROUP
  5
4993
102
{ACAD_REACTORS
330
18
102
}
330
18
100
AcDbGroup
300

 70
     3
 71
     0
  0
GROUP
  5
4948
102
{ACAD_REACTORS
330
18
102
}
330
18
100
AcDbGroup
300

 70
     3
 71
     0
  0
GROUP
  5
63FC
102
{ACAD_REACTORS
330
18
102
}
330
18
100
AcDbGroup
300

 70
     3
 71
     0
  0
GROUP
  5
622C
102
{ACAD_REACTORS
330
18
102
}
330
18
100
AcDbGroup
300

 70
     3
 71
     0
  0
GROUP
  5
4898
102
{ACAD_REACTORS
330
18
102
}
330
18
100
AcDbGroup
300

 70
     3
 71
     0
  0
GROUP
  5
62F9
102
{ACAD_REACTORS
330
18
102
}
330
18
100
AcDbGroup
300

 70
     3
 71
     0
  0
GROUP
  5
4981
102
{ACAD_REACTORS
330
18
102
}
330
18
100
AcDbGroup
300

 70
     3
 71
     0
  0
GROUP
  5
4962
102
{ACAD_REACTORS
330
18
102
}
330
18
100
AcDbGroup
300

 70
     3
 71
     0
  0
GROUP
  5
4931
102
{ACAD_REACTORS
330
18
102
}
330
18
100
AcDbGroup
300

 70
     3
 71
     0
  0
GROUP
  5
1B22
102
{ACAD_REACTORS
330
18
102
}
330
18
100
AcDbGroup
300

 70
     3
 71
     0
  0
GROUP
  5
4932
102
{ACAD_REACTORS
330
18
102
}
330
18
100
AcDbGroup
300

 70
     3
 71
     0
  0
GROUP
  5
1C23
102
{ACAD_REACTORS
330
18
102
}
330
18
100
AcDbGroup
300

 70
     3
 71
     0
  0
GROUP
  5
1BF6
102
{ACAD_REACTORS
330
18
102
}
330
18
100
AcDbGroup
300

 70
     3
 71
     0
  0
GROUP
  5
63A8
102
{ACAD_REACTORS
330
18
102
}
330
18
100
AcDbGroup
300

 70
     3
 71
     0
  0
GROUP
  5
49C4
102
{ACAD_REACTORS
330
18
102
}
330
18
100
AcDbGroup
300

 70
     3
 71
     0
  0
GROUP
  5
63A5
102
{ACAD_REACTORS
330
18
102
}
330
18
100
AcDbGroup
300

 70
     3
 71
     0
  0
GROUP
  5
4833
102
{ACAD_REACTORS
330
18
102
}
330
18
100
AcDbGroup
300

 70
     3
 71
     0
  0
GROUP
  5
6333
102
{ACAD_REACTORS
330
18
102
}
330
18
100
AcDbGroup
300

 70
     3
 71
     0
  0
GROUP
  5
379B
102
{ACAD_REACTORS
330
18
102
}
330
18
100
AcDbGroup
300

 70
     3
 71
     0
  0
GROUP
  5
62A5
102
{ACAD_REACTORS
330
18
102
}
330
18
100
AcDbGroup
300

 70
     3
 71
     0
  0
GROUP
  5
6227
102
{ACAD_REACTORS
330
18
102
}
330
18
100
AcDbGroup
300

 70
     3
 71
     0
  0
GROUP
  5
1B79
102
{ACAD_REACTORS
330
18
102
}
330
18
100
AcDbGroup
300

 70
     3
 71
     0
  0
GROUP
  5
4880
102
{ACAD_REACTORS
330
18
102
}
330
18
100
AcDbGroup
300

 70
     3
 71
     0
  0
GROUP
  5
1AE0
102
{ACAD_REACTORS
330
18
102
}
330
18
100
AcDbGroup
300

 70
     3
 71
     0
  0
GROUP
  5
1B8C
102
{ACAD_REACTORS
330
18
102
}
330
18
100
AcDbGroup
300

 70
     3
 71
     0
  0
GROUP
  5
4887
102
{ACAD_REACTORS
330
18
102
}
330
18
100
AcDbGroup
300

 70
     3
 71
     0
  0
GROUP
  5
49AB
102
{ACAD_REACTORS
330
18
102
}
330
18
100
AcDbGroup
300

 70
     3
 71
     0
  0
GROUP
  5
1B72
102
{ACAD_REACTORS
330
18
102
}
330
18
100
AcDbGroup
300

 70
     3
 71
     0
  0
GROUP
  5
621A
102
{ACAD_REACTORS
330
18
102
}
330
18
100
AcDbGroup
300

 70
     3
 71
     0
  0
GROUP
  5
1C28
102
{ACAD_REACTORS
330
18
102
}
330
18
100
AcDbGroup
300

 70
     3
 71
     0
  0
GROUP
  5
1BDE
102
{ACAD_REACTORS
330
18
102
}
330
18
100
AcDbGroup
300

 70
     3
 71
     0
  0
GROUP
  5
48EC
102
{ACAD_REACTORS
330
18
102
}
330
18
100
AcDbGroup
300

 70
     3
 71
     0
  0
GROUP
  5
638A
102
{ACAD_REACTORS
330
18
102
}
330
18
100
AcDbGroup
300

 70
     3
 71
     0
  0
GROUP
  5
4890
102
{ACAD_REACTORS
330
18
102
}
330
18
100
AcDbGroup
300

 70
     3
 71
     0
  0
GROUP
  5
6309
102
{ACAD_REACTORS
330
18
102
}
330
18
100
AcDbGroup
300

 70
     3
 71
     0
  0
GROUP
  5
1BFB
102
{ACAD_REACTORS
330
18
102
}
330
18
100
AcDbGroup
300

 70
     3
 71
     0
  0
GROUP
  5
62B0
102
{ACAD_REACTORS
330
18
102
}
330
18
100
AcDbGroup
300

 70
     3
 71
     0
  0
GROUP
  5
4864
102
{ACAD_REACTORS
330
18
102
}
330
18
100
AcDbGroup
300

 70
     3
 71
     0
  0
GROUP
  5
497B
102
{ACAD_REACTORS
330
18
102
}
330
18
100
AcDbGroup
300

 70
     3
 71
     0
  0
GROUP
  5
62D3
102
{ACAD_REACTORS
330
18
102
}
330
18
100
AcDbGroup
300

 70
     3
 71
     1
  0
GROUP
  5
6233
102
{ACAD_REACTORS
330
18
102
}
330
18
100
AcDbGroup
300

 70
     3
 71
     0
  0
GROUP
  5
63BA
102
{ACAD_REACTORS
330
18
102
}
330
18
100
AcDbGroup
300

 70
     3
 71
     0
  0
GROUP
  5
1BB7
102
{ACAD_REACTORS
330
18
102
}
330
18
100
AcDbGroup
300

 70
     3
 71
     0
  0
GROUP
  5
1C01
102
{ACAD_REACTORS
330
18
102
}
330
18
100
AcDbGroup
300

 70
     3
 71
     0
  0
GROUP
  5
62AE
102
{ACAD_REACTORS
330
18
102
}
330
18
100
AcDbGroup
300

 70
     3
 71
     0
  0
GROUP
  5
48E0
102
{ACAD_REACTORS
330
18
102
}
330
18
100
AcDbGroup
300

 70
     3
 71
     0
  0
GROUP
  5
633E
102
{ACAD_REACTORS
330
18
102
}
330
18
100
AcDbGroup
300

 70
     3
 71
     0
  0
GROUP
  5
4945
102
{ACAD_REACTORS
330
18
102
}
330
18
100
AcDbGroup
300

 70
     3
 71
     0
  0
GROUP
  5
48FA
102
{ACAD_REACTORS
330
18
102
}
330
18
100
AcDbGroup
300

 70
     3
 71
     0
  0
GROUP
  5
63D9
102
{ACAD_REACTORS
330
18
102
}
330
18
100
AcDbGroup
300

 70
     3
 71
     0
  0
GROUP
  5
6424
102
{ACAD_REACTORS
330
18
102
}
330
18
100
AcDbGroup
300

 70
     3
 71
     0
  0
GROUP
  5
492D
102
{ACAD_REACTORS
330
18
102
}
330
18
100
AcDbGroup
300

 70
     3
 71
     0
  0
GROUP
  5
48B5
102
{ACAD_REACTORS
330
18
102
}
330
18
100
AcDbGroup
300

 70
     3
 71
     0
  0
GROUP
  5
4964
102
{ACAD_REACTORS
330
18
102
}
330
18
100
AcDbGroup
300

 70
     3
 71
     0
  0
GROUP
  5
6398
102
{ACAD_REACTORS
330
18
102
}
330
18
100
AcDbGroup
300

 70
     3
 71
     0
  0
GROUP
  5
4884
102
{ACAD_REACTORS
330
18
102
}
330
18
100
AcDbGroup
300

 70
     3
 71
     0
  0
GROUP
  5
1B41
102
{ACAD_REACTORS
330
18
102
}
330
18
100
AcDbGroup
300

 70
     3
 71
     0
  0
GROUP
  5
1BB2
102
{ACAD_REACTORS
330
18
102
}
330
18
100
AcDbGroup
300

 70
     3
 71
     0
  0
GROUP
  5
49CB
102
{ACAD_REACTORS
330
18
102
}
330
18
100
AcDbGroup
300

 70
     3
 71
     0
  0
GROUP
  5
49F5
102
{ACAD_REACTORS
330
18
102
}
330
18
100
AcDbGroup
300

 70
     3
 71
     0
  0
GROUP
  5
145B
102
{ACAD_REACTORS
330
18
102
}
330
18
100
AcDbGroup
300

 70
     3
 71
     0
  0
GROUP
  5
1AE5
102
{ACAD_REACTORS
330
18
102
}
330
18
100
AcDbGroup
300

 70
     3
 71
     0
  0
GROUP
  5
4950
102
{ACAD_REACTORS
330
18
102
}
330
18
100
AcDbGroup
300

 70
     3
 71
     0
  0
GROUP
  5
1B5F
102
{ACAD_REACTORS
330
18
102
}
330
18
100
AcDbGroup
300

 70
     3
 71
     0
  0
GROUP
  5
6308
102
{ACAD_REACTORS
330
18
102
}
330
18
100
AcDbGroup
300

 70
     3
 71
     0
  0
GROUP
  5
4845
102
{ACAD_REACTORS
330
18
102
}
330
18
100
AcDbGroup
300

 70
     3
 71
     0
  0
GROUP
  5
49AD
102
{ACAD_REACTORS
330
18
102
}
330
18
100
AcDbGroup
300

 70
     3
 71
     0
  0
GROUP
  5
1C05
102
{ACAD_REACTORS
330
18
102
}
330
18
100
AcDbGroup
300

 70
     3
 71
     0
  0
GROUP
  5
1C4E
102
{ACAD_REACTORS
330
18
102
}
330
18
100
AcDbGroup
300

 70
     3
 71
     0
  0
GROUP
  5
49B9
102
{ACAD_REACTORS
330
18
102
}
330
18
100
AcDbGroup
300

 70
     3
 71
     0
  0
GROUP
  5
6302
102
{ACAD_REACTORS
330
18
102
}
330
18
100
AcDbGroup
300

 70
     3
 71
     0
  0
GROUP
  5
63E3
102
{ACAD_REACTORS
330
18
102
}
330
18
100
AcDbGroup
300

 70
     3
 71
     0
  0
GROUP
  5
1BF3
102
{ACAD_REACTORS
330
18
102
}
330
18
100
AcDbGroup
300

 70
     3
 71
     0
  0
GROUP
  5
1C35
102
{ACAD_REACTORS
330
18
102
}
330
18
100
AcDbGroup
300

 70
     3
 71
     0
  0
GROUP
  5
4946
102
{ACAD_REACTORS
330
18
102
}
330
18
100
AcDbGroup
300

 70
     3
 71
     0
  0
GROUP
  5
62C3
102
{ACAD_REACTORS
330
18
102
}
330
18
100
AcDbGroup
300

 70
     3
 71
     0
  0
GROUP
  5
6219
102
{ACAD_REACTORS
330
18
102
}
330
18
100
AcDbGroup
300

 70
     3
 71
     0
  0
GROUP
  5
63F7
102
{ACAD_REACTORS
330
18
102
}
330
18
100
AcDbGroup
300

 70
     3
 71
     0
  0
GROUP
  5
48A5
102
{ACAD_REACTORS
330
18
102
}
330
18
100
AcDbGroup
300

 70
     3
 71
     0
  0
GROUP
  5
631E
102
{ACAD_REACTORS
330
18
102
}
330
18
100
AcDbGroup
300

 70
     3
 71
     0
  0
GROUP
  5
49AE
102
{ACAD_REACTORS
330
18
102
}
330
18
100
AcDbGroup
300

 70
     3
 71
     0
  0
GROUP
  5
62F7
102
{ACAD_REACTORS
330
18
102
}
330
18
100
AcDbGroup
300

 70
     3
 71
     0
  0
GROUP
  5
4A01
102
{ACAD_REACTORS
330
18
102
}
330
18
100
AcDbGroup
300

 70
     3
 71
     0
  0
GROUP
  5
4847
102
{ACAD_REACTORS
330
18
102
}
330
18
100
AcDbGroup
300

 70
     3
 71
     0
  0
GROUP
  5
37A9
102
{ACAD_REACTORS
330
18
102
}
330
18
100
AcDbGroup
300

 70
     3
 71
     0
  0
GROUP
  5
6395
102
{ACAD_REACTORS
330
18
102
}
330
18
100
AcDbGroup
300

 70
     3
 71
     0
  0
GROUP
  5
1B24
102
{ACAD_REACTORS
330
18
102
}
330
18
100
AcDbGroup
300

 70
     3
 71
     0
  0
GROUP
  5
49EA
102
{ACAD_REACTORS
330
18
102
}
330
18
100
AcDbGroup
300

 70
     3
 71
     0
  0
GROUP
  5
497C
102
{ACAD_REACTORS
330
18
102
}
330
18
100
AcDbGroup
300

 70
     3
 71
     0
  0
GROUP
  5
63B7
102
{ACAD_REACTORS
330
18
102
}
330
18
100
AcDbGroup
300

 70
     3
 71
     0
  0
GROUP
  5
62C1
102
{ACAD_REACTORS
330
18
102
}
330
18
100
AcDbGroup
300

 70
     3
 71
     0
  0
GROUP
  5
63CA
102
{ACAD_REACTORS
330
18
102
}
330
18
100
AcDbGroup
300

 70
     3
 71
     0
  0
GROUP
  5
1C1A
102
{ACAD_REACTORS
330
18
102
}
330
18
100
AcDbGroup
300

 70
     3
 71
     0
  0
GROUP
  5
1B12
102
{ACAD_REACTORS
330
18
102
}
330
18
100
AcDbGroup
300

 70
     3
 71
     0
  0
GROUP
  5
37B7
102
{ACAD_REACTORS
330
18
102
}
330
18
100
AcDbGroup
300

 70
     3
 71
     0
  0
GROUP
  5
63D1
102
{ACAD_REACTORS
330
18
102
}
330
18
100
AcDbGroup
300

 70
     3
 71
     0
  0
GROUP
  5
1C22
102
{ACAD_REACTORS
330
18
102
}
330
18
100
AcDbGroup
300

 70
     3
 71
     0
  0
GROUP
  5
638C
102
{ACAD_REACTORS
330
18
102
}
330
18
100
AcDbGroup
300

 70
     3
 71
     0
  0
GROUP
  5
6362
102
{ACAD_REACTORS
330
18
102
}
330
18
100
AcDbGroup
300

 70
     3
 71
     0
  0
GROUP
  5
62C0
102
{ACAD_REACTORS
330
18
102
}
330
18
100
AcDbGroup
300

 70
     3
 71
     0
  0
GROUP
  5
1C3F
102
{ACAD_REACTORS
330
18
102
}
330
18
100
AcDbGroup
300

 70
     3
 71
     0
  0
GROUP
  5
1B07
102
{ACAD_REACTORS
330
18
102
}
330
18
100
AcDbGroup
300

 70
     3
 71
     0
  0
GROUP
  5
6292
102
{ACAD_REACTORS
330
18
102
}
330
18
100
AcDbGroup
300

 70
     3
 71
     0
  0
GROUP
  5
63DE
102
{ACAD_REACTORS
330
18
102
}
330
18
100
AcDbGroup
300

 70
     3
 71
     0
  0
GROUP
  5
636B
102
{ACAD_REACTORS
330
18
102
}
330
18
100
AcDbGroup
300

 70
     3
 71
     0
  0
GROUP
  5
1BD5
102
{ACAD_REACTORS
330
18
102
}
330
18
100
AcDbGroup
300

 70
     3
 71
     0
  0
GROUP
  5
1B51
102
{ACAD_REACTORS
330
18
102
}
330
18
100
AcDbGroup
300

 70
     3
 71
     0
  0
GROUP
  5
4967
102
{ACAD_REACTORS
330
18
102
}
330
18
100
AcDbGroup
300

 70
     3
 71
     0
  0
GROUP
  5
482C
102
{ACAD_REACTORS
330
18
102
}
330
18
100
AcDbGroup
300

 70
     3
 71
     0
  0
GROUP
  5
634D
102
{ACAD_REACTORS
330
18
102
}
330
18
100
AcDbGroup
300

 70
     3
 71
     0
  0
GROUP
  5
49E4
102
{ACAD_REACTORS
330
18
102
}
330
18
100
AcDbGroup
300

 70
     3
 71
     0
  0
GROUP
  5
49BC
102
{ACAD_REACTORS
330
18
102
}
330
18
100
AcDbGroup
300

 70
     3
 71
     0
  0
GROUP
  5
49A9
102
{ACAD_REACTORS
330
18
102
}
330
18
100
AcDbGroup
300

 70
     3
 71
     0
  0
GROUP
  5
6359
102
{ACAD_REACTORS
330
18
102
}
330
18
100
AcDbGroup
300

 70
     3
 71
     0
  0
GROUP
  5
1B6C
102
{ACAD_REACTORS
330
18
102
}
330
18
100
AcDbGroup
300

 70
     3
 71
     0
  0
GROUP
  5
492A
102
{ACAD_REACTORS
330
18
102
}
330
18
100
AcDbGroup
300

 70
     3
 71
     0
  0
GROUP
  5
4926
102
{ACAD_REACTORS
330
18
102
}
330
18
100
AcDbGroup
300

 70
     3
 71
     0
  0
GROUP
  5
1ACF
102
{ACAD_REACTORS
330
18
102
}
330
18
100
AcDbGroup
300

 70
     3
 71
     0
  0
GROUP
  5
1B7F
102
{ACAD_REACTORS
330
18
102
}
330
18
100
AcDbGroup
300

 70
     3
 71
     0
  0
GROUP
  5
4A18
102
{ACAD_REACTORS
330
18
102
}
330
18
100
AcDbGroup
300

 70
     3
 71
     0
  0
GROUP
  5
1B09
102
{ACAD_REACTORS
330
18
102
}
330
18
100
AcDbGroup
300

 70
     3
 71
     0
  0
GROUP
  5
634E
102
{ACAD_REACTORS
330
18
102
}
330
18
100
AcDbGroup
300

 70
     3
 71
     0
  0
GROUP
  5
4872
102
{ACAD_REACTORS
330
18
102
}
330
18
100
AcDbGroup
300

 70
     3
 71
     0
  0
GROUP
  5
6404
102
{ACAD_REACTORS
330
18
102
}
330
18
100
AcDbGroup
300

 70
     3
 71
     0
  0
GROUP
  5
1B6A
102
{ACAD_REACTORS
330
18
102
}
330
18
100
AcDbGroup
300

 70
     3
 71
     0
  0
GROUP
  5
1469
102
{ACAD_REACTORS
330
18
102
}
330
18
100
AcDbGroup
300

 70
     3
 71
     0
  0
GROUP
  5
63D4
102
{ACAD_REACTORS
330
18
102
}
330
18
100
AcDbGroup
300

 70
     3
 71
     0
  0
GROUP
  5
1B60
102
{ACAD_REACTORS
330
18
102
}
330
18
100
AcDbGroup
300

 70
     3
 71
     0
  0
GROUP
  5
63FA
102
{ACAD_REACTORS
330
18
102
}
330
18
100
AcDbGroup
300

 70
     3
 71
     0
  0
GROUP
  5
63F8
102
{ACAD_REACTORS
330
18
102
}
330
18
100
AcDbGroup
300

 70
     3
 71
     0
  0
GROUP
  5
1B8D
102
{ACAD_REACTORS
330
18
102
}
330
18
100
AcDbGroup
300

 70
     3
 71
     0
  0
GROUP
  5
6357
102
{ACAD_REACTORS
330
18
102
}
330
18
100
AcDbGroup
300

 70
     3
 71
     0
  0
GROUP
  5
49B2
102
{ACAD_REACTORS
330
18
102
}
330
18
100
AcDbGroup
300

 70
     3
 71
     0
  0
GROUP
  5
1B03
102
{ACAD_REACTORS
330
18
102
}
330
18
100
AcDbGroup
300

 70
     3
 71
     0
  0
GROUP
  5
6224
102
{ACAD_REACTORS
330
18
102
}
330
18
100
AcDbGroup
300

 70
     3
 71
     0
  0
GROUP
  5
1C24
102
{ACAD_REACTORS
330
18
102
}
330
18
100
AcDbGroup
300

 70
     3
 71
     0
  0
GROUP
  5
1B6F
102
{ACAD_REACTORS
330
18
102
}
330
18
100
AcDbGroup
300

 70
     3
 71
     0
  0
GROUP
  5
1C07
102
{ACAD_REACTORS
330
18
102
}
330
18
100
AcDbGroup
300

 70
     3
 71
     0
  0
GROUP
  5
6417
102
{ACAD_REACTORS
330
18
102
}
330
18
100
AcDbGroup
300

 70
     3
 71
     0
  0
GROUP
  5
4975
102
{ACAD_REACTORS
330
18
102
}
330
18
100
AcDbGroup
300

 70
     3
 71
     0
  0
GROUP
  5
1AEF
102
{ACAD_REACTORS
330
18
102
}
330
18
100
AcDbGroup
300

 70
     3
 71
     0
  0
GROUP
  5
1B53
102
{ACAD_REACTORS
330
18
102
}
330
18
100
AcDbGroup
300

 70
     3
 71
     0
  0
GROUP
  5
63FE
102
{ACAD_REACTORS
330
18
102
}
330
18
100
AcDbGroup
300

 70
     3
 71
     0
  0
GROUP
  5
486F
102
{ACAD_REACTORS
330
18
102
}
330
18
100
AcDbGroup
300

 70
     3
 71
     0
  0
GROUP
  5
1BBE
102
{ACAD_REACTORS
330
18
102
}
330
18
100
AcDbGroup
300

 70
     3
 71
     0
  0
GROUP
  5
62ED
102
{ACAD_REACTORS
330
18
102
}
330
18
100
AcDbGroup
300

 70
     3
 71
     0
  0
GROUP
  5
1BC0
102
{ACAD_REACTORS
330
18
102
}
330
18
100
AcDbGroup
300

 70
     3
 71
     0
  0
GROUP
  5
1BB5
102
{ACAD_REACTORS
330
18
102
}
330
18
100
AcDbGroup
300

 70
     3
 71
     0
  0
GROUP
  5
62B9
102
{ACAD_REACTORS
330
18
102
}
330
18
100
AcDbGroup
300

 70
     3
 71
     0
  0
GROUP
  5
49E6
102
{ACAD_REACTORS
330
18
102
}
330
18
100
AcDbGroup
300

 70
     3
 71
     0
  0
GROUP
  5
632B
102
{ACAD_REACTORS
330
18
102
}
330
18
100
AcDbGroup
300

 70
     3
 71
     0
  0
GROUP
  5
6406
102
{ACAD_REACTORS
330
18
102
}
330
18
100
AcDbGroup
300

 70
     3
 71
     0
  0
GROUP
  5
489B
102
{ACAD_REACTORS
330
18
102
}
330
18
100
AcDbGroup
300

 70
     3
 71
     0
  0
GROUP
  5
6240
102
{ACAD_REACTORS
330
18
102
}
330
18
100
AcDbGroup
300

 70
     3
 71
     0
  0
GROUP
  5
482E
102
{ACAD_REACTORS
330
18
102
}
330
18
100
AcDbGroup
300

 70
     3
 71
     0
  0
GROUP
  5
48E4
102
{ACAD_REACTORS
330
18
102
}
330
18
100
AcDbGroup
300

 70
     3
 71
     0
  0
GROUP
  5
1B98
102
{ACAD_REACTORS
330
18
102
}
330
18
100
AcDbGroup
300

 70
     3
 71
     0
  0
GROUP
  5
4811
102
{ACAD_REACTORS
330
18
102
}
330
18
100
AcDbGroup
300

 70
     3
 71
     0
  0
GROUP
  5
1B94
102
{ACAD_REACTORS
330
18
102
}
330
18
100
AcDbGroup
300

 70
     3
 71
     0
  0
GROUP
  5
63B5
102
{ACAD_REACTORS
330
18
102
}
330
18
100
AcDbGroup
300

 70
     3
 71
     0
  0
GROUP
  5
1C18
102
{ACAD_REACTORS
330
18
102
}
330
18
100
AcDbGroup
300

 70
     3
 71
     0
  0
GROUP
  5
37AD
102
{ACAD_REACTORS
330
18
102
}
330
18
100
AcDbGroup
300

 70
     3
 71
     0
  0
GROUP
  5
623F
102
{ACAD_REACTORS
330
18
102
}
330
18
100
AcDbGroup
300

 70
     3
 71
     0
  0
GROUP
  5
49D2
102
{ACAD_REACTORS
330
18
102
}
330
18
100
AcDbGroup
300

 70
     3
 71
     0
  0
GROUP
  5
4903
102
{ACAD_REACTORS
330
18
102
}
330
18
100
AcDbGroup
300

 70
     3
 71
     0
  0
GROUP
  5
63FF
102
{ACAD_REACTORS
330
18
102
}
330
18
100
AcDbGroup
300

 70
     3
 71
     0
  0
GROUP
  5
63CB
102
{ACAD_REACTORS
330
18
102
}
330
18
100
AcDbGroup
300

 70
     3
 71
     0
  0
GROUP
  5
1BD8
102
{ACAD_REACTORS
330
18
102
}
330
18
100
AcDbGroup
300

 70
     3
 71
     0
  0
GROUP
  5
6393
102
{ACAD_REACTORS
330
18
102
}
330
18
100
AcDbGroup
300

 70
     3
 71
     0
  0
GROUP
  5
6383
102
{ACAD_REACTORS
330
18
102
}
330
18
100
AcDbGroup
300

 70
     3
 71
     0
  0
GROUP
  5
62DF
102
{ACAD_REACTORS
330
18
102
}
330
18
100
AcDbGroup
300

 70
     3
 71
     0
  0
GROUP
  5
63E5
102
{ACAD_REACTORS
330
18
102
}
330
18
100
AcDbGroup
300

 70
     3
 71
     0
  0
GROUP
  5
639D
102
{ACAD_REACTORS
330
18
102
}
330
18
100
AcDbGroup
300

 70
     3
 71
     0
  0
GROUP
  5
6277
102
{ACAD_REACTORS
330
18
102
}
330
18
100
AcDbGroup
300

 70
     3
 71
     0
  0
GROUP
  5
1BD6
102
{ACAD_REACTORS
330
18
102
}
330
18
100
AcDbGroup
300

 70
     3
 71
     0
  0
GROUP
  5
1BB8
102
{ACAD_REACTORS
330
18
102
}
330
18
100
AcDbGroup
300

 70
     3
 71
     0
  0
GROUP
  5
489F
102
{ACAD_REACTORS
330
18
102
}
330
18
100
AcDbGroup
300

 70
     3
 71
     0
  0
GROUP
  5
4817
102
{ACAD_REACTORS
330
18
102
}
330
18
100
AcDbGroup
300

 70
     3
 71
     0
  0
GROUP
  5
49CA
102
{ACAD_REACTORS
330
18
102
}
330
18
100
AcDbGroup
300

 70
     3
 71
     0
  0
GROUP
  5
1B58
102
{ACAD_REACTORS
330
18
102
}
330
18
100
AcDbGroup
300

 70
     3
 71
     0
  0
GROUP
  5
62EE
102
{ACAD_REACTORS
330
18
102
}
330
18
100
AcDbGroup
300

 70
     3
 71
     0
  0
GROUP
  5
6294
102
{ACAD_REACTORS
330
18
102
}
330
18
100
AcDbGroup
300

 70
     3
 71
     0
  0
GROUP
  5
63E7
102
{ACAD_REACTORS
330
18
102
}
330
18
100
AcDbGroup
300

 70
     3
 71
     0
  0
GROUP
  5
48D3
102
{ACAD_REACTORS
330
18
102
}
330
18
100
AcDbGroup
300

 70
     3
 71
     0
  0
GROUP
  5
4905
102
{ACAD_REACTORS
330
18
102
}
330
18
100
AcDbGroup
300

 70
     3
 71
     0
  0
GROUP
  5
6415
102
{ACAD_REACTORS
330
18
102
}
330
18
100
AcDbGroup
300

 70
     3
 71
     0
  0
GROUP
  5
49CE
102
{ACAD_REACTORS
330
18
102
}
330
18
100
AcDbGroup
300

 70
     3
 71
     0
  0
GROUP
  5
1C1C
102
{ACAD_REACTORS
330
18
102
}
330
18
100
AcDbGroup
300

 70
     3
 71
     0
  0
GROUP
  5
48DC
102
{ACAD_REACTORS
330
18
102
}
330
18
100
AcDbGroup
300

 70
     3
 71
     0
  0
GROUP
  5
4871
102
{ACAD_REACTORS
330
18
102
}
330
18
100
AcDbGroup
300

 70
     3
 71
     0
  0
GROUP
  5
379A
102
{ACAD_REACTORS
330
18
102
}
330
18
100
AcDbGroup
300

 70
     3
 71
     0
  0
GROUP
  5
49FA
102
{ACAD_REACTORS
330
18
102
}
330
18
100
AcDbGroup
300

 70
     3
 71
     0
  0
GROUP
  5
62CD
102
{ACAD_REACTORS
330
18
102
}
330
18
100
AcDbGroup
300

 70
     3
 71
     0
  0
GROUP
  5
37AC
102
{ACAD_REACTORS
330
18
102
}
330
18
100
AcDbGroup
300

 70
     3
 71
     0
  0
GROUP
  5
49A6
102
{ACAD_REACTORS
330
18
102
}
330
18
100
AcDbGroup
300

 70
     3
 71
     0
  0
GROUP
  5
636F
102
{ACAD_REACTORS
330
18
102
}
330
18
100
AcDbGroup
300

 70
     3
 71
     0
  0
GROUP
  5
1B7D
102
{ACAD_REACTORS
330
18
102
}
330
18
100
AcDbGroup
300

 70
     3
 71
     0
  0
GROUP
  5
4882
102
{ACAD_REACTORS
330
18
102
}
330
18
100
AcDbGroup
300

 70
     3
 71
     0
  0
GROUP
  5
637C
102
{ACAD_REACTORS
330
18
102
}
330
18
100
AcDbGroup
300

 70
     3
 71
     0
  0
GROUP
  5
4957
102
{ACAD_REACTORS
330
18
102
}
330
18
100
AcDbGroup
300

 70
     3
 71
     0
  0
GROUP
  5
1B52
102
{ACAD_REACTORS
330
18
102
}
330
18
100
AcDbGroup
300

 70
     3
 71
     0
  0
GROUP
  5
49E2
102
{ACAD_REACTORS
330
18
102
}
330
18
100
AcDbGroup
300

 70
     3
 71
     0
  0
GROUP
  5
484D
102
{ACAD_REACTORS
330
18
102
}
330
18
100
AcDbGroup
300

 70
     3
 71
     0
  0
GROUP
  5
4A15
102
{ACAD_REACTORS
330
18
102
}
330
18
100
AcDbGroup
300

 70
     3
 71
     0
  0
GROUP
  5
49B7
102
{ACAD_REACTORS
330
18
102
}
330
18
100
AcDbGroup
300

 70
     3
 71
     0
  0
GROUP
  5
49BA
102
{ACAD_REACTORS
330
18
102
}
330
18
100
AcDbGroup
300

 70
     3
 71
     0
  0
GROUP
  5
1BCD
102
{ACAD_REACTORS
330
18
102
}
330
18
100
AcDbGroup
300

 70
     3
 71
     0
  0
GROUP
  5
6223
102
{ACAD_REACTORS
330
18
102
}
330
18
100
AcDbGroup
300

 70
     3
 71
     0
  0
GROUP
  5
4A08
102
{ACAD_REACTORS
330
18
102
}
330
18
100
AcDbGroup
300

 70
     3
 71
     0
  0
GROUP
  5
1BEC
102
{ACAD_REACTORS
330
18
102
}
330
18
100
AcDbGroup
300

 70
     3
 71
     0
  0
GROUP
  5
488B
102
{ACAD_REACTORS
330
18
102
}
330
18
100
AcDbGroup
300

 70
     3
 71
     0
  0
GROUP
  5
1ACD
102
{ACAD_REACTORS
330
18
102
}
330
18
100
AcDbGroup
300

 70
     3
 71
     0
  0
GROUP
  5
4999
102
{ACAD_REACTORS
330
18
102
}
330
18
100
AcDbGroup
300

 70
     3
 71
     0
  0
GROUP
  5
1465
102
{ACAD_REACTORS
330
18
102
}
330
18
100
AcDbGroup
300

 70
     3
 71
     0
  0
GROUP
  5
628C
102
{ACAD_REACTORS
330
18
102
}
330
18
100
AcDbGroup
300

 70
     3
 71
     0
  0
GROUP
  5
48DA
102
{ACAD_REACTORS
330
18
102
}
330
18
100
AcDbGroup
300

 70
     3
 71
     0
  0
GROUP
  5
629A
102
{ACAD_REACTORS
330
18
102
}
330
18
100
AcDbGroup
300

 70
     3
 71
     0
  0
GROUP
  5
1B45
102
{ACAD_REACTORS
330
18
102
}
330
18
100
AcDbGroup
300

 70
     3
 71
     0
  0
GROUP
  5
6222
102
{ACAD_REACTORS
330
18
102
}
330
18
100
AcDbGroup
300

 70
     3
 71
     0
  0
GROUP
  5
6218
102
{ACAD_REACTORS
330
18
102
}
330
18
100
AcDbGroup
300

 70
     3
 71
     0
  0
GROUP
  5
4915
102
{ACAD_REACTORS
330
18
102
}
330
18
100
AcDbGroup
300

 70
     3
 71
     0
  0
GROUP
  5
491A
102
{ACAD_REACTORS
330
18
102
}
330
18
100
AcDbGroup
300

 70
     3
 71
     0
  0
GROUP
  5
48FE
102
{ACAD_REACTORS
330
18
102
}
330
18
100
AcDbGroup
300

 70
     3
 71
     0
  0
GROUP
  5
1C29
102
{ACAD_REACTORS
330
18
102
}
330
18
100
AcDbGroup
300

 70
     3
 71
     0
  0
GROUP
  5
1BF8
102
{ACAD_REACTORS
330
18
102
}
330
18
100
AcDbGroup
300

 70
     3
 71
     0
  0
GROUP
  5
49B3
102
{ACAD_REACTORS
330
18
102
}
330
18
100
AcDbGroup
300

 70
     3
 71
     0
  0
GROUP
  5
629F
102
{ACAD_REACTORS
330
18
102
}
330
18
100
AcDbGroup
300

 70
     3
 71
     0
  0
GROUP
  5
624F
102
{ACAD_REACTORS
330
18
102
}
330
18
100
AcDbGroup
300

 70
     3
 71
     0
  0
GROUP
  5
1B1A
102
{ACAD_REACTORS
330
18
102
}
330
18
100
AcDbGroup
300

 70
     3
 71
     0
  0
GROUP
  5
1AF2
102
{ACAD_REACTORS
330
18
102
}
330
18
100
AcDbGroup
300

 70
     3
 71
     0
  0
GROUP
  5
48B2
102
{ACAD_REACTORS
330
18
102
}
330
18
100
AcDbGroup
300

 70
     3
 71
     0
  0
GROUP
  5
37AE
102
{ACAD_REACTORS
330
18
102
}
330
18
100
AcDbGroup
300

 70
     3
 71
     0
  0
GROUP
  5
63D7
102
{ACAD_REACTORS
330
18
102
}
330
18
100
AcDbGroup
300

 70
     3
 71
     0
  0
GROUP
  5
6216
102
{ACAD_REACTORS
330
18
102
}
330
18
100
AcDbGroup
300

 70
     3
 71
     0
  0
GROUP
  5
1B37
102
{ACAD_REACTORS
330
18
102
}
330
18
100
AcDbGroup
300

 70
     3
 71
     0
  0
GROUP
  5
4986
102
{ACAD_REACTORS
330
18
102
}
330
18
100
AcDbGroup
300

 70
     3
 71
     0
  0
GROUP
  5
62AC
102
{ACAD_REACTORS
330
18
102
}
330
18
100
AcDbGroup
300

 70
     3
 71
     0
  0
GROUP
  5
1B54
102
{ACAD_REACTORS
330
18
102
}
330
18
100
AcDbGroup
300

 70
     3
 71
     0
  0
GROUP
  5
1BEE
102
{ACAD_REACTORS
330
18
102
}
330
18
100
AcDbGroup
300

 70
     3
 71
     0
  0
GROUP
  5
4821
102
{ACAD_REACTORS
330
18
102
}
330
18
100
AcDbGroup
300

 70
     3
 71
     0
  0
GROUP
  5
37A1
102
{ACAD_REACTORS
330
18
102
}
330
18
100
AcDbGroup
300

 70
     3
 71
     0
  0
GROUP
  5
1B80
102
{ACAD_REACTORS
330
18
102
}
330
18
100
AcDbGroup
300

 70
     3
 71
     0
  0
GROUP
  5
6378
102
{ACAD_REACTORS
330
18
102
}
330
18
100
AcDbGroup
300

 70
     3
 71
     0
  0
GROUP
  5
1B34
102
{ACAD_REACTORS
330
18
102
}
330
18
100
AcDbGroup
300

 70
     3
 71
     0
  0
GROUP
  5
1B8E
102
{ACAD_REACTORS
330
18
102
}
330
18
100
AcDbGroup
300

 70
     3
 71
     0
  0
GROUP
  5
1B9F
102
{ACAD_REACTORS
330
18
102
}
330
18
100
AcDbGroup
300

 70
     3
 71
     0
  0
GROUP
  5
63D3
102
{ACAD_REACTORS
330
18
102
}
330
18
100
AcDbGroup
300

 70
     3
 71
     0
  0
GROUP
  5
1AFA
102
{ACAD_REACTORS
330
18
102
}
330
18
100
AcDbGroup
300

 70
     3
 71
     0
  0
GROUP
  5
1B49
102
{ACAD_REACTORS
330
18
102
}
330
18
100
AcDbGroup
300

 70
     3
 71
     0
  0
GROUP
  5
1B9D
102
{ACAD_REACTORS
330
18
102
}
330
18
100
AcDbGroup
300

 70
     3
 71
     0
  0
GROUP
  5
63EC
102
{ACAD_REACTORS
330
18
102
}
330
18
100
AcDbGroup
300

 70
     3
 71
     0
  0
GROUP
  5
4893
102
{ACAD_REACTORS
330
18
102
}
330
18
100
AcDbGroup
300

 70
     3
 71
     0
  0
GROUP
  5
63BF
102
{ACAD_REACTORS
330
18
102
}
330
18
100
AcDbGroup
300

 70
     3
 71
     0
  0
GROUP
  5
6364
102
{ACAD_REACTORS
330
18
102
}
330
18
100
AcDbGroup
300

 70
     3
 71
     0
  0
GROUP
  5
62E0
102
{ACAD_REACTORS
330
18
102
}
330
18
100
AcDbGroup
300

 70
     3
 71
     0
  0
GROUP
  5
6348
102
{ACAD_REACTORS
330
18
102
}
330
18
100
AcDbGroup
300

 70
     3
 71
     0
  0
GROUP
  5
623D
102
{ACAD_REACTORS
330
18
102
}
330
18
100
AcDbGroup
300

 70
     3
 71
     0
  0
GROUP
  5
627C
102
{ACAD_REACTORS
330
18
102
}
330
18
100
AcDbGroup
300

 70
     3
 71
     0
  0
GROUP
  5
48A9
102
{ACAD_REACTORS
330
18
102
}
330
18
100
AcDbGroup
300

 70
     3
 71
     0
  0
GROUP
  5
4839
102
{ACAD_REACTORS
330
18
102
}
330
18
100
AcDbGroup
300

 70
     3
 71
     0
  0
GROUP
  5
1B36
102
{ACAD_REACTORS
330
18
102
}
330
18
100
AcDbGroup
300

 70
     3
 71
     0
  0
GROUP
  5
62A9
102
{ACAD_REACTORS
330
18
102
}
330
18
100
AcDbGroup
300

 70
     3
 71
     0
  0
GROUP
  5
6313
102
{ACAD_REACTORS
330
18
102
}
330
18
100
AcDbGroup
300

 70
     3
 71
     0
  0
GROUP
  5
1BEB
102
{ACAD_REACTORS
330
18
102
}
330
18
100
AcDbGroup
300

 70
     3
 71
     0
  0
GROUP
  5
494C
102
{ACAD_REACTORS
330
18
102
}
330
18
100
AcDbGroup
300

 70
     3
 71
     0
  0
GROUP
  5
1454
102
{ACAD_REACTORS
330
18
102
}
330
18
100
AcDbGroup
300

 70
     3
 71
     0
  0
GROUP
  5
62BF
102
{ACAD_REACTORS
330
18
102
}
330
18
100
AcDbGroup
300

 70
     3
 71
     0
  0
GROUP
  5
4830
102
{ACAD_REACTORS
330
18
102
}
330
18
100
AcDbGroup
300

 70
     3
 71
     0
  0
GROUP
  5
63C7
102
{ACAD_REACTORS
330
18
102
}
330
18
100
AcDbGroup
300

 70
     3
 71
     0
  0
GROUP
  5
49B5
102
{ACAD_REACTORS
330
18
102
}
330
18
100
AcDbGroup
300

 70
     3
 71
     0
  0
GROUP
  5
496A
102
{ACAD_REACTORS
330
18
102
}
330
18
100
AcDbGroup
300

 70
     3
 71
     0
  0
GROUP
  5
1B28
102
{ACAD_REACTORS
330
18
102
}
330
18
100
AcDbGroup
300

 70
     3
 71
     0
  0
GROUP
  5
4944
102
{ACAD_REACTORS
330
18
102
}
330
18
100
AcDbGroup
300

 70
     3
 71
     0
  0
GROUP
  5
6263
102
{ACAD_REACTORS
330
18
102
}
330
18
100
AcDbGroup
300

 70
     3
 71
     0
  0
GROUP
  5
1B65
102
{ACAD_REACTORS
330
18
102
}
330
18
100
AcDbGroup
300

 70
     3
 71
     0
  0
GROUP
  5
1BD7
102
{ACAD_REACTORS
330
18
102
}
330
18
100
AcDbGroup
300

 70
     3
 71
     0
  0
GROUP
  5
4815
102
{ACAD_REACTORS
330
18
102
}
330
18
100
AcDbGroup
300

 70
     3
 71
     0
  0
GROUP
  5
49FF
102
{ACAD_REACTORS
330
18
102
}
330
18
100
AcDbGroup
300

 70
     3
 71
     0
  0
GROUP
  5
49F3
102
{ACAD_REACTORS
330
18
102
}
330
18
100
AcDbGroup
300

 70
     3
 71
     0
  0
GROUP
  5
62F3
102
{ACAD_REACTORS
330
18
102
}
330
18
100
AcDbGroup
300

 70
     3
 71
     0
  0
GROUP
  5
1AF6
102
{ACAD_REACTORS
330
18
102
}
330
18
100
AcDbGroup
300

 70
     3
 71
     0
  0
GROUP
  5
49D4
102
{ACAD_REACTORS
330
18
102
}
330
18
100
AcDbGroup
300

 70
     3
 71
     0
  0
GROUP
  5
1C0D
102
{ACAD_REACTORS
330
18
102
}
330
18
100
AcDbGroup
300

 70
     3
 71
     0
  0
GROUP
  5
480C
102
{ACAD_REACTORS
330
18
102
}
330
18
100
AcDbGroup
300

 70
     3
 71
     0
  0
GROUP
  5
484E
102
{ACAD_REACTORS
330
18
102
}
330
18
100
AcDbGroup
300

 70
     3
 71
     0
  0
GROUP
  5
49E5
102
{ACAD_REACTORS
330
18
102
}
330
18
100
AcDbGroup
300

 70
     3
 71
     0
  0
GROUP
  5
4825
102
{ACAD_REACTORS
330
18
102
}
330
18
100
AcDbGroup
300

 70
     3
 71
     0
  0
GROUP
  5
1C10
102
{ACAD_REACTORS
330
18
102
}
330
18
100
AcDbGroup
300

 70
     3
 71
     0
  0
GROUP
  5
4998
102
{ACAD_REACTORS
330
18
102
}
330
18
100
AcDbGroup
300

 70
     3
 71
     0
  0
GROUP
  5
1BDC
102
{ACAD_REACTORS
330
18
102
}
330
18
100
AcDbGroup
300

 70
     3
 71
     0
  0
GROUP
  5
37B4
102
{ACAD_REACTORS
330
18
102
}
330
18
100
AcDbGroup
300

 70
     3
 71
     0
  0
GROUP
  5
1B57
102
{ACAD_REACTORS
330
18
102
}
330
18
100
AcDbGroup
300

 70
     3
 71
     0
  0
GROUP
  5
4891
102
{ACAD_REACTORS
330
18
102
}
330
18
100
AcDbGroup
300

 70
     3
 71
     0
  0
GROUP
  5
4A09
102
{ACAD_REACTORS
330
18
102
}
330
18
100
AcDbGroup
300

 70
     3
 71
     0
  0
GROUP
  5
4970
102
{ACAD_REACTORS
330
18
102
}
330
18
100
AcDbGroup
300

 70
     3
 71
     0
  0
GROUP
  5
1C3E
102
{ACAD_REACTORS
330
18
102
}
330
18
100
AcDbGroup
300

 70
     3
 71
     0
  0
GROUP
  5
1C4F
102
{ACAD_REACTORS
330
18
102
}
330
18
100
AcDbGroup
300

 70
     3
 71
     0
  0
GROUP
  5
1B87
102
{ACAD_REACTORS
330
18
102
}
330
18
100
AcDbGroup
300

 70
     3
 71
     0
  0
GROUP
  5
62FB
102
{ACAD_REACTORS
330
18
102
}
330
18
100
AcDbGroup
300

 70
     3
 71
     0
  0
GROUP
  5
627E
102
{ACAD_REACTORS
330
18
102
}
330
18
100
AcDbGroup
300

 70
     3
 71
     0
  0
GROUP
  5
480B
102
{ACAD_REACTORS
330
18
102
}
330
18
100
AcDbGroup
300

 70
     3
 71
     0
  0
GROUP
  5
6237
102
{ACAD_REACTORS
330
18
102
}
330
18
100
AcDbGroup
300

 70
     3
 71
     0
  0
GROUP
  5
1C1F
102
{ACAD_REACTORS
330
18
102
}
330
18
100
AcDbGroup
300

 70
     3
 71
     0
  0
GROUP
  5
4A06
102
{ACAD_REACTORS
330
18
102
}
330
18
100
AcDbGroup
300

 70
     3
 71
     0
  0
GROUP
  5
6320
102
{ACAD_REACTORS
330
18
102
}
330
18
100
AcDbGroup
300

 70
     3
 71
     0
  0
GROUP
  5
631F
102
{ACAD_REACTORS
330
18
102
}
330
18
100
AcDbGroup
300

 70
     3
 71
     0
  0
GROUP
  5
379C
102
{ACAD_REACTORS
330
18
102
}
330
18
100
AcDbGroup
300

 70
     3
 71
     0
  0
GROUP
  5
1B46
102
{ACAD_REACTORS
330
18
102
}
330
18
100
AcDbGroup
300

 70
     3
 71
     0
  0
GROUP
  5
37A0
102
{ACAD_REACTORS
330
18
102
}
330
18
100
AcDbGroup
300

 70
     3
 71
     0
  0
GROUP
  5
1C04
102
{ACAD_REACTORS
330
18
102
}
330
18
100
AcDbGroup
300

 70
     3
 71
     0
  0
GROUP
  5
1BE5
102
{ACAD_REACTORS
330
18
102
}
330
18
100
AcDbGroup
300

 70
     3
 71
     0
  0
GROUP
  5
63AB
102
{ACAD_REACTORS
330
18
102
}
330
18
100
AcDbGroup
300

 70
     3
 71
     0
  0
GROUP
  5
625A
102
{ACAD_REACTORS
330
18
102
}
330
18
100
AcDbGroup
300

 70
     3
 71
     0
  0
GROUP
  5
49C5
102
{ACAD_REACTORS
330
18
102
}
330
18
100
AcDbGroup
300

 70
     3
 71
     0
  0
GROUP
  5
37B3
102
{ACAD_REACTORS
330
18
102
}
330
18
100
AcDbGroup
300

 70
     3
 71
     0
  0
GROUP
  5
1B6B
102
{ACAD_REACTORS
330
18
102
}
330
18
100
AcDbGroup
300

 70
     3
 71
     0
  0
GROUP
  5
495F
102
{ACAD_REACTORS
330
18
102
}
330
18
100
AcDbGroup
300

 70
     3
 71
     0
  0
GROUP
  5
1AFB
102
{ACAD_REACTORS
330
18
102
}
330
18
100
AcDbGroup
300

 70
     3
 71
     0
  0
GROUP
  5
1ADC
102
{ACAD_REACTORS
330
18
102
}
330
18
100
AcDbGroup
300

 70
     3
 71
     0
  0
GROUP
  5
1B97
102
{ACAD_REACTORS
330
18
102
}
330
18
100
AcDbGroup
300

 70
     3
 71
     0
  0
GROUP
  5
624B
102
{ACAD_REACTORS
330
18
102
}
330
18
100
AcDbGroup
300

 70
     3
 71
     0
  0
GROUP
  5
4A19
102
{ACAD_REACTORS
330
18
102
}
330
18
100
AcDbGroup
300

 70
     3
 71
     0
  0
GROUP
  5
1B85
102
{ACAD_REACTORS
330
18
102
}
330
18
100
AcDbGroup
300

 70
     3
 71
     0
  0
GROUP
  5
1ADE
102
{ACAD_REACTORS
330
18
102
}
330
18
100
AcDbGroup
300

 70
     3
 71
     0
  0
GROUP
  5
493A
102
{ACAD_REACTORS
330
18
102
}
330
18
100
AcDbGroup
300

 70
     3
 71
     0
  0
GROUP
  5
483D
102
{ACAD_REACTORS
330
18
102
}
330
18
100
AcDbGroup
300

 70
     3
 71
     0
  0
GROUP
  5
4818
102
{ACAD_REACTORS
330
18
102
}
330
18
100
AcDbGroup
300

 70
     3
 71
     0
  0
GROUP
  5
63A6
102
{ACAD_REACTORS
330
18
102
}
330
18
100
AcDbGroup
300

 70
     3
 71
     0
  0
GROUP
  5
4910
102
{ACAD_REACTORS
330
18
102
}
330
18
100
AcDbGroup
300

 70
     3
 71
     0
  0
GROUP
  5
6389
102
{ACAD_REACTORS
330
18
102
}
330
18
100
AcDbGroup
300

 70
     3
 71
     0
  0
GROUP
  5
145C
102
{ACAD_REACTORS
330
18
102
}
330
18
100
AcDbGroup
300

 70
     3
 71
     0
  0
GROUP
  5
1B44
102
{ACAD_REACTORS
330
18
102
}
330
18
100
AcDbGroup
300

 70
     3
 71
     0
  0
GROUP
  5
490E
102
{ACAD_REACTORS
330
18
102
}
330
18
100
AcDbGroup
300

 70
     3
 71
     0
  0
GROUP
  5
1C40
102
{ACAD_REACTORS
330
18
102
}
330
18
100
AcDbGroup
300

 70
     3
 71
     0
  0
GROUP
  5
1C33
102
{ACAD_REACTORS
330
18
102
}
330
18
100
AcDbGroup
300

 70
     3
 71
     0
  0
GROUP
  5
1C0F
102
{ACAD_REACTORS
330
18
102
}
330
18
100
AcDbGroup
300

 70
     3
 71
     0
  0
GROUP
  5
37B2
102
{ACAD_REACTORS
330
18
102
}
330
18
100
AcDbGroup
300

 70
     3
 71
     0
  0
GROUP
  5
1B42
102
{ACAD_REACTORS
330
18
102
}
330
18
100
AcDbGroup
300

 70
     3
 71
     0
  0
GROUP
  5
1B23
102
{ACAD_REACTORS
330
18
102
}
330
18
100
AcDbGroup
300

 70
     3
 71
     0
  0
GROUP
  5
635D
102
{ACAD_REACTORS
330
18
102
}
330
18
100
AcDbGroup
300

 70
     3
 71
     0
  0
GROUP
  5
48CD
102
{ACAD_REACTORS
330
18
102
}
330
18
100
AcDbGroup
300

 70
     3
 71
     0
  0
GROUP
  5
6358
102
{ACAD_REACTORS
330
18
102
}
330
18
100
AcDbGroup
300

 70
     3
 71
     0
  0
GROUP
  5
1C2C
102
{ACAD_REACTORS
330
18
102
}
330
18
100
AcDbGroup
300

 70
     3
 71
     0
  0
GROUP
  5
49BF
102
{ACAD_REACTORS
330
18
102
}
330
18
100
AcDbGroup
300

 70
     3
 71
     0
  0
GROUP
  5
1BC3
102
{ACAD_REACTORS
330
18
102
}
330
18
100
AcDbGroup
300

 70
     3
 71
     0
  0
GROUP
  5
4838
102
{ACAD_REACTORS
330
18
102
}
330
18
100
AcDbGroup
300

 70
     3
 71
     0
  0
GROUP
  5
1B17
102
{ACAD_REACTORS
330
18
102
}
330
18
100
AcDbGroup
300

 70
     3
 71
     0
  0
GROUP
  5
1AD8
102
{ACAD_REACTORS
330
18
102
}
330
18
100
AcDbGroup
300

 70
     3
 71
     0
  0
GROUP
  5
1B71
102
{ACAD_REACTORS
330
18
102
}
330
18
100
AcDbGroup
300

 70
     3
 71
     0
  0
GROUP
  5
63B0
102
{ACAD_REACTORS
330
18
102
}
330
18
100
AcDbGroup
300

 70
     3
 71
     0
  0
GROUP
  5
145D
102
{ACAD_REACTORS
330
18
102
}
330
18
100
AcDbGroup
300

 70
     3
 71
     0
  0
GROUP
  5
62E7
102
{ACAD_REACTORS
330
18
102
}
330
18
100
AcDbGroup
300

 70
     3
 71
     0
  0
GROUP
  5
4820
102
{ACAD_REACTORS
330
18
102
}
330
18
100
AcDbGroup
300

 70
     3
 71
     0
  0
GROUP
  5
638E
102
{ACAD_REACTORS
330
18
102
}
330
18
100
AcDbGroup
300

 70
     3
 71
     0
  0
GROUP
  5
1C31
102
{ACAD_REACTORS
330
18
102
}
330
18
100
AcDbGroup
300

 70
     3
 71
     0
  0
GROUP
  5
6416
102
{ACAD_REACTORS
330
18
102
}
330
18
100
AcDbGroup
300

 70
     3
 71
     0
  0
GROUP
  5
62D6
102
{ACAD_REACTORS
330
18
102
}
330
18
100
AcDbGroup
300

 70
     3
 71
     0
  0
GROUP
  5
640E
102
{ACAD_REACTORS
330
18
102
}
330
18
100
AcDbGroup
300

 70
     3
 71
     0
  0
GROUP
  5
37AB
102
{ACAD_REACTORS
330
18
102
}
330
18
100
AcDbGroup
300

 70
     3
 71
     0
  0
GROUP
  5
1B5A
102
{ACAD_REACTORS
330
18
102
}
330
18
100
AcDbGroup
300

 70
     3
 71
     0
  0
GROUP
  5
631B
102
{ACAD_REACTORS
330
18
102
}
330
18
100
AcDbGroup
300

 70
     3
 71
     0
  0
GROUP
  5
48AF
102
{ACAD_REACTORS
330
18
102
}
330
18
100
AcDbGroup
300

 70
     3
 71
     0
  0
GROUP
  5
48F7
102
{ACAD_REACTORS
330
18
102
}
330
18
100
AcDbGroup
300

 70
     3
 71
     0
  0
GROUP
  5
1B40
102
{ACAD_REACTORS
330
18
102
}
330
18
100
AcDbGroup
300

 70
     3
 71
     0
  0
GROUP
  5
1B66
102
{ACAD_REACTORS
330
18
102
}
330
18
100
AcDbGroup
300

 70
     3
 71
     0
  0
GROUP
  5
1C2E
102
{ACAD_REACTORS
330
18
102
}
330
18
100
AcDbGroup
300

 70
     3
 71
     0
  0
GROUP
  5
4885
102
{ACAD_REACTORS
330
18
102
}
330
18
100
AcDbGroup
300

 70
     3
 71
     0
  0
GROUP
  5
1B1C
102
{ACAD_REACTORS
330
18
102
}
330
18
100
AcDbGroup
300

 70
     3
 71
     0
  0
GROUP
  5
62D5
102
{ACAD_REACTORS
330
18
102
}
330
18
100
AcDbGroup
300

 70
     3
 71
     0
  0
GROUP
  5
63E2
102
{ACAD_REACTORS
330
18
102
}
330
18
100
AcDbGroup
300

 70
     3
 71
     0
  0
GROUP
  5
6344
102
{ACAD_REACTORS
330
18
102
}
330
18
100
AcDbGroup
300

 70
     3
 71
     0
  0
GROUP
  5
486A
102
{ACAD_REACTORS
330
18
102
}
330
18
100
AcDbGroup
300

 70
     3
 71
     0
  0
GROUP
  5
1B3F
102
{ACAD_REACTORS
330
18
102
}
330
18
100
AcDbGroup
300

 70
     3
 71
     0
  0
GROUP
  5
49D6
102
{ACAD_REACTORS
330
18
102
}
330
18
100
AcDbGroup
300

 70
     3
 71
     0
  0
GROUP
  5
628B
102
{ACAD_REACTORS
330
18
102
}
330
18
100
AcDbGroup
300

 70
     3
 71
     0
  0
GROUP
  5
494E
102
{ACAD_REACTORS
330
18
102
}
330
18
100
AcDbGroup
300

 70
     3
 71
     0
  0
GROUP
  5
6312
102
{ACAD_REACTORS
330
18
102
}
330
18
100
AcDbGroup
300

 70
     3
 71
     0
  0
GROUP
  5
49A8
102
{ACAD_REACTORS
330
18
102
}
330
18
100
AcDbGroup
300

 70
     3
 71
     0
  0
GROUP
  5
48C7
102
{ACAD_REACTORS
330
18
102
}
330
18
100
AcDbGroup
300

 70
     3
 71
     1
  0
GROUP
  5
1BAC
102
{ACAD_REACTORS
330
18
102
}
330
18
100
AcDbGroup
300

 70
     3
 71
     0
  0
GROUP
  5
1BFE
102
{ACAD_REACTORS
330
18
102
}
330
18
100
AcDbGroup
300

 70
     3
 71
     0
  0
GROUP
  5
495C
102
{ACAD_REACTORS
330
18
102
}
330
18
100
AcDbGroup
300

 70
     3
 71
     0
  0
GROUP
  5
493B
102
{ACAD_REACTORS
330
18
102
}
330
18
100
AcDbGroup
300

 70
     3
 71
     0
  0
GROUP
  5
4A13
102
{ACAD_REACTORS
330
18
102
}
330
18
100
AcDbGroup
300

 70
     3
 71
     0
  0
GROUP
  5
62A1
102
{ACAD_REACTORS
330
18
102
}
330
18
100
AcDbGroup
300

 70
     3
 71
     0
  0
GROUP
  5
1B11
102
{ACAD_REACTORS
330
18
102
}
330
18
100
AcDbGroup
300

 70
     3
 71
     0
  0
GROUP
  5
6382
102
{ACAD_REACTORS
330
18
102
}
330
18
100
AcDbGroup
300

 70
     3
 71
     0
  0
GROUP
  5
62A3
102
{ACAD_REACTORS
330
18
102
}
330
18
100
AcDbGroup
300

 70
     3
 71
     0
  0
GROUP
  5
633F
102
{ACAD_REACTORS
330
18
102
}
330
18
100
AcDbGroup
300

 70
     3
 71
     0
  0
GROUP
  5
1464
102
{ACAD_REACTORS
330
18
102
}
330
18
100
AcDbGroup
300

 70
     3
 71
     0
  0
GROUP
  5
48EE
102
{ACAD_REACTORS
330
18
102
}
330
18
100
AcDbGroup
300

 70
     3
 71
     0
  0
GROUP
  5
4877
102
{ACAD_REACTORS
330
18
102
}
330
18
100
AcDbGroup
300

 70
     3
 71
     0
  0
GROUP
  5
62C4
102
{ACAD_REACTORS
330
18
102
}
330
18
100
AcDbGroup
300

 70
     3
 71
     0
  0
GROUP
  5
6407
102
{ACAD_REACTORS
330
18
102
}
330
18
100
AcDbGroup
300

 70
     3
 71
     0
  0
GROUP
  5
1BD2
102
{ACAD_REACTORS
330
18
102
}
330
18
100
AcDbGroup
300

 70
     3
 71
     0
  0
GROUP
  5
49D0
102
{ACAD_REACTORS
330
18
102
}
330
18
100
AcDbGroup
300

 70
     3
 71
     0
  0
GROUP
  5
1B61
102
{ACAD_REACTORS
330
18
102
}
330
18
100
AcDbGroup
300

 70
     3
 71
     0
  0
GROUP
  5
63B8
102
{ACAD_REACTORS
330
18
102
}
330
18
100
AcDbGroup
300

 70
     3
 71
     0
  0
GROUP
  5
48DE
102
{ACAD_REACTORS
330
18
102
}
330
18
100
AcDbGroup
300

 70
     3
 71
     0
  0
GROUP
  5
634B
102
{ACAD_REACTORS
330
18
102
}
330
18
100
AcDbGroup
300

 70
     3
 71
     0
  0
GROUP
  5
62D9
102
{ACAD_REACTORS
330
18
102
}
330
18
100
AcDbGroup
300

 70
     3
 71
     0
  0
GROUP
  5
6310
102
{ACAD_REACTORS
330
18
102
}
330
18
100
AcDbGroup
300

 70
     3
 71
     0
  0
GROUP
  5
492F
102
{ACAD_REACTORS
330
18
102
}
330
18
100
AcDbGroup
300

 70
     3
 71
     0
  0
GROUP
  5
495D
102
{ACAD_REACTORS
330
18
102
}
330
18
100
AcDbGroup
300

 70
     3
 71
     0
  0
GROUP
  5
145F
102
{ACAD_REACTORS
330
18
102
}
330
18
100
AcDbGroup
300

 70
     3
 71
     0
  0
GROUP
  5
63AA
102
{ACAD_REACTORS
330
18
102
}
330
18
100
AcDbGroup
300

 70
     3
 71
     0
  0
GROUP
  5
48E2
102
{ACAD_REACTORS
330
18
102
}
330
18
100
AcDbGroup
300

 70
     3
 71
     0
  0
GROUP
  5
48CA
102
{ACAD_REACTORS
330
18
102
}
330
18
100
AcDbGroup
300

 70
     3
 71
     0
  0
GROUP
  5
48A1
102
{ACAD_REACTORS
330
18
102
}
330
18
100
AcDbGroup
300

 70
     3
 71
     0
  0
GROUP
  5
499F
102
{ACAD_REACTORS
330
18
102
}
330
18
100
AcDbGroup
300

 70
     3
 71
     0
  0
GROUP
  5
6388
102
{ACAD_REACTORS
330
18
102
}
330
18
100
AcDbGroup
300

 70
     3
 71
     0
  0
GROUP
  5
62A8
102
{ACAD_REACTORS
330
18
102
}
330
18
100
AcDbGroup
300

 70
     3
 71
     0
  0
GROUP
  5
4860
102
{ACAD_REACTORS
330
18
102
}
330
18
100
AcDbGroup
300

 70
     3
 71
     0
  0
GROUP
  5
1BF1
102
{ACAD_REACTORS
330
18
102
}
330
18
100
AcDbGroup
300

 70
     3
 71
     0
  0
GROUP
  5
4834
102
{ACAD_REACTORS
330
18
102
}
330
18
100
AcDbGroup
300

 70
     3
 71
     0
  0
GROUP
  5
1468
102
{ACAD_REACTORS
330
18
102
}
330
18
100
AcDbGroup
300

 70
     3
 71
     0
  0
GROUP
  5
62B6
102
{ACAD_REACTORS
330
18
102
}
330
18
100
AcDbGroup
300

 70
     3
 71
     0
  0
GROUP
  5
4828
102
{ACAD_REACTORS
330
18
102
}
330
18
100
AcDbGroup
300

 70
     3
 71
     0
  0
GROUP
  5
4938
102
{ACAD_REACTORS
330
18
102
}
330
18
100
AcDbGroup
300

 70
     3
 71
     0
  0
GROUP
  5
4940
102
{ACAD_REACTORS
330
18
102
}
330
18
100
AcDbGroup
300

 70
     3
 71
     0
  0
GROUP
  5
1BFD
102
{ACAD_REACTORS
330
18
102
}
330
18
100
AcDbGroup
300

 70
     3
 71
     0
  0
GROUP
  5
48D8
102
{ACAD_REACTORS
330
18
102
}
330
18
100
AcDbGroup
300

 70
     3
 71
     0
  0
GROUP
  5
63F1
102
{ACAD_REACTORS
330
18
102
}
330
18
100
AcDbGroup
300

 70
     3
 71
     0
  0
GROUP
  5
490A
102
{ACAD_REACTORS
330
18
102
}
330
18
100
AcDbGroup
300

 70
     3
 71
     0
  0
GROUP
  5
48ED
102
{ACAD_REACTORS
330
18
102
}
330
18
100
AcDbGroup
300

 70
     3
 71
     0
  0
GROUP
  5
6365
102
{ACAD_REACTORS
330
18
102
}
330
18
100
AcDbGroup
300

 70
     3
 71
     0
  0
GROUP
  5
1B15
102
{ACAD_REACTORS
330
18
102
}
330
18
100
AcDbGroup
300

 70
     3
 71
     0
  0
GROUP
  5
62BD
102
{ACAD_REACTORS
330
18
102
}
330
18
100
AcDbGroup
300

 70
     3
 71
     0
  0
GROUP
  5
1C2F
102
{ACAD_REACTORS
330
18
102
}
330
18
100
AcDbGroup
300

 70
     3
 71
     0
  0
GROUP
  5
1B7C
102
{ACAD_REACTORS
330
18
102
}
330
18
100
AcDbGroup
300

 70
     3
 71
     0
  0
GROUP
  5
3798
102
{ACAD_REACTORS
330
18
102
}
330
18
100
AcDbGroup
300

 70
     3
 71
     0
  0
GROUP
  5
1AE3
102
{ACAD_REACTORS
330
18
102
}
330
18
100
AcDbGroup
300

 70
     3
 71
     0
  0
GROUP
  5
636C
102
{ACAD_REACTORS
330
18
102
}
330
18
100
AcDbGroup
300

 70
     3
 71
     0
  0
GROUP
  5
37B1
102
{ACAD_REACTORS
330
18
102
}
330
18
100
AcDbGroup
300

 70
     3
 71
     0
  0
GROUP
  5
4889
102
{ACAD_REACTORS
330
18
102
}
330
18
100
AcDbGroup
300

 70
     3
 71
     0
  0
GROUP
  5
4943
102
{ACAD_REACTORS
330
18
102
}
330
18
100
AcDbGroup
300

 70
     3
 71
     0
  0
GROUP
  5
488D
102
{ACAD_REACTORS
330
18
102
}
330
18
100
AcDbGroup
300

 70
     3
 71
     0
  0
GROUP
  5
63C4
102
{ACAD_REACTORS
330
18
102
}
330
18
100
AcDbGroup
300

 70
     3
 71
     0
  0
GROUP
  5
1B33
102
{ACAD_REACTORS
330
18
102
}
330
18
100
AcDbGroup
300

 70
     3
 71
     0
  0
GROUP
  5
629E
102
{ACAD_REACTORS
330
18
102
}
330
18
100
AcDbGroup
300

 70
     3
 71
     0
  0
GROUP
  5
623C
102
{ACAD_REACTORS
330
18
102
}
330
18
100
AcDbGroup
300

 70
     3
 71
     0
  0
GROUP
  5
484B
102
{ACAD_REACTORS
330
18
102
}
330
18
100
AcDbGroup
300

 70
     3
 71
     0
  0
GROUP
  5
1B76
102
{ACAD_REACTORS
330
18
102
}
330
18
100
AcDbGroup
300

 70
     3
 71
     0
  0
GROUP
  5
1BA1
102
{ACAD_REACTORS
330
18
102
}
330
18
100
AcDbGroup
300

 70
     3
 71
     0
  0
GROUP
  5
1B63
102
{ACAD_REACTORS
330
18
102
}
330
18
100
AcDbGroup
300

 70
     3
 71
     0
  0
GROUP
  5
63DB
102
{ACAD_REACTORS
330
18
102
}
330
18
100
AcDbGroup
300

 70
     3
 71
     0
  0
GROUP
  5
4816
102
{ACAD_REACTORS
330
18
102
}
330
18
100
AcDbGroup
300

 70
     3
 71
     0
  0
GROUP
  5
635F
102
{ACAD_REACTORS
330
18
102
}
330
18
100
AcDbGroup
300

 70
     3
 71
     0
  0
GROUP
  5
6281
102
{ACAD_REACTORS
330
18
102
}
330
18
100
AcDbGroup
300

 70
     3
 71
     0
  0
GROUP
  5
4851
102
{ACAD_REACTORS
330
18
102
}
330
18
100
AcDbGroup
300

 70
     3
 71
     0
  0
GROUP
  5
62E2
102
{ACAD_REACTORS
330
18
102
}
330
18
100
AcDbGroup
300

 70
     3
 71
     0
  0
GROUP
  5
1AE4
102
{ACAD_REACTORS
330
18
102
}
330
18
100
AcDbGroup
300

 70
     3
 71
     0
  0
GROUP
  5
628D
102
{ACAD_REACTORS
330
18
102
}
330
18
100
AcDbGroup
300

 70
     3
 71
     0
  0
GROUP
  5
641E
102
{ACAD_REACTORS
330
18
102
}
330
18
100
AcDbGroup
300

 70
     3
 71
     0
  0
GROUP
  5
639B
102
{ACAD_REACTORS
330
18
102
}
330
18
100
AcDbGroup
300

 70
     3
 71
     0
  0
GROUP
  5
6259
102
{ACAD_REACTORS
330
18
102
}
330
18
100
AcDbGroup
300

 70
     3
 71
     0
  0
GROUP
  5
62BC
102
{ACAD_REACTORS
330
18
102
}
330
18
100
AcDbGroup
300

 70
     3
 71
     0
  0
GROUP
  5
4985
102
{ACAD_REACTORS
330
18
102
}
330
18
100
AcDbGroup
300

 70
     3
 71
     0
  0
GROUP
  5
48B1
102
{ACAD_REACTORS
330
18
102
}
330
18
100
AcDbGroup
300

 70
     3
 71
     0
  0
GROUP
  5
481C
102
{ACAD_REACTORS
330
18
102
}
330
18
100
AcDbGroup
300

 70
     3
 71
     0
  0
GROUP
  5
62DC
102
{ACAD_REACTORS
330
18
102
}
330
18
100
AcDbGroup
300

 70
     3
 71
     0
  0
GROUP
  5
63B4
102
{ACAD_REACTORS
330
18
102
}
330
18
100
AcDbGroup
300

 70
     3
 71
     0
  0
GROUP
  5
495A
102
{ACAD_REACTORS
330
18
102
}
330
18
100
AcDbGroup
300

 70
     3
 71
     0
  0
GROUP
  5
48F3
102
{ACAD_REACTORS
330
18
102
}
330
18
100
AcDbGroup
300

 70
     3
 71
     0
  0
GROUP
  5
622E
102
{ACAD_REACTORS
330
18
102
}
330
18
100
AcDbGroup
300

 70
     3
 71
     0
  0
GROUP
  5
1B90
102
{ACAD_REACTORS
330
18
102
}
330
18
100
AcDbGroup
300

 70
     3
 71
     0
  0
GROUP
  5
4A0A
102
{ACAD_REACTORS
330
18
102
}
330
18
100
AcDbGroup
300

 70
     3
 71
     0
  0
GROUP
  5
632A
102
{ACAD_REACTORS
330
18
102
}
330
18
100
AcDbGroup
300

 70
     3
 71
     0
  0
GROUP
  5
1C06
102
{ACAD_REACTORS
330
18
102
}
330
18
100
AcDbGroup
300

 70
     3
 71
     0
  0
GROUP
  5
1B1D
102
{ACAD_REACTORS
330
18
102
}
330
18
100
AcDbGroup
300

 70
     3
 71
     0
  0
GROUP
  5
62EB
102
{ACAD_REACTORS
330
18
102
}
330
18
100
AcDbGroup
300

 70
     3
 71
     0
  0
GROUP
  5
1B21
102
{ACAD_REACTORS
330
18
102
}
330
18
100
AcDbGroup
300

 70
     3
 71
     0
  0
GROUP
  5
48B0
102
{ACAD_REACTORS
330
18
102
}
330
18
100
AcDbGroup
300

 70
     3
 71
     0
  0
GROUP
  5
1BA4
102
{ACAD_REACTORS
330
18
102
}
330
18
100
AcDbGroup
300

 70
     3
 71
     0
  0
GROUP
  5
640F
102
{ACAD_REACTORS
330
18
102
}
330
18
100
AcDbGroup
300

 70
     3
 71
     0
  0
GROUP
  5
62FA
102
{ACAD_REACTORS
330
18
102
}
330
18
100
AcDbGroup
300

 70
     3
 71
     0
  0
GROUP
  5
6366
102
{ACAD_REACTORS
330
18
102
}
330
18
100
AcDbGroup
300

 70
     3
 71
     0
  0
GROUP
  5
1C0B
102
{ACAD_REACTORS
330
18
102
}
330
18
100
AcDbGroup
300

 70
     3
 71
     0
  0
GROUP
  5
49A3
102
{ACAD_REACTORS
330
18
102
}
330
18
100
AcDbGroup
300

 70
     3
 71
     0
  0
GROUP
  5
1B0F
102
{ACAD_REACTORS
330
18
102
}
330
18
100
AcDbGroup
300

 70
     3
 71
     0
  0
GROUP
  5
1C5A
102
{ACAD_REACTORS
330
18
102
}
330
18
100
AcDbGroup
300

 70
     3
 71
     0
  0
GROUP
  5
1ADB
102
{ACAD_REACTORS
330
18
102
}
330
18
100
AcDbGroup
300

 70
     3
 71
     0
  0
GROUP
  5
494F
102
{ACAD_REACTORS
330
18
102
}
330
18
100
AcDbGroup
300

 70
     3
 71
     0
  0
GROUP
  5
6235
102
{ACAD_REACTORS
330
18
102
}
330
18
100
AcDbGroup
300

 70
     3
 71
     0
  0
GROUP
  5
379D
102
{ACAD_REACTORS
330
18
102
}
330
18
100
AcDbGroup
300

 70
     3
 71
     0
  0
GROUP
  5
48FD
102
{ACAD_REACTORS
330
18
102
}
330
18
100
AcDbGroup
300

 70
     3
 71
     0
  0
GROUP
  5
1B9B
102
{ACAD_REACTORS
330
18
102
}
330
18
100
AcDbGroup
300

 70
     3
 71
     0
  0
GROUP
  5
4906
102
{ACAD_REACTORS
330
18
102
}
330
18
100
AcDbGroup
300

 70
     3
 71
     0
  0
GROUP
  5
6380
102
{ACAD_REACTORS
330
18
102
}
330
18
100
AcDbGroup
300

 70
     3
 71
     0
  0
GROUP
  5
49A4
102
{ACAD_REACTORS
330
18
102
}
330
18
100
AcDbGroup
300

 70
     3
 71
     0
  0
GROUP
  5
486D
102
{ACAD_REACTORS
330
18
102
}
330
18
100
AcDbGroup
300

 70
     3
 71
     0
  0
GROUP
  5
63EF
102
{ACAD_REACTORS
330
18
102
}
330
18
100
AcDbGroup
300

 70
     3
 71
     0
  0
GROUP
  5
63B2
102
{ACAD_REACTORS
330
18
102
}
330
18
100
AcDbGroup
300

 70
     3
 71
     0
  0
GROUP
  5
482A
102
{ACAD_REACTORS
330
18
102
}
330
18
100
AcDbGroup
300

 70
     3
 71
     0
  0
GROUP
  5
4835
102
{ACAD_REACTORS
330
18
102
}
330
18
100
AcDbGroup
300

 70
     3
 71
     0
  0
GROUP
  5
1C11
102
{ACAD_REACTORS
330
18
102
}
330
18
100
AcDbGroup
300

 70
     3
 71
     0
  0
GROUP
  5
483B
102
{ACAD_REACTORS
330
18
102
}
330
18
100
AcDbGroup
300

 70
     3
 71
     0
  0
GROUP
  5
6385
102
{ACAD_REACTORS
330
18
102
}
330
18
100
AcDbGroup
300

 70
     3
 71
     0
  0
GROUP
  5
4965
102
{ACAD_REACTORS
330
18
102
}
330
18
100
AcDbGroup
300

 70
     3
 71
     0
  0
GROUP
  5
4904
102
{ACAD_REACTORS
330
18
102
}
330
18
100
AcDbGroup
300

 70
     3
 71
     0
  0
GROUP
  5
1AEA
102
{ACAD_REACTORS
330
18
102
}
330
18
100
AcDbGroup
300

 70
     3
 71
     0
  0
GROUP
  5
1C0A
102
{ACAD_REACTORS
330
18
102
}
330
18
100
AcDbGroup
300

 70
     3
 71
     0
  0
GROUP
  5
1AD3
102
{ACAD_REACTORS
330
18
102
}
330
18
100
AcDbGroup
300

 70
     3
 71
     0
  0
GROUP
  5
496B
102
{ACAD_REACTORS
330
18
102
}
330
18
100
AcDbGroup
300

 70
     3
 71
     0
  0
GROUP
  5
6296
102
{ACAD_REACTORS
330
18
102
}
330
18
100
AcDbGroup
300

 70
     3
 71
     0
  0
GROUP
  5
48CF
102
{ACAD_REACTORS
330
18
102
}
330
18
100
AcDbGroup
300

 70
     3
 71
     0
  0
GROUP
  5
6257
102
{ACAD_REACTORS
330
18
102
}
330
18
100
AcDbGroup
300

 70
     3
 71
     0
  0
GROUP
  5
1ACB
102
{ACAD_REACTORS
330
18
102
}
330
18
100
AcDbGroup
300

 70
     3
 71
     0
  0
GROUP
  5
1B05
102
{ACAD_REACTORS
330
18
102
}
330
18
100
AcDbGroup
300

 70
     3
 71
     0
  0
GROUP
  5
637D
102
{ACAD_REACTORS
330
18
102
}
330
18
100
AcDbGroup
300

 70
     3
 71
     0
  0
GROUP
  5
1AFC
102
{ACAD_REACTORS
330
18
102
}
330
18
100
AcDbGroup
300

 70
     3
 71
     0
  0
GROUP
  5
48B6
102
{ACAD_REACTORS
330
18
102
}
330
18
100
AcDbGroup
300

 70
     3
 71
     0
  0
GROUP
  5
498E
102
{ACAD_REACTORS
330
18
102
}
330
18
100
AcDbGroup
300

 70
     3
 71
     0
  0
GROUP
  5
4876
102
{ACAD_REACTORS
330
18
102
}
330
18
100
AcDbGroup
300

 70
     3
 71
     0
  0
GROUP
  5
1B82
102
{ACAD_REACTORS
330
18
102
}
330
18
100
AcDbGroup
300

 70
     3
 71
     0
  0
GROUP
  5
62FC
102
{ACAD_REACTORS
330
18
102
}
330
18
100
AcDbGroup
300

 70
     3
 71
     0
  0
GROUP
  5
48C0
102
{ACAD_REACTORS
330
18
102
}
330
18
100
AcDbGroup
300

 70
     3
 71
     0
  0
GROUP
  5
484F
102
{ACAD_REACTORS
330
18
102
}
330
18
100
AcDbGroup
300

 70
     3
 71
     0
  0
GROUP
  5
4976
102
{ACAD_REACTORS
330
18
102
}
330
18
100
AcDbGroup
300

 70
     3
 71
     0
  0
GROUP
  5
1BA0
102
{ACAD_REACTORS
330
18
102
}
330
18
100
AcDbGroup
300

 70
     3
 71
     0
  0
GROUP
  5
63A0
102
{ACAD_REACTORS
330
18
102
}
330
18
100
AcDbGroup
300

 70
     3
 71
     0
  0
GROUP
  5
1BA9
102
{ACAD_REACTORS
330
18
102
}
330
18
100
AcDbGroup
300

 70
     3
 71
     0
  0
GROUP
  5
6271
102
{ACAD_REACTORS
330
18
102
}
330
18
100
AcDbGroup
300

 70
     3
 71
     0
  0
GROUP
  5
48A6
102
{ACAD_REACTORS
330
18
102
}
330
18
100
AcDbGroup
300

 70
     3
 71
     0
  0
GROUP
  5
6411
102
{ACAD_REACTORS
330
18
102
}
330
18
100
AcDbGroup
300

 70
     3
 71
     0
  0
GROUP
  5
1BA2
102
{ACAD_REACTORS
330
18
102
}
330
18
100
AcDbGroup
300

 70
     3
 71
     0
  0
GROUP
  5
6374
102
{ACAD_REACTORS
330
18
102
}
330
18
100
AcDbGroup
300

 70
     3
 71
     0
  0
GROUP
  5
1C55
102
{ACAD_REACTORS
330
18
102
}
330
18
100
AcDbGroup
300

 70
     3
 71
     0
  0
GROUP
  5
1B81
102
{ACAD_REACTORS
330
18
102
}
330
18
100
AcDbGroup
300

 70
     3
 71
     0
  0
GROUP
  5
498B
102
{ACAD_REACTORS
330
18
102
}
330
18
100
AcDbGroup
300

 70
     3
 71
     0
  0
GROUP
  5
627A
102
{ACAD_REACTORS
330
18
102
}
330
18
100
AcDbGroup
300

 70
     3
 71
     0
  0
GROUP
  5
1B29
102
{ACAD_REACTORS
330
18
102
}
330
18
100
AcDbGroup
300

 70
     3
 71
     0
  0
GROUP
  5
48FB
102
{ACAD_REACTORS
330
18
102
}
330
18
100
AcDbGroup
300

 70
     3
 71
     0
  0
GROUP
  5
63A7
102
{ACAD_REACTORS
330
18
102
}
330
18
100
AcDbGroup
300

 70
     3
 71
     0
  0
GROUP
  5
4959
102
{ACAD_REACTORS
330
18
102
}
330
18
100
AcDbGroup
300

 70
     3
 71
     0
  0
GROUP
  5
4854
102
{ACAD_REACTORS
330
18
102
}
330
18
100
AcDbGroup
300

 70
     3
 71
     0
  0
GROUP
  5
48A2
102
{ACAD_REACTORS
330
18
102
}
330
18
100
AcDbGroup
300

 70
     3
 71
     0
  0
GROUP
  5
1AFE
102
{ACAD_REACTORS
330
18
102
}
330
18
100
AcDbGroup
300

 70
     3
 71
     0
  0
GROUP
  5
6265
102
{ACAD_REACTORS
330
18
102
}
330
18
100
AcDbGroup
300

 70
     3
 71
     0
  0
GROUP
  5
37C3
102
{ACAD_REACTORS
330
18
102
}
330
18
100
AcDbGroup
300

 70
     3
 71
     0
  0
GROUP
  5
480D
102
{ACAD_REACTORS
330
18
102
}
330
18
100
AcDbGroup
300

 70
     3
 71
     0
  0
GROUP
  5
49C6
102
{ACAD_REACTORS
330
18
102
}
330
18
100
AcDbGroup
300

 70
     3
 71
     0
  0
GROUP
  5
6254
102
{ACAD_REACTORS
330
18
102
}
330
18
100
AcDbGroup
300

 70
     3
 71
     0
  0
GROUP
  5
1C5F
102
{ACAD_REACTORS
330
18
102
}
330
18
100
AcDbGroup
300

 70
     3
 71
     0
  0
GROUP
  5
1BC5
102
{ACAD_REACTORS
330
18
102
}
330
18
100
AcDbGroup
300

 70
     3
 71
     0
  0
GROUP
  5
1455
102
{ACAD_REACTORS
330
18
102
}
330
18
100
AcDbGroup
300

 70
     3
 71
     0
  0
GROUP
  5
6239
102
{ACAD_REACTORS
330
18
102
}
330
18
100
AcDbGroup
300

 70
     3
 71
     0
  0
GROUP
  5
1B0A
102
{ACAD_REACTORS
330
18
102
}
330
18
100
AcDbGroup
300

 70
     3
 71
     0
  0
GROUP
  5
48CE
102
{ACAD_REACTORS
330
18
102
}
330
18
100
AcDbGroup
300

 70
     3
 71
     0
  0
GROUP
  5
6345
102
{ACAD_REACTORS
330
18
102
}
330
18
100
AcDbGroup
300

 70
     3
 71
     0
  0
GROUP
  5
6287
102
{ACAD_REACTORS
330
18
102
}
330
18
100
AcDbGroup
300

 70
     3
 71
     0
  0
GROUP
  5
63F3
102
{ACAD_REACTORS
330
18
102
}
330
18
100
AcDbGroup
300

 70
     3
 71
     0
  0
GROUP
  5
63E0
102
{ACAD_REACTORS
330
18
102
}
330
18
100
AcDbGroup
300

 70
     3
 71
     0
  0
GROUP
  5
37A2
102
{ACAD_REACTORS
330
18
102
}
330
18
100
AcDbGroup
300

 70
     3
 71
     0
  0
GROUP
  5
1B32
102
{ACAD_REACTORS
330
18
102
}
330
18
100
AcDbGroup
300

 70
     3
 71
     0
  0
GROUP
  5
6367
102
{ACAD_REACTORS
330
18
102
}
330
18
100
AcDbGroup
300

 70
     3
 71
     0
  0
GROUP
  5
62E4
102
{ACAD_REACTORS
330
18
102
}
330
18
100
AcDbGroup
300

 70
     3
 71
     0
  0
GROUP
  5
494B
102
{ACAD_REACTORS
330
18
102
}
330
18
100
AcDbGroup
300

 70
     3
 71
     0
  0
GROUP
  5
6229
102
{ACAD_REACTORS
330
18
102
}
330
18
100
AcDbGroup
300

 70
     3
 71
     0
  0
GROUP
  5
49D9
102
{ACAD_REACTORS
330
18
102
}
330
18
100
AcDbGroup
300

 70
     3
 71
     0
  0
GROUP
  5
1C49
102
{ACAD_REACTORS
330
18
102
}
330
18
100
AcDbGroup
300

 70
     3
 71
     0
  0
GROUP
  5
1B30
102
{ACAD_REACTORS
330
18
102
}
330
18
100
AcDbGroup
300

 70
     3
 71
     0
  0
GROUP
  5
49DF
102
{ACAD_REACTORS
330
18
102
}
330
18
100
AcDbGroup
300

 70
     3
 71
     0
  0
GROUP
  5
629D
102
{ACAD_REACTORS
330
18
102
}
330
18
100
AcDbGroup
300

 70
     3
 71
     0
  0
GROUP
  5
6419
102
{ACAD_REACTORS
330
18
102
}
330
18
100
AcDbGroup
300

 70
     3
 71
     0
  0
GROUP
  5
49F7
102
{ACAD_REACTORS
330
18
102
}
330
18
100
AcDbGroup
300

 70
     3
 71
     0
  0
GROUP
  5
641C
102
{ACAD_REACTORS
330
18
102
}
330
18
100
AcDbGroup
300

 70
     3
 71
     0
  0
GROUP
  5
6355
102
{ACAD_REACTORS
330
18
102
}
330
18
100
AcDbGroup
300

 70
     3
 71
     0
  0
GROUP
  5
63C0
102
{ACAD_REACTORS
330
18
102
}
330
18
100
AcDbGroup
300

 70
     3
 71
     0
  0
GROUP
  5
1C59
102
{ACAD_REACTORS
330
18
102
}
330
18
100
AcDbGroup
300

 70
     3
 71
     0
  0
GROUP
  5
63CC
102
{ACAD_REACTORS
330
18
102
}
330
18
100
AcDbGroup
300

 70
     3
 71
     0
  0
GROUP
  5
1C32
102
{ACAD_REACTORS
330
18
102
}
330
18
100
AcDbGroup
300

 70
     3
 71
     0
  0
GROUP
  5
62DB
102
{ACAD_REACTORS
330
18
102
}
330
18
100
AcDbGroup
300

 70
     3
 71
     0
  0
GROUP
  5
4826
102
{ACAD_REACTORS
330
18
102
}
330
18
100
AcDbGroup
300

 70
     3
 71
     0
  0
GROUP
  5
6305
102
{ACAD_REACTORS
330
18
102
}
330
18
100
AcDbGroup
300

 70
     3
 71
     0
  0
GROUP
  5
6293
102
{ACAD_REACTORS
330
18
102
}
330
18
100
AcDbGroup
300

 70
     3
 71
     0
  0
GROUP
  5
1AE7
102
{ACAD_REACTORS
330
18
102
}
330
18
100
AcDbGroup
300

 70
     3
 71
     0
  0
GROUP
  5
6426
102
{ACAD_REACTORS
330
18
102
}
330
18
100
AcDbGroup
300

 70
     3
 71
     0
  0
GROUP
  5
6410
102
{ACAD_REACTORS
330
18
102
}
330
18
100
AcDbGroup
300

 70
     3
 71
     0
  0
GROUP
  5
1B4E
102
{ACAD_REACTORS
330
18
102
}
330
18
100
AcDbGroup
300

 70
     3
 71
     0
  0
GROUP
  5
1B88
102
{ACAD_REACTORS
330
18
102
}
330
18
100
AcDbGroup
300

 70
     3
 71
     0
  0
GROUP
  5
1C16
102
{ACAD_REACTORS
330
18
102
}
330
18
100
AcDbGroup
300

 70
     3
 71
     0
  0
GROUP
  5
48D7
102
{ACAD_REACTORS
330
18
102
}
330
18
100
AcDbGroup
300

 70
     3
 71
     0
  0
GROUP
  5
491E
102
{ACAD_REACTORS
330
18
102
}
330
18
100
AcDbGroup
300

 70
     3
 71
     0
  0
GROUP
  5
1C26
102
{ACAD_REACTORS
330
18
102
}
330
18
100
AcDbGroup
300

 70
     3
 71
     0
  0
GROUP
  5
1BE7
102
{ACAD_REACTORS
330
18
102
}
330
18
100
AcDbGroup
300

 70
     3
 71
     0
  0
GROUP
  5
6376
102
{ACAD_REACTORS
330
18
102
}
330
18
100
AcDbGroup
300

 70
     3
 71
     0
  0
GROUP
  5
49F9
102
{ACAD_REACTORS
330
18
102
}
330
18
100
AcDbGroup
300

 70
     3
 71
     0
  0
GROUP
  5
37B8
102
{ACAD_REACTORS
330
18
102
}
330
18
100
AcDbGroup
300

 70
     3
 71
     0
  0
GROUP
  5
1AF9
102
{ACAD_REACTORS
330
18
102
}
330
18
100
AcDbGroup
300

 70
     3
 71
     0
  0
GROUP
  5
4994
102
{ACAD_REACTORS
330
18
102
}
330
18
100
AcDbGroup
300

 70
     3
 71
     0
  0
GROUP
  5
625B
102
{ACAD_REACTORS
330
18
102
}
330
18
100
AcDbGroup
300

 70
     3
 71
     0
  0
GROUP
  5
1BA7
102
{ACAD_REACTORS
330
18
102
}
330
18
100
AcDbGroup
300

 70
     3
 71
     0
  0
GROUP
  5
1B67
102
{ACAD_REACTORS
330
18
102
}
330
18
100
AcDbGroup
300

 70
     3
 71
     0
  0
GROUP
  5
37AF
102
{ACAD_REACTORS
330
18
102
}
330
18
100
AcDbGroup
300

 70
     3
 71
     0
  0
GROUP
  5
1AE9
102
{ACAD_REACTORS
330
18
102
}
330
18
100
AcDbGroup
300

 70
     3
 71
     0
  0
GROUP
  5
4941
102
{ACAD_REACTORS
330
18
102
}
330
18
100
AcDbGroup
300

 70
     3
 71
     0
  0
GROUP
  5
624A
102
{ACAD_REACTORS
330
18
102
}
330
18
100
AcDbGroup
300

 70
     3
 71
     0
  0
GROUP
  5
1B31
102
{ACAD_REACTORS
330
18
102
}
330
18
100
AcDbGroup
300

 70
     3
 71
     0
  0
GROUP
  5
6336
102
{ACAD_REACTORS
330
18
102
}
330
18
100
AcDbGroup
300

 70
     3
 71
     0
  0
GROUP
  5
1B4D
102
{ACAD_REACTORS
330
18
102
}
330
18
100
AcDbGroup
300

 70
     3
 71
     0
  0
GROUP
  5
1AF8
102
{ACAD_REACTORS
330
18
102
}
330
18
100
AcDbGroup
300

 70
     3
 71
     0
  0
GROUP
  5
1BF0
102
{ACAD_REACTORS
330
18
102
}
330
18
100
AcDbGroup
300

 70
     3
 71
     0
  0
GROUP
  5
1B04
102
{ACAD_REACTORS
330
18
102
}
330
18
100
AcDbGroup
300

 70
     3
 71
     0
  0
GROUP
  5
63DF
102
{ACAD_REACTORS
330
18
102
}
330
18
100
AcDbGroup
300

 70
     3
 71
     0
  0
GROUP
  5
63D8
102
{ACAD_REACTORS
330
18
102
}
330
18
100
AcDbGroup
300

 70
     3
 71
     0
  0
GROUP
  5
6251
102
{ACAD_REACTORS
330
18
102
}
330
18
100
AcDbGroup
300

 70
     3
 71
     0
  0
GROUP
  5
482F
102
{ACAD_REACTORS
330
18
102
}
330
18
100
AcDbGroup
300

 70
     3
 71
     0
  0
GROUP
  5
1B2C
102
{ACAD_REACTORS
330
18
102
}
330
18
100
AcDbGroup
300

 70
     3
 71
     0
  0
GROUP
  5
488E
102
{ACAD_REACTORS
330
18
102
}
330
18
100
AcDbGroup
300

 70
     3
 71
     0
  0
GROUP
  5
1BC6
102
{ACAD_REACTORS
330
18
102
}
330
18
100
AcDbGroup
300

 70
     3
 71
     0
  0
GROUP
  5
1C2A
102
{ACAD_REACTORS
330
18
102
}
330
18
100
AcDbGroup
300

 70
     3
 71
     0
  0
GROUP
  5
1B96
102
{ACAD_REACTORS
330
18
102
}
330
18
100
AcDbGroup
300

 70
     3
 71
     0
  0
GROUP
  5
49A7
102
{ACAD_REACTORS
330
18
102
}
330
18
100
AcDbGroup
300

 70
     3
 71
     0
  0
GROUP
  5
487A
102
{ACAD_REACTORS
330
18
102
}
330
18
100
AcDbGroup
300

 70
     3
 71
     0
  0
GROUP
  5
489A
102
{ACAD_REACTORS
330
18
102
}
330
18
100
AcDbGroup
300

 70
     3
 71
     0
  0
GROUP
  5
6246
102
{ACAD_REACTORS
330
18
102
}
330
18
100
AcDbGroup
300

 70
     3
 71
     0
  0
GROUP
  5
496D
102
{ACAD_REACTORS
330
18
102
}
330
18
100
AcDbGroup
300

 70
     3
 71
     0
  0
GROUP
  5
62DA
102
{ACAD_REACTORS
330
18
102
}
330
18
100
AcDbGroup
300

 70
     3
 71
     0
  0
GROUP
  5
499E
102
{ACAD_REACTORS
330
18
102
}
330
18
100
AcDbGroup
300

 70
     3
 71
     0
  0
GROUP
  5
1C36
102
{ACAD_REACTORS
330
18
102
}
330
18
100
AcDbGroup
300

 70
     3
 71
     0
  0
GROUP
  5
640D
102
{ACAD_REACTORS
330
18
102
}
330
18
100
AcDbGroup
300

 70
     3
 71
     0
  0
GROUP
  5
1BAF
102
{ACAD_REACTORS
330
18
102
}
330
18
100
AcDbGroup
300

 70
     3
 71
     0
  0
GROUP
  5
6349
102
{ACAD_REACTORS
330
18
102
}
330
18
100
AcDbGroup
300

 70
     3
 71
     0
  0
GROUP
  5
48A7
102
{ACAD_REACTORS
330
18
102
}
330
18
100
AcDbGroup
300

 70
     3
 71
     0
  0
GROUP
  5
1B2B
102
{ACAD_REACTORS
330
18
102
}
330
18
100
AcDbGroup
300

 70
     3
 71
     0
  0
GROUP
  5
1C30
102
{ACAD_REACTORS
330
18
102
}
330
18
100
AcDbGroup
300

 70
     3
 71
     0
  0
GROUP
  5
1B2D
102
{ACAD_REACTORS
330
18
102
}
330
18
100
AcDbGroup
300

 70
     3
 71
     0
  0
GROUP
  5
49D1
102
{ACAD_REACTORS
330
18
102
}
330
18
100
AcDbGroup
300

 70
     3
 71
     0
  0
GROUP
  5
4969
102
{ACAD_REACTORS
330
18
102
}
330
18
100
AcDbGroup
300

 70
     3
 71
     0
  0
GROUP
  5
48EA
102
{ACAD_REACTORS
330
18
102
}
330
18
100
AcDbGroup
300

 70
     3
 71
     0
  0
GROUP
  5
493E
102
{ACAD_REACTORS
330
18
102
}
330
18
100
AcDbGroup
300

 70
     3
 71
     0
  0
GROUP
  5
4978
102
{ACAD_REACTORS
330
18
102
}
330
18
100
AcDbGroup
300

 70
     3
 71
     0
  0
GROUP
  5
49C2
102
{ACAD_REACTORS
330
18
102
}
330
18
100
AcDbGroup
300

 70
     3
 71
     0
  0
GROUP
  5
49F2
102
{ACAD_REACTORS
330
18
102
}
330
18
100
AcDbGroup
300

 70
     3
 71
     0
  0
GROUP
  5
62E8
102
{ACAD_REACTORS
330
18
102
}
330
18
100
AcDbGroup
300

 70
     3
 71
     0
  0
GROUP
  5
6232
102
{ACAD_REACTORS
330
18
102
}
330
18
100
AcDbGroup
300

 70
     3
 71
     0
  0
GROUP
  5
6225
102
{ACAD_REACTORS
330
18
102
}
330
18
100
AcDbGroup
300

 70
     3
 71
     0
  0
GROUP
  5
62D7
102
{ACAD_REACTORS
330
18
102
}
330
18
100
AcDbGroup
300

 70
     3
 71
     0
  0
GROUP
  5
62F0
102
{ACAD_REACTORS
330
18
102
}
330
18
100
AcDbGroup
300

 70
     3
 71
     0
  0
GROUP
  5
1B01
102
{ACAD_REACTORS
330
18
102
}
330
18
100
AcDbGroup
300

 70
     3
 71
     0
  0
GROUP
  5
1C38
102
{ACAD_REACTORS
330
18
102
}
330
18
100
AcDbGroup
300

 70
     3
 71
     0
  0
GROUP
  5
4939
102
{ACAD_REACTORS
330
18
102
}
330
18
100
AcDbGroup
300

 70
     3
 71
     0
  0
GROUP
  5
623E
102
{ACAD_REACTORS
330
18
102
}
330
18
100
AcDbGroup
300

 70
     3
 71
     0
  0
GROUP
  5
48DB
102
{ACAD_REACTORS
330
18
102
}
330
18
100
AcDbGroup
300

 70
     3
 71
     0
  0
GROUP
  5
6396
102
{ACAD_REACTORS
330
18
102
}
330
18
100
AcDbGroup
300

 70
     3
 71
     0
  0
GROUP
  5
63A4
102
{ACAD_REACTORS
330
18
102
}
330
18
100
AcDbGroup
300

 70
     3
 71
     0
  0
GROUP
  5
63E6
102
{ACAD_REACTORS
330
18
102
}
330
18
100
AcDbGroup
300

 70
     3
 71
     0
  0
GROUP
  5
49AF
102
{ACAD_REACTORS
330
18
102
}
330
18
100
AcDbGroup
300

 70
     3
 71
     0
  0
GROUP
  5
623A
102
{ACAD_REACTORS
330
18
102
}
330
18
100
AcDbGroup
300

 70
     3
 71
     0
  0
GROUP
  5
6403
102
{ACAD_REACTORS
330
18
102
}
330
18
100
AcDbGroup
300

 70
     3
 71
     0
  0
GROUP
  5
62B3
102
{ACAD_REACTORS
330
18
102
}
330
18
100
AcDbGroup
300

 70
     3
 71
     0
  0
GROUP
  5
4987
102
{ACAD_REACTORS
330
18
102
}
330
18
100
AcDbGroup
300

 70
     3
 71
     0
  0
GROUP
  5
1B9C
102
{ACAD_REACTORS
330
18
102
}
330
18
100
AcDbGroup
300

 70
     3
 71
     0
  0
GROUP
  5
1AF1
102
{ACAD_REACTORS
330
18
102
}
330
18
100
AcDbGroup
300

 70
     3
 71
     0
  0
GROUP
  5
6250
102
{ACAD_REACTORS
330
18
102
}
330
18
100
AcDbGroup
300

 70
     3
 71
     0
  0
GROUP
  5
6372
102
{ACAD_REACTORS
330
18
102
}
330
18
100
AcDbGroup
300

 70
     3
 71
     0
  0
GROUP
  5
6425
102
{ACAD_REACTORS
330
18
102
}
330
18
100
AcDbGroup
300

 70
     3
 71
     0
  0
GROUP
  5
487E
102
{ACAD_REACTORS
330
18
102
}
330
18
100
AcDbGroup
300

 70
     3
 71
     0
  0
GROUP
  5
4963
102
{ACAD_REACTORS
330
18
102
}
330
18
100
AcDbGroup
300

 70
     3
 71
     0
  0
GROUP
  5
4832
102
{ACAD_REACTORS
330
18
102
}
330
18
100
AcDbGroup
300

 70
     3
 71
     0
  0
GROUP
  5
6351
102
{ACAD_REACTORS
330
18
102
}
330
18
100
AcDbGroup
300

 70
     3
 71
     0
  0
GROUP
  5
6243
102
{ACAD_REACTORS
330
18
102
}
330
18
100
AcDbGroup
300

 70
     3
 71
     0
  0
GROUP
  5
48EF
102
{ACAD_REACTORS
330
18
102
}
330
18
100
AcDbGroup
300

 70
     3
 71
     0
  0
GROUP
  5
62D0
102
{ACAD_REACTORS
330
18
102
}
330
18
100
AcDbGroup
300

 70
     3
 71
     0
  0
GROUP
  5
1AE6
102
{ACAD_REACTORS
330
18
102
}
330
18
100
AcDbGroup
300

 70
     3
 71
     0
  0
GROUP
  5
6409
102
{ACAD_REACTORS
330
18
102
}
330
18
100
AcDbGroup
300

 70
     3
 71
     0
  0
GROUP
  5
48D5
102
{ACAD_REACTORS
330
18
102
}
330
18
100
AcDbGroup
300

 70
     3
 71
     0
  0
GROUP
  5
6422
102
{ACAD_REACTORS
330
18
102
}
330
18
100
AcDbGroup
300

 70
     3
 71
     0
  0
GROUP
  5
63A2
102
{ACAD_REACTORS
330
18
102
}
330
18
100
AcDbGroup
300

 70
     3
 71
     0
  0
GROUP
  5
49ED
102
{ACAD_REACTORS
330
18
102
}
330
18
100
AcDbGroup
300

 70
     3
 71
     0
  0
GROUP
  5
63FD
102
{ACAD_REACTORS
330
18
102
}
330
18
100
AcDbGroup
300

 70
     3
 71
     0
  0
GROUP
  5
628A
102
{ACAD_REACTORS
330
18
102
}
330
18
100
AcDbGroup
300

 70
     3
 71
     0
  0
GROUP
  5
4A00
102
{ACAD_REACTORS
330
18
102
}
330
18
100
AcDbGroup
300

 70
     3
 71
     0
  0
GROUP
  5
6258
102
{ACAD_REACTORS
330
18
102
}
330
18
100
AcDbGroup
300

 70
     3
 71
     0
  0
GROUP
  5
1BC8
102
{ACAD_REACTORS
330
18
102
}
330
18
100
AcDbGroup
300

 70
     3
 71
     0
  0
GROUP
  5
491D
102
{ACAD_REACTORS
330
18
102
}
330
18
100
AcDbGroup
300

 70
     3
 71
     0
  0
GROUP
  5
37BA
102
{ACAD_REACTORS
330
18
102
}
330
18
100
AcDbGroup
300

 70
     3
 71
     0
  0
GROUP
  5
1BE6
102
{ACAD_REACTORS
330
18
102
}
330
18
100
AcDbGroup
300

 70
     3
 71
     0
  0
GROUP
  5
4934
102
{ACAD_REACTORS
330
18
102
}
330
18
100
AcDbGroup
300

 70
     3
 71
     0
  0
GROUP
  5
4844
102
{ACAD_REACTORS
330
18
102
}
330
18
100
AcDbGroup
300

 70
     3
 71
     0
  0
GROUP
  5
4875
102
{ACAD_REACTORS
330
18
102
}
330
18
100
AcDbGroup
300

 70
     3
 71
     0
  0
GROUP
  5
626D
102
{ACAD_REACTORS
330
18
102
}
330
18
100
AcDbGroup
300

 70
     3
 71
     0
  0
GROUP
  5
4831
102
{ACAD_REACTORS
330
18
102
}
330
18
100
AcDbGroup
300

 70
     3
 71
     0
  0
GROUP
  5
630B
102
{ACAD_REACTORS
330
18
102
}
330
18
100
AcDbGroup
300

 70
     3
 71
     0
  0
GROUP
  5
6353
102
{ACAD_REACTORS
330
18
102
}
330
18
100
AcDbGroup
300

 70
     3
 71
     0
  0
GROUP
  5
62A7
102
{ACAD_REACTORS
330
18
102
}
330
18
100
AcDbGroup
300

 70
     3
 71
     0
  0
GROUP
  5
1B0D
102
{ACAD_REACTORS
330
18
102
}
330
18
100
AcDbGroup
300

 70
     3
 71
     0
  0
GROUP
  5
1B39
102
{ACAD_REACTORS
330
18
102
}
330
18
100
AcDbGroup
300

 70
     3
 71
     0
  0
GROUP
  5
1AD5
102
{ACAD_REACTORS
330
18
102
}
330
18
100
AcDbGroup
300

 70
     3
 71
     0
  0
GROUP
  5
489C
102
{ACAD_REACTORS
330
18
102
}
330
18
100
AcDbGroup
300

 70
     3
 71
     0
  0
GROUP
  5
1B35
102
{ACAD_REACTORS
330
18
102
}
330
18
100
AcDbGroup
300

 70
     3
 71
     0
  0
GROUP
  5
1AF7
102
{ACAD_REACTORS
330
18
102
}
330
18
100
AcDbGroup
300

 70
     3
 71
     0
  0
GROUP
  5
623B
102
{ACAD_REACTORS
330
18
102
}
330
18
100
AcDbGroup
300

 70
     3
 71
     0
  0
GROUP
  5
4843
102
{ACAD_REACTORS
330
18
102
}
330
18
100
AcDbGroup
300

 70
     3
 71
     0
  0
GROUP
  5
1B4C
102
{ACAD_REACTORS
330
18
102
}
330
18
100
AcDbGroup
300

 70
     3
 71
     0
  0
GROUP
  5
627F
102
{ACAD_REACTORS
330
18
102
}
330
18
100
AcDbGroup
300

 70
     3
 71
     0
  0
GROUP
  5
6252
102
{ACAD_REACTORS
330
18
102
}
330
18
100
AcDbGroup
300

 70
     3
 71
     0
  0
GROUP
  5
48C3
102
{ACAD_REACTORS
330
18
102
}
330
18
100
AcDbGroup
300

 70
     3
 71
     0
  0
GROUP
  5
1BFF
102
{ACAD_REACTORS
330
18
102
}
330
18
100
AcDbGroup
300

 70
     3
 71
     0
  0
GROUP
  5
63D0
102
{ACAD_REACTORS
330
18
102
}
330
18
100
AcDbGroup
300

 70
     3
 71
     0
  0
GROUP
  5
621E
102
{ACAD_REACTORS
330
18
102
}
330
18
100
AcDbGroup
300

 70
     3
 71
     0
  0
GROUP
  5
6402
102
{ACAD_REACTORS
330
18
102
}
330
18
100
AcDbGroup
300

 70
     3
 71
     0
  0
GROUP
  5
6371
102
{ACAD_REACTORS
330
18
102
}
330
18
100
AcDbGroup
300

 70
     3
 71
     0
  0
GROUP
  5
49CC
102
{ACAD_REACTORS
330
18
102
}
330
18
100
AcDbGroup
300

 70
     3
 71
     0
  0
GROUP
  5
63A1
102
{ACAD_REACTORS
330
18
102
}
330
18
100
AcDbGroup
300

 70
     3
 71
     0
  0
GROUP
  5
4A11
102
{ACAD_REACTORS
330
18
102
}
330
18
100
AcDbGroup
300

 70
     3
 71
     0
  0
GROUP
  5
62AB
102
{ACAD_REACTORS
330
18
102
}
330
18
100
AcDbGroup
300

 70
     3
 71
     0
  0
GROUP
  5
481A
102
{ACAD_REACTORS
330
18
102
}
330
18
100
AcDbGroup
300

 70
     3
 71
     0
  0
GROUP
  5
1BDB
102
{ACAD_REACTORS
330
18
102
}
330
18
100
AcDbGroup
300

 70
     3
 71
     0
  0
GROUP
  5
1B6D
102
{ACAD_REACTORS
330
18
102
}
330
18
100
AcDbGroup
300

 70
     3
 71
     0
  0
GROUP
  5
63F2
102
{ACAD_REACTORS
330
18
102
}
330
18
100
AcDbGroup
300

 70
     3
 71
     0
  0
GROUP
  5
4855
102
{ACAD_REACTORS
330
18
102
}
330
18
100
AcDbGroup
300

 70
     3
 71
     0
  0
MLINESTYLE
  5
1D
102
{ACAD_REACTORS
330
19
102
}
330
19
100
AcDbMlineStyle
  2
STANDARD
 70
     0
  3

 62
     0
 51
90.0
 52
90.0
 71
     2
 49
0.5
 62
   256
  6
BYLAYER
 49
-0.5
 62
   256
  6
BYLAYER
  0
ACDBPLACEHOLDER
  5
EDC6
102
{ACAD_REACTORS
330
EDC5
102
}
330
EDC5
100
AcDbPlaceHolder
280
     0
  0
XRECORD
  5
1FE59
102
{ACAD_REACTORS
330
1FE4F
102
}
330
1FE4F
100
AcDbXrecord
 90
        0
  0
XRECORD
  5
1FE5D
102
{ACAD_REACTORS
330
1FE4F
102
}
330
1FE4F
100
AcDbXrecord
1000
DSTYLE
1002
{
1070
    79
 70
     2
1070
   179
 70
     1
1002
}
  0
XRECORD
  5
1FE5A
102
{ACAD_REACTORS
330
1FE4F
102
}
330
1FE4F
100
AcDbXrecord
  1
{5EB6113A-69ED-450E-876F-E97B1CCBD74B}
  0
XRECORD
  5
1FE52
102
{ACAD_REACTORS
330
1FE4F
102
}
330
1FE4F
100
AcDbXrecord
  1

  0
XRECORD
  5
1FE58
102
{ACAD_REACTORS
330
1FE4F
102
}
330
1FE4F
100
AcDbXrecord
 90
        0
  0
XRECORD
  5
1FE54
102
{ACAD_REACTORS
330
1FE4F
102
}
330
1FE4F
100
AcDbXrecord
340
EDC7
  0
XRECORD
  5
1FE57
102
{ACAD_REACTORS
330
1FE4F
102
}
330
1FE4F
100
AcDbXrecord
 90
    14877
  0
XRECORD
  5
1FE55
102
{ACAD_REACTORS
330
1FE4F
102
}
330
1FE4F
100
AcDbXrecord
340
EDC8
  0
XRECORD
  5
1FE56
102
{ACAD_REACTORS
330
1FE4F
102
}
330
1FE4F
100
AcDbXrecord
340
EDC5
  0
XRECORD
  5
1FE5C
102
{ACAD_REACTORS
330
1FE4F
102
}
330
1FE4F
100
AcDbXrecord
 40
0.0
  0
XRECORD
  5
1FE60
102
{ACAD_REACTORS
330
1FE4F
102
}
330
1FE4F
100
AcDbXrecord
340
0
  0
XRECORD
  5
1FE66
102
{ACAD_REACTORS
330
1FE4F
102
}
330
1FE4F
100
AcDbXrecord
 10
0.0
 20
0.0
 30
0.0
  0
XRECORD
  5
1FE62
102
{ACAD_REACTORS
330
1FE4F
102
}
330
1FE4F
100
AcDbXrecord
 10
0.0
 20
0.0
 30
0.0
  0
XRECORD
  5
1FE65
102
{ACAD_REACTORS
330
1FE4F
102
}
330
1FE4F
100
AcDbXrecord
 10
0.0
 20
0.0
 30
0.0
  0
XRECORD
  5
1FE63
102
{ACAD_REACTORS
330
1FE4F
102
}
330
1FE4F
100
AcDbXrecord
 10
0.0
 20
0.0
 30
0.0
  0
XRECORD
  5
1FE64
102
{ACAD_REACTORS
330
1FE4F
102
}
330
1FE4F
100
AcDbXrecord
 10
0.0
 20
0.0
 30
0.0
  0
XRECORD
  5
1FE61
102
{ACAD_REACTORS
330
1FE4F
102
}
330
1FE4F
100
AcDbXrecord
 10
0.0
 20
0.0
 30
0.0
  0
XRECORD
  5
1FE5E
102
{ACAD_REACTORS
330
1FE4F
102
}
330
1FE4F
100
AcDbXrecord
340
0
  0
XRECORD
  5
1FE5F
102
{ACAD_REACTORS
330
1FE4F
102
}
330
1FE4F
100
AcDbXrecord
 70
     0
  0
XRECORD
  5
1FE53
102
{ACAD_REACTORS
330
1FE4F
102
}
330
1FE4F
100
AcDbXrecord
  1

  0
XRECORD
  5
1FE50
102
{ACAD_REACTORS
330
1FE4F
102
}
330
1FE4F
100
AcDbXrecord
 90
        1
  0
XRECORD
  5
1FE51
102
{ACAD_REACTORS
330
1FE4F
102
}
330
1FE4F
100
AcDbXrecord
 90
       70
  0
XRECORD
  5
1FE69
102
{ACAD_REACTORS
330
1FE4F
102
}
330
1FE4F
100
AcDbXrecord
340
0
  0
XRECORD
  5
1FE6F
102
{ACAD_REACTORS
330
1FE4F
102
}
330
1FE4F
100
AcDbXrecord
 10
0.0
 20
0.0
 30
0.0
  0
XRECORD
  5
1FE6B
102
{ACAD_REACTORS
330
1FE4F
102
}
330
1FE4F
100
AcDbXrecord
 10
0.0
 20
0.0
 30
0.0
  0
XRECORD
  5
1FE6E
102
{ACAD_REACTORS
330
1FE4F
102
}
330
1FE4F
100
AcDbXrecord
 10
0.0
 20
0.0
 30
0.0
  0
XRECORD
  5
1FE6C
102
{ACAD_REACTORS
330
1FE4F
102
}
330
1FE4F
100
AcDbXrecord
 10
0.0
 20
0.0
 30
0.0
  0
XRECORD
  5
1FE6D
102
{ACAD_REACTORS
330
1FE4F
102
}
330
1FE4F
100
AcDbXrecord
 10
0.0
 20
0.0
 30
0.0
  0
XRECORD
  5
1FE6A
102
{ACAD_REACTORS
330
1FE4F
102
}
330
1FE4F
100
AcDbXrecord
 10
0.0
 20
0.0
 30
0.0
  0
XRECORD
  5
1FE67
102
{ACAD_REACTORS
330
1FE4F
102
}
330
1FE4F
100
AcDbXrecord
340
0
  0
XRECORD
  5
1FE68
102
{ACAD_REACTORS
330
1FE4F
102
}
330
1FE4F
100
AcDbXrecord
 70
     0
  0
XRECORD
  5
1FE5B
102
{ACAD_REACTORS
330
1FE4F
102
}
330
1FE4F
100
AcDbXrecord
  1
{1BA9EEE9-3C2B-43D2-902E-119AFFA836CE}
  0
DICTIONARYVAR
  5
EDE8
102
{ACAD_REACTORS
330
EDE7
102
}
330
EDE7
100
DictionaryVariables
280
     0
  1
1
  0
ENDSEC
  0
EOF
