  0
SECTION
  2
HEADER
  9
$ACADVER
  1
AC1014
  9
$ACADMAINTVER
 70
     9
  9
$DWGCODEPAGE
  3
ANSI_1252
  9
$INSBASE
 10
421.0218958999721
 20
357.7769748938917
 30
0.0
  9
$EXTMIN
 10
-15199.54598617238
 20
3440.89139051282
 30
0.0
  9
$EXTMAX
 10
-13083.08684272891
 20
5896.851113222137
 30
0.0
  9
$LIMMIN
 10
9749.260046900117
 20
-1602.70564605534
  9
$LIMMAX
 10
11438.24325486453
 20
-732.5285748461251
  9
$ORTHOMODE
 70
     1
  9
$REGENMODE
 70
     1
  9
$FILLMODE
 70
     1
  9
$QTEXTMODE
 70
     0
  9
$MIRRTEXT
 70
     1
  9
$DRAGMODE
 70
     2
  9
$LTSCALE
 40
5.0
  9
$OSMODE
 70
   128
  9
$ATTMODE
 70
     1
  9
$TEXTSIZE
 40
40.0
  9
$TRACEWID
 40
1.0
  9
$TEXTSTYLE
  7
ROMANS8
  9
$CLAYER
  8
VLB
  9
$CELTYPE
  6
BYLAYER
  9
$CECOLOR
 62
   256
  9
$CELTSCALE
 40
1.0
  9
$DELOBJ
 70
     1
  9
$DISPSILH
 70
     0
  9
$DIMSCALE
 40
20.0
  9
$DIMASZ
 40
3.5
  9
$DIMEXO
 40
0.1
  9
$DIMDLI
 40
7.0
  9
$DIMRND
 40
0.0
  9
$DIMDLE
 40
0.0
  9
$DIMEXE
 40
1.8
  9
$DIMTP
 40
0.0
  9
$DIMTM
 40
0.0
  9
$DIMTXT
 40
3.5
  9
$DIMCEN
 40
0.0
  9
$DIMTSZ
 40
0.0
  9
$DIMTOL
 70
     0
  9
$DIMLIM
 70
     0
  9
$DIMTIH
 70
     0
  9
$DIMTOH
 70
     0
  9
$DIMSE1
 70
     0
  9
$DIMSE2
 70
     0
  9
$DIMTAD
 70
     1
  9
$DIMZIN
 70
     8
  9
$DIMBLK
  1

  9
$DIMASO
 70
     1
  9
$DIMSHO
 70
     0
  9
$DIMPOST
  1

  9
$DIMAPOST
  1

  9
$DIMALT
 70
     0
  9
$DIMALTD
 70
     2
  9
$DIMALTF
 40
25.4
  9
$DIMLFAC
 40
1.0
  9
$DIMTOFL
 70
     0
  9
$DIMTVP
 40
0.0
  9
$DIMTIX
 70
     0
  9
$DIMSOXD
 70
     0
  9
$DIMSAH
 70
     0
  9
$DIMBLK1
  1

  9
$DIMBLK2
  1

  9
$DIMSTYLE
  2
1_20
  9
$DIMCLRD
 70
   256
  9
$DIMCLRE
 70
   256
  9
$DIMCLRT
 70
   256
  9
$DIMTFAC
 40
1.0
  9
$DIMGAP
 40
1.7
  9
$DIMJUST
 70
     0
  9
$DIMSD1
 70
     0
  9
$DIMSD2
 70
     0
  9
$DIMTOLJ
 70
     1
  9
$DIMTZIN
 70
     8
  9
$DIMALTZ
 70
     0
  9
$DIMALTTZ
 70
     0
  9
$DIMFIT
 70
     3
  9
$DIMUPT
 70
     1
  9
$DIMUNIT
 70
     2
  9
$DIMDEC
 70
     4
  9
$DIMTDEC
 70
     4
  9
$DIMALTU
 70
     2
  9
$DIMALTTD
 70
     2
  9
$DIMTXSTY
  7
ROMANS
  9
$DIMAUNIT
 70
     0
  9
$LUNITS
 70
     2
  9
$LUPREC
 70
     2
  9
$SKETCHINC
 40
1.0
  9
$FILLETRAD
 40
0.0
  9
$AUNITS
 70
     0
  9
$AUPREC
 70
     2
  9
$MENU
  1
ACAD
  9
$ELEVATION
 40
0.0
  9
$PELEVATION
 40
0.0
  9
$THICKNESS
 40
0.0
  9
$LIMCHECK
 70
     0
  9
$BLIPMODE
 70
     0
  9
$CHAMFERA
 40
15.0
  9
$CHAMFERB
 40
15.0
  9
$CHAMFERC
 40
0.0
  9
$CHAMFERD
 40
0.0
  9
$SKPOLY
 70
     0
  9
$TDCREATE
 40
2453677.393372893
  9
$TDUPDATE
 40
2453682.578695428
  9
$TDINDWG
 40
0.4892598843
  9
$TDUSRTIMER
 40
0.4892578009
  9
$USRTIMER
 70
     1
  9
$ANGBASE
 50
0.0
  9
$ANGDIR
 70
     0
  9
$PDMODE
 70
     2
  9
$PDSIZE
 40
2.0
  9
$PLINEWID
 40
0.0
  9
$COORDS
 70
     0
  9
$SPLFRAME
 70
     0
  9
$SPLINETYPE
 70
     6
  9
$SPLINESEGS
 70
     8
  9
$ATTDIA
 70
     0
  9
$ATTREQ
 70
     1
  9
$HANDLING
 70
 22529
  9
$HANDSEED
  5
1FE6B
  9
$SURFTAB1
 70
     6
  9
$SURFTAB2
 70
     6
  9
$SURFTYPE
 70
     6
  9
$SURFU
 70
     6
  9
$SURFV
 70
     6
  9
$UCSNAME
  2

  9
$UCSORG
 10
10154.57763192681
 20
-1347.460051185509
 30
0.0
  9
$UCSXDIR
 10
1.0
 20
0.0
 30
0.0
  9
$UCSYDIR
 10
0.0
 20
1.0
 30
0.0
  9
$PUCSNAME
  2

  9
$PUCSORG
 10
0.0
 20
0.0
 30
0.0
  9
$PUCSXDIR
 10
1.0
 20
0.0
 30
0.0
  9
$PUCSYDIR
 10
0.0
 20
1.0
 30
0.0
  9
$USERI1
 70
     0
  9
$USERI2
 70
     0
  9
$USERI3
 70
     0
  9
$USERI4
 70
     0
  9
$USERI5
 70
     0
  9
$USERR1
 40
0.0
  9
$USERR2
 40
0.0
  9
$USERR3
 40
0.0
  9
$USERR4
 40
0.0
  9
$USERR5
 40
0.0
  9
$WORLDVIEW
 70
     1
  9
$SHADEDGE
 70
     3
  9
$SHADEDIF
 70
    70
  9
$TILEMODE
 70
     1
  9
$MAXACTVP
 70
    16
  9
$PINSBASE
 10
0.0
 20
0.0
 30
0.0
  9
$PLIMCHECK
 70
     0
  9
$PEXTMIN
 10
-559.9955194189885
 20
-11.99914987354685
 30
0.0
  9
$PEXTMAX
 10
898.8167291158939
 20
692.004025362777
 30
5.0
  9
$PLIMMIN
 10
-581.4504078847034
 20
-42.42333302514301
  9
$PLIMMAX
 10
920.2716460794404
 20
1019.530090726515
  9
$UNITMODE
 70
     1
  9
$VISRETAIN
 70
     0
  9
$PLINEGEN
 70
     0
  9
$PSLTSCALE
 70
     0
  9
$TREEDEPTH
 70
  3020
  9
$PICKSTYLE
 70
     1
  9
$CMLSTYLE
  2
STANDARD
  9
$CMLJUST
 70
     0
  9
$CMLSCALE
 40
1.0
  9
$PROXYGRAPHICS
 70
     1
  9
$MEASUREMENT
 70
     1
  0
ENDSEC
  0
SECTION
  2
CLASSES
  0
CLASS
  1
IDBUFFER
  2
AcDbIdBuffer
  3
AutoCAD 2000
 90
        0
280
     0
281
     0
  0
CLASS
  1
LWPOLYLINE
  2
AcDbPolyline
  3
AutoCAD 2000
 90
        0
280
     0
281
     1
  0
CLASS
  1
DICTIONARYVAR
  2
AcDbDictionaryVar
  3
AutoCAD 2000
 90
        0
280
     0
281
     0
  0
CLASS
  1
HATCH
  2
AcDbHatch
  3
AutoCAD 2000
 90
        0
280
     0
281
     1
  0
CLASS
  1
ACDBDICTIONARYWDFLT
  2
AcDbDictionaryWithDefault
  3
AutoCAD 2000
 90
        0
280
     0
281
     0
  0
CLASS
  1
ACDBPLACEHOLDER
  2
AcDbPlaceHolder
  3
AutoCAD 2000
 90
        0
280
     0
281
     0
  0
CLASS
  1
LAYOUT
  2
AcDbLayout
  3
AutoCAD 2000
 90
        0
280
     0
281
     0
  0
CLASS
  1
LONG_TRANSACTION
  2
AcDbLongTransaction
  3
AutoCAD 2000
 90
        0
280
     0
281
     0
  0
CLASS
  1
LWPOLYLINE
  2
AcDbPolyline
  3
AutoCAD 2000
 90
        0
280
     0
281
     1
  0
CLASS
  1
HATCH
  2
AcDbHatch
  3
AutoCAD 2000
 90
        0
280
     0
281
     1
  0
CLASS
  1
XRECORD
  2
AcDbXrecord
  3
AutoCAD 2000
 90
        0
280
     0
281
     0
  0
ENDSEC
  0
SECTION
  2
TABLES
  0
TABLE
  2
VPORT
  5
12
330
0
100
AcDbSymbolTable
 70
     2
  0
VPORT
  5
1FE45
330
12
100
AcDbSymbolTableRecord
100
AcDbViewportTableRecord
  2
*ACTIVE
 70
     0
 10
0.0
 20
0.0
 11
1.0
 21
1.0
 12
-14141.34322695128
 22
4694.898354309918
 13
0.0
 23
0.0
 14
1.0
 24
1.0
 15
10.0
 25
10.0
 16
0.0
 26
0.0
 36
1.0
 17
0.0
 27
0.0
 37
0.0
 40
2533.105072944067
 41
1.714968152866241
 42
50.0
 43
0.0
 44
0.0
 50
0.0
 51
0.0
 71
     0
 72
  1000
 73
     1
 74
     1
 75
     0
 76
     0
 77
     0
 78
     0
  0
ENDTAB
  0
TABLE
  2
LTYPE
  5
D
330
0
100
AcDbSymbolTable
 70
     3
  0
LTYPE
  5
E
330
D
100
AcDbSymbolTableRecord
100
AcDbLinetypeTableRecord
  2
BYBLOCK
 70
     0
  3

 72
    65
 73
     0
 40
0.0
  0
LTYPE
  5
F
330
D
100
AcDbSymbolTableRecord
100
AcDbLinetypeTableRecord
  2
BYLAYER
 70
     0
  3

 72
    65
 73
     0
 40
0.0
  0
LTYPE
  5
5
330
D
100
AcDbSymbolTableRecord
100
AcDbLinetypeTableRecord
  2
AUSGEZOGEN
 70
     0
  3
Ausgezogene Linie
 72
    65
 73
     0
 40
0.0
  0
LTYPE
  5
21
330
D
100
AcDbSymbolTableRecord
100
AcDbLinetypeTableRecord
  2
MLA3
 70
     0
  3
------ - -------
 72
    65
 73
     4
 40
15.0
 49
10.0
 74
     0
 49
-2.0
 74
     0
 49
1.0
 74
     0
 49
-2.0
 74
     0
  0
LTYPE
  5
540
330
D
100
AcDbSymbolTableRecord
100
AcDbLinetypeTableRecord
  2
CONTINUOUS
 70
     0
  3
Solid line
 72
    65
 73
     0
 40
0.0
  0
ENDTAB
  0
TABLE
  2
LAYER
  5
A
330
0
100
AcDbSymbolTable
 70
     5
  0
LAYER
  5
4
330
A
100
AcDbSymbolTableRecord
100
AcDbLayerTableRecord
  2
0
 70
     0
 62
     7
  6
AUSGEZOGEN
  0
LAYER
  5
1B
330
A
100
AcDbSymbolTableRecord
100
AcDbLayerTableRecord
  2
VLB
 70
     0
 62
     7
  6
AUSGEZOGEN
  0
LAYER
  5
20
330
A
100
AcDbSymbolTableRecord
100
AcDbLayerTableRecord
  2
SPS
 70
     0
 62
     1
  6
MLA3
  0
LAYER
  5
5B
330
A
100
AcDbSymbolTableRecord
100
AcDbLayerTableRecord
  2
VLS
 70
     0
 62
   252
  6
AUSGEZOGEN
  0
LAYER
  5
73C
330
A
100
AcDbSymbolTableRecord
100
AcDbLayerTableRecord
  2
DEFPOINTS
 70
     0
 62
     7
  6
AUSGEZOGEN
  0
ENDTAB
  0
TABLE
  2
STYLE
  5
B
330
0
100
AcDbSymbolTable
 70
     3
  0
STYLE
  5
C
330
B
100
AcDbSymbolTableRecord
100
AcDbTextStyleTableRecord
  2
STANDARD
 70
     0
 40
0.0
 41
1.0
 50
0.0
 71
     0
 42
3.0
  3
txt
  4

  0
STYLE
  5
1C
330
B
100
AcDbSymbolTableRecord
100
AcDbTextStyleTableRecord
  2
ROMANS
 70
     0
 40
0.0
 41
1.0
 50
0.0
 71
     0
 42
3.5
  3
romans.shx
  4

  0
STYLE
  5
1451
330
B
100
AcDbSymbolTableRecord
100
AcDbTextStyleTableRecord
  2
ROMANS8
 70
     0
 40
0.0
 41
1.0
 50
0.0
 71
     0
 42
40.0
  3
simplex.shx
  4

  0
ENDTAB
  0
TABLE
  2
VIEW
  5
10
330
0
100
AcDbSymbolTable
 70
     0
  0
ENDTAB
  0
TABLE
  2
UCS
  5
11
330
0
100
AcDbSymbolTable
 70
     0
  0
ENDTAB
  0
TABLE
  2
APPID
  5
14
330
0
100
AcDbSymbolTable
 70
     6
  0
APPID
  5
15
330
14
100
AcDbSymbolTableRecord
100
AcDbRegAppTableRecord
  2
ACAD
 70
     0
  0
APPID
  5
81B
330
14
100
AcDbSymbolTableRecord
100
AcDbRegAppTableRecord
  2
CONTENTTABDATA
 70
     0
  0
APPID
  5
81C
330
14
100
AcDbSymbolTableRecord
100
AcDbRegAppTableRecord
  2
CONTENTCURRENTTAB
 70
     0
  0
APPID
  5
9B6
330
14
100
AcDbSymbolTableRecord
100
AcDbRegAppTableRecord
  2
CONTENTBLOCKDESCRIPTION
 70
     0
  0
APPID
  5
B5D
330
14
100
AcDbSymbolTableRecord
100
AcDbRegAppTableRecord
  2
CONTENTBLOCKICON
 70
     0
  0
APPID
  5
1453
330
14
100
AcDbSymbolTableRecord
100
AcDbRegAppTableRecord
  2
AVE_RENDER
 70
     0
  0
ENDTAB
  0
TABLE
  2
DIMSTYLE
  5
16
330
0
100
AcDbSymbolTable
 70
     2
  0
DIMSTYLE
105
1E
330
16
100
AcDbSymbolTableRecord
100
AcDbDimStyleTableRecord
  2
STANDARD
 70
     0
  3

  4

  5

  6

  7

 40
3.0
 41
3.5
 42
0.1
 43
7.0
 44
1.8
 45
0.0
 46
0.0
 47
0.0
 48
0.0
140
3.5
141
0.0
142
0.0
143
25.4
144
1.0
145
0.0
146
1.0
147
1.7
 71
     0
 72
     0
 73
     0
 74
     0
 75
     0
 76
     0
 77
     1
 78
     8
170
     0
171
     2
172
     0
173
     0
174
     0
175
     0
176
   256
177
   256
178
   256
270
     2
271
     2
272
     2
273
     2
274
     2
340
1C
275
     0
280
     0
281
     0
282
     0
283
     1
284
     0
285
     0
286
     0
287
     3
288
     1
  0
DIMSTYLE
105
955B
330
16
100
AcDbSymbolTableRecord
100
AcDbDimStyleTableRecord
  2
1_20
 70
     0
  3

  4

  5

  6

  7

 40
20.0
 41
3.5
 42
0.1
 43
7.0
 44
1.8
 45
0.0
 46
0.0
 47
0.0
 48
0.0
140
3.5
141
0.0
142
0.0
143
25.4
144
1.0
145
0.0
146
1.0
147
1.7
 71
     0
 72
     0
 73
     0
 74
     0
 75
     0
 76
     0
 77
     1
 78
     8
170
     0
171
     2
172
     0
173
     0
174
     0
175
     0
176
   256
177
   256
178
   256
270
     2
271
     4
272
     4
273
     2
274
     2
340
1C
275
     0
280
     0
281
     0
282
     0
283
     1
284
     8
285
     0
286
     0
287
     3
288
     1
  0
ENDTAB
  0
TABLE
  2
BLOCK_RECORD
  5
1
330
0
100
AcDbSymbolTable
 70
     0
  0
BLOCK_RECORD
  5
2
102
{ACAD_XDICTIONARY
360
1FE67
102
}
330
1
100
AcDbSymbolTableRecord
100
AcDbBlockTableRecord
  2
*MODEL_SPACE
  0
BLOCK_RECORD
  5
7
102
{ACAD_XDICTIONARY
360
1FE69
102
}
330
1
100
AcDbSymbolTableRecord
100
AcDbBlockTableRecord
  2
*PAPER_SPACE
  0
ENDTAB
  0
ENDSEC
  0
SECTION
  2
BLOCKS
  0
BLOCK
  5
3
330
2
100
AcDbEntity
  8
0
100
AcDbBlockBegin
  2
*MODEL_SPACE
 70
     2
 10
0.0
 20
0.0
 30
0.0
  3
*MODEL_SPACE
  1

  0
ENDBLK
  5
6
330
2
100
AcDbEntity
  8
0
100
AcDbBlockEnd
  0
BLOCK
  5
8
330
7
100
AcDbEntity
 67
     1
  8
0
100
AcDbBlockBegin
  2
*PAPER_SPACE
 70
     2
 10
0.0
 20
0.0
 30
0.0
  3
*PAPER_SPACE
  1

  0
ENDBLK
  5
9
330
7
100
AcDbEntity
 67
     1
  8
0
100
AcDbBlockEnd
  0
ENDSEC
  0
SECTION
  2
ENTITIES
  0
LINE
  5
FC5C
330
2
100
AcDbEntity
  8
VLB
100
AcDbLine
 10
-14395.74305605169
 20
3579.591390512818
 30
0.0
 11
-14395.74305605169
 21
4311.09139051282
 31
0.0
  0
LINE
  5
FC5D
330
2
100
AcDbEntity
  8
VLB
100
AcDbLine
 10
-14342.74305605168
 20
4364.09139051282
 30
0.0
 11
-14342.74305605169
 21
3529.591390512819
 31
0.0
  0
LINE
  5
FC63
330
2
100
AcDbEntity
  8
VLB
100
AcDbLine
 10
-15126.74305605169
 20
4313.591390512821
 30
0.0
 11
-15126.74305605168
 21
3582.091390512821
 31
0.0
  0
LINE
  5
FC64
330
2
100
AcDbEntity
  8
VLB
100
AcDbLine
 10
-15179.74305605169
 20
3529.091390512821
 30
0.0
 11
-15179.74305605169
 21
4363.591390512822
 31
0.0
  0
ARC
  5
FC70
330
2
100
AcDbEntity
  8
VLB
100
AcDbCircle
 10
-14936.48025505168
 20
3525.331329512818
 30
0.0
 40
3.373272
100
AcDbArc
 50
235.4349069999325
 51
300.0000000000005
  0
LINE
  5
FC71
330
2
100
AcDbEntity
  8
VLB
100
AcDbLine
 10
-14934.54505305168
 20
3526.624723512819
 30
0.0
 11
-14943.24305605169
 21
3526.624723512819
 31
0.0
  0
LINE
  5
FC72
330
2
100
AcDbEntity
  8
VLB
100
AcDbLine
 10
-14942.24305605168
 20
3527.291390512818
 30
0.0
 11
-14934.74305605168
 21
3527.291390512818
 31
0.0
  0
LINE
  5
FC73
330
2
100
AcDbEntity
  8
VLB
100
AcDbLine
 10
-14935.57639005168
 20
3521.958057512819
 30
0.0
 11
-14943.24305605169
 21
3521.958057512819
 31
0.0
  0
LINE
  5
FC75
330
2
100
AcDbEntity
  8
VLB
100
AcDbLine
 10
-15128.24305605169
 20
3581.091390512821
 30
0.0
 11
-14843.74305605169
 21
3581.091390512821
 31
0.0
  0
LINE
  5
FC76
330
2
100
AcDbEntity
  8
VLB
100
AcDbLine
 10
-14343.74305605169
 20
3528.091390512818
 30
0.0
 11
-14680.74305605169
 21
3528.091390512819
 31
0.0
  0
LINE
  5
FC7A
330
2
100
AcDbEntity
  8
SPS
100
AcDbLine
 10
-15197.16120453776
 20
3946.091390512821
 30
0.0
 11
-14321.13154182972
 21
3946.091390512821
 31
0.0
  0
LINE
  5
FC86
330
2
100
AcDbEntity
  8
VLB
100
AcDbLine
 10
-15128.24305605169
 20
3582.091390512821
 30
0.0
 11
-15128.24305605169
 21
3529.091390512821
 31
0.0
  0
LINE
  5
FC87
330
2
100
AcDbEntity
  8
SPS
100
AcDbLine
 10
-15137.28390326442
 20
3532.683147658861
 30
0.0
 11
-15137.28390326442
 21
3548.575999736703
 31
0.0
  0
LINE
  5
FC8B
330
2
100
AcDbEntity
  8
VLB
100
AcDbLine
 10
-15179.74305605169
 20
3529.091390512821
 30
0.0
 11
-15128.24305605169
 21
3529.091390512821
 31
0.0
  0
LINE
  5
FC8C
330
2
100
AcDbEntity
  8
VLB
100
AcDbLine
 10
-15178.24305605169
 20
3528.091390512821
 30
0.0
 11
-15178.24305605169
 21
3529.091390512821
 31
0.0
  0
LINE
  5
FCA3
330
2
100
AcDbEntity
  8
VLB
100
AcDbLine
 10
-15128.24305605169
 20
3582.091390512821
 30
0.0
 11
-15126.74305605168
 21
3582.091390512821
 31
0.0
  0
CIRCLE
  5
FCA4
330
2
100
AcDbEntity
  8
VLB
100
AcDbCircle
 10
-15137.15381083924
 20
3570.751851640972
 30
0.0
 40
2.550000000006548
  0
CIRCLE
  5
FCA5
330
2
100
AcDbEntity
  8
VLB
100
AcDbCircle
 10
-15137.15381083924
 20
3570.751851640972
 30
0.0
 40
5.000000000001818
  0
LINE
  5
FCA6
330
2
100
AcDbEntity
  8
SPS
100
AcDbLine
 10
-15137.15381083924
 20
3563.343608787011
 30
0.0
 11
-15137.15381083924
 21
3579.236460864855
 31
0.0
  0
LINE
  5
FCA7
330
2
100
AcDbEntity
  8
SPS
100
AcDbLine
 10
-15143.46516739631
 20
3570.751851640972
 30
0.0
 11
-15130.12448125167
 21
3570.751851640972
 31
0.0
  0
CIRCLE
  5
FCA8
330
2
100
AcDbEntity
  8
VLB
100
AcDbCircle
 10
-15137.28390326442
 20
3540.091390512821
 30
0.0
 40
2.550000000006548
  0
CIRCLE
  5
FCA9
330
2
100
AcDbEntity
  8
VLB
100
AcDbCircle
 10
-15137.28390326442
 20
3540.091390512821
 30
0.0
 40
5.000000000001818
  0
LINE
  5
FCAA
330
2
100
AcDbEntity
  8
SPS
100
AcDbLine
 10
-15143.5952598215
 20
3540.091390512821
 30
0.0
 11
-15130.25457367686
 21
3540.091390512821
 31
0.0
  0
LINE
  5
FCC3
330
2
100
AcDbEntity
  8
SPS
100
AcDbLine
 10
-14942.24305605168
 20
3550.035706983693
 30
0.0
 11
-14942.24305605168
 21
3514.956138322569
 31
0.0
  0
LINE
  5
FCC4
330
2
100
AcDbEntity
  8
VLB
100
AcDbLine
 10
-14943.24305605169
 20
3526.624723512819
 30
0.0
 11
-14949.94105805169
 21
3526.624723512819
 31
0.0
  0
LINE
  5
FCC5
330
2
100
AcDbEntity
  8
VLB
100
AcDbLine
 10
-14949.74305505169
 20
3527.291390512818
 30
0.0
 11
-14943.24305605169
 21
3527.291390512818
 31
0.0
  0
LINE
  5
FCC6
330
2
100
AcDbEntity
  8
VLB
100
AcDbLine
 10
-14944.32496305169
 20
3527.291390512818
 30
0.0
 11
-14948.17638805169
 21
3527.291390512818
 31
0.0
  0
ARC
  5
FCC7
330
2
100
AcDbEntity
  8
VLB
100
AcDbCircle
 10
-14942.24305605168
 20
3534.695946512818
 30
0.0
 40
12.737889
100
AcDbArc
 50
252.4120459999403
 51
265.4973080000296
  0
LINE
  5
FCC8
330
2
100
AcDbEntity
  8
VLB
100
AcDbLine
 10
-14943.24305605169
 20
3521.958057512819
 30
0.0
 11
-14948.90972205169
 21
3521.958057512819
 31
0.0
  0
ARC
  5
FCC9
330
2
100
AcDbEntity
  8
VLB
100
AcDbCircle
 10
-14948.00585605169
 20
3525.331329512818
 30
0.0
 40
3.373272
100
AcDbArc
 50
239.9999999999994
 51
304.5650930000675
  0
LINE
  5
FCCA
330
2
100
AcDbEntity
  8
VLB
100
AcDbLine
 10
-14946.09205705168
 20
3526.624723512819
 30
0.0
 11
-14946.09205705168
 21
3522.55350051282
 31
0.0
  0
LINE
  5
FCCB
330
2
100
AcDbEntity
  8
VLB
100
AcDbLine
 10
-14949.94105805169
 20
3526.624723512819
 30
0.0
 11
-14949.94105805169
 21
3522.55350051282
 31
0.0
  0
LINE
  5
FCCC
330
2
100
AcDbEntity
  8
VLB
100
AcDbLine
 10
-14948.17638805169
 20
3527.291390512818
 30
0.0
 11
-14948.17638805169
 21
3526.624723512819
 31
0.0
  0
LINE
  5
FCCD
330
2
100
AcDbEntity
  8
VLB
100
AcDbLine
 10
-14949.74305505169
 20
3528.091390512818
 30
0.0
 11
-14949.74305505169
 21
3527.291390512818
 31
0.0
1001
ACAD
1000
ASC_BOUNDS
1002
{
1070
    16
1002
}
  0
LINE
  5
FCCE
330
2
100
AcDbEntity
  8
VLB
100
AcDbLine
 10
-14948.90972205169
 20
3521.958057512819
 30
0.0
 11
-14949.94105805169
 21
3522.55350051282
 31
0.0
  0
LINE
  5
FCCF
330
2
100
AcDbEntity
  8
VLB
100
AcDbLine
 10
-14943.24305605169
 20
3527.291390512818
 30
0.0
 11
-14942.24305605168
 21
3527.291390512818
 31
0.0
  0
LINE
  5
FCD0
330
2
100
AcDbEntity
  8
VLB
100
AcDbLine
 10
-14938.39405405169
 20
3526.624723512819
 30
0.0
 11
-14938.39405405169
 21
3522.55350051282
 31
0.0
  0
LINE
  5
FCD1
330
2
100
AcDbEntity
  8
VLB
100
AcDbLine
 10
-14936.30972305169
 20
3527.291390512818
 30
0.0
 11
-14936.30972305169
 21
3526.624723512819
 31
0.0
  0
LINE
  5
FCD2
330
2
100
AcDbEntity
  8
VLB
100
AcDbLine
 10
-14936.30972305169
 20
3527.291390512818
 30
0.0
 11
-14943.24305605169
 21
3527.291390512818
 31
0.0
  0
ARC
  5
FCD3
330
2
100
AcDbEntity
  8
VLB
100
AcDbCircle
 10
-14942.24305605168
 20
3534.695946512818
 30
0.0
 40
12.737889
100
AcDbArc
 50
265.4973080000296
 51
287.5879540000596
  0
LINE
  5
FD22
330
2
100
AcDbEntity
  8
SPS
100
AcDbLine
 10
-15101.24296468162
 20
4010.991390512821
 30
0.0
 11
-15101.24296468162
 21
3990.191390512821
 31
0.0
  0
LINE
  5
FD29
330
2
100
AcDbEntity
  8
SPS
100
AcDbLine
 10
-15090.84296468163
 20
3891.591390512821
 30
0.0
 11
-15111.64296468162
 21
3891.591390512821
 31
0.0
  0
LINE
  5
FD2B
330
2
100
AcDbEntity
  8
SPS
100
AcDbLine
 10
-15158.51783094104
 20
3766.091390512821
 30
0.0
 11
-15199.54598617238
 21
3766.091390512821
 31
0.0
  0
LINE
  5
FD2C
330
2
100
AcDbEntity
  8
VLB
100
AcDbLine
 10
-15181.20972305168
 20
3767.091390512825
 30
0.0
 11
-15181.20972305168
 21
3773.789392512822
 31
0.0
  0
LINE
  5
FD2D
330
2
100
AcDbEntity
  8
VLB
100
AcDbLine
 10
-15180.54305605168
 20
3773.591389512825
 30
0.0
 11
-15180.54305605168
 21
3767.091390512825
 31
0.0
  0
LINE
  5
FD2E
330
2
100
AcDbEntity
  8
VLB
100
AcDbLine
 10
-15180.54305605168
 20
3768.173297512825
 30
0.0
 11
-15180.54305605168
 21
3772.024722512822
 31
0.0
  0
ARC
  5
FD2F
330
2
100
AcDbEntity
  8
VLB
100
AcDbCircle
 10
-15173.13850005168
 20
3766.091390512821
 30
0.0
 40
12.737889
100
AcDbArc
 50
162.4120459999403
 51
175.4973080000216
  0
LINE
  5
FD30
330
2
100
AcDbEntity
  8
VLB
100
AcDbLine
 10
-15185.87638905168
 20
3767.091390512825
 30
0.0
 11
-15185.87638905168
 21
3772.758056512822
 31
0.0
  0
ARC
  5
FD31
330
2
100
AcDbEntity
  8
VLB
100
AcDbCircle
 10
-15182.50311705168
 20
3771.854190512822
 30
0.0
 40
3.373272
100
AcDbArc
 50
149.9999999999727
 51
214.5650930000803
  0
LINE
  5
FD32
330
2
100
AcDbEntity
  8
VLB
100
AcDbLine
 10
-15181.20972305168
 20
3769.94039151282
 30
0.0
 11
-15185.28094605168
 21
3769.94039151282
 31
0.0
  0
LINE
  5
FD33
330
2
100
AcDbEntity
  8
VLB
100
AcDbLine
 10
-15181.20972305168
 20
3773.789392512822
 30
0.0
 11
-15185.28094605168
 21
3773.789392512822
 31
0.0
  0
LINE
  5
FD34
330
2
100
AcDbEntity
  8
VLB
100
AcDbLine
 10
-15180.54305605168
 20
3772.024722512822
 30
0.0
 11
-15181.20972305168
 21
3772.024722512822
 31
0.0
  0
LINE
  5
FD35
330
2
100
AcDbEntity
  8
VLB
100
AcDbLine
 10
-15179.74305605169
 20
3773.591389512825
 30
0.0
 11
-15180.54305605168
 21
3773.591389512825
 31
0.0
1001
ACAD
1000
ASC_BOUNDS
1002
{
1070
    16
1002
}
  0
LINE
  5
FD36
330
2
100
AcDbEntity
  8
VLB
100
AcDbLine
 10
-15185.87638905168
 20
3772.758056512822
 30
0.0
 11
-15185.28094605168
 21
3773.789392512822
 31
0.0
  0
LINE
  5
FD37
330
2
100
AcDbEntity
  8
VLB
100
AcDbLine
 10
-15180.54305605168
 20
3767.091390512825
 30
0.0
 11
-15180.54305605168
 21
3766.091390512821
 31
0.0
  0
LINE
  5
FD38
330
2
100
AcDbEntity
  8
VLB
100
AcDbLine
 10
-15181.20972305168
 20
3758.39338751282
 30
0.0
 11
-15185.28094605168
 21
3758.39338751282
 31
0.0
  0
LINE
  5
FD39
330
2
100
AcDbEntity
  8
VLB
100
AcDbLine
 10
-15181.20972305168
 20
3762.242388512822
 30
0.0
 11
-15185.28094605168
 21
3762.242388512822
 31
0.0
  0
LINE
  5
FD3A
330
2
100
AcDbEntity
  8
VLB
100
AcDbLine
 10
-15180.54305605168
 20
3758.591390512821
 30
0.0
 11
-15179.74305605169
 21
3758.591390512821
 31
0.0
  0
LINE
  5
FD3B
330
2
100
AcDbEntity
  8
VLB
100
AcDbLine
 10
-15179.74305605169
 20
3758.591390512821
 30
0.0
 11
-15180.54305605168
 21
3758.591390512821
 31
0.0
1001
ACAD
1000
ASC_BOUNDS
1002
{
1070
    16
1002
}
  0
LINE
  5
FD3C
330
2
100
AcDbEntity
  8
VLB
100
AcDbLine
 10
-15180.54305605168
 20
3760.158057512824
 30
0.0
 11
-15181.20972305168
 21
3760.158057512824
 31
0.0
  0
LINE
  5
FD3D
330
2
100
AcDbEntity
  8
VLB
100
AcDbLine
 10
-15185.87638905168
 20
3759.42472451282
 30
0.0
 11
-15185.28094605168
 21
3758.39338751282
 31
0.0
  0
ARC
  5
FD3E
330
2
100
AcDbEntity
  8
VLB
100
AcDbCircle
 10
-15182.50311705168
 20
3760.328589512821
 30
0.0
 40
3.373272
100
AcDbArc
 50
145.4349069999197
 51
210.0000000000272
  0
LINE
  5
FD3F
330
2
100
AcDbEntity
  8
VLB
100
AcDbLine
 10
-15180.54305605168
 20
3760.158057512824
 30
0.0
 11
-15180.54305605168
 21
3767.091390512825
 31
0.0
  0
LINE
  5
FD40
330
2
100
AcDbEntity
  8
VLB
100
AcDbLine
 10
-15181.20972305168
 20
3758.39338751282
 30
0.0
 11
-15181.20972305168
 21
3767.091390512825
 31
0.0
  0
LINE
  5
FD41
330
2
100
AcDbEntity
  8
VLB
100
AcDbLine
 10
-15180.54305605168
 20
3766.091390512821
 30
0.0
 11
-15180.54305605168
 21
3758.591390512821
 31
0.0
  0
ARC
  5
FD42
330
2
100
AcDbEntity
  8
VLB
100
AcDbCircle
 10
-15173.13850005168
 20
3766.091390512821
 30
0.0
 40
12.737889
100
AcDbArc
 50
175.4973080000216
 51
197.5879540000596
  0
LINE
  5
FD43
330
2
100
AcDbEntity
  8
VLB
100
AcDbLine
 10
-15185.87638905168
 20
3759.42472451282
 30
0.0
 11
-15185.87638905168
 21
3767.091390512825
 31
0.0
  0
LINE
  5
FD7B
330
2
100
AcDbEntity
  8
SPS
100
AcDbLine
 10
-15090.84296468163
 20
4000.591390512822
 30
0.0
 11
-15111.64296468162
 21
4000.591390512822
 31
0.0
  0
LINE
  5
FD7C
330
2
100
AcDbEntity
  8
SPS
100
AcDbLine
 10
-15158.51783094104
 20
4126.091390512821
 30
0.0
 11
-15199.54598617238
 21
4126.091390512821
 31
0.0
  0
LINE
  5
FD7E
330
2
100
AcDbEntity
  8
VLB
100
AcDbLine
 10
-15181.20972305168
 20
4127.091390512825
 30
0.0
 11
-15181.20972305168
 21
4133.789392512823
 31
0.0
  0
LINE
  5
FD7F
330
2
100
AcDbEntity
  8
VLB
100
AcDbLine
 10
-15180.54305605168
 20
4133.591389512825
 30
0.0
 11
-15180.54305605168
 21
4127.091390512825
 31
0.0
  0
LINE
  5
FD80
330
2
100
AcDbEntity
  8
VLB
100
AcDbLine
 10
-15180.54305605168
 20
4128.173297512825
 30
0.0
 11
-15180.54305605168
 21
4132.024722512823
 31
0.0
  0
ARC
  5
FD81
330
2
100
AcDbEntity
  8
VLB
100
AcDbCircle
 10
-15173.13850005168
 20
4126.091390512821
 30
0.0
 40
12.737889
100
AcDbArc
 50
162.4120459999403
 51
175.4973080000216
  0
LINE
  5
FD82
330
2
100
AcDbEntity
  8
VLB
100
AcDbLine
 10
-15185.87638905168
 20
4127.091390512825
 30
0.0
 11
-15185.87638905168
 21
4132.758056512822
 31
0.0
  0
ARC
  5
FD83
330
2
100
AcDbEntity
  8
VLB
100
AcDbCircle
 10
-15182.50311705168
 20
4131.854190512822
 30
0.0
 40
3.373272
100
AcDbArc
 50
149.9999999999727
 51
214.5650930000803
  0
LINE
  5
FD84
330
2
100
AcDbEntity
  8
VLB
100
AcDbLine
 10
-15181.20972305168
 20
4129.94039151282
 30
0.0
 11
-15185.28094605168
 21
4129.94039151282
 31
0.0
  0
LINE
  5
FD85
330
2
100
AcDbEntity
  8
VLB
100
AcDbLine
 10
-15181.20972305168
 20
4133.789392512823
 30
0.0
 11
-15185.28094605168
 21
4133.789392512823
 31
0.0
  0
LINE
  5
FD86
330
2
100
AcDbEntity
  8
VLB
100
AcDbLine
 10
-15180.54305605168
 20
4132.024722512823
 30
0.0
 11
-15181.20972305168
 21
4132.024722512823
 31
0.0
  0
LINE
  5
FD87
330
2
100
AcDbEntity
  8
VLB
100
AcDbLine
 10
-15179.74305605169
 20
4133.591389512825
 30
0.0
 11
-15180.54305605168
 21
4133.591389512825
 31
0.0
1001
ACAD
1000
ASC_BOUNDS
1002
{
1070
    16
1002
}
  0
LINE
  5
FD88
330
2
100
AcDbEntity
  8
VLB
100
AcDbLine
 10
-15185.87638905168
 20
4132.758056512822
 30
0.0
 11
-15185.28094605168
 21
4133.789392512823
 31
0.0
  0
LINE
  5
FD89
330
2
100
AcDbEntity
  8
VLB
100
AcDbLine
 10
-15180.54305605168
 20
4127.091390512825
 30
0.0
 11
-15180.54305605168
 21
4126.091390512821
 31
0.0
  0
LINE
  5
FD8A
330
2
100
AcDbEntity
  8
VLB
100
AcDbLine
 10
-15181.20972305168
 20
4118.39338751282
 30
0.0
 11
-15185.28094605168
 21
4118.39338751282
 31
0.0
  0
LINE
  5
FD8B
330
2
100
AcDbEntity
  8
VLB
100
AcDbLine
 10
-15181.20972305168
 20
4122.242388512822
 30
0.0
 11
-15185.28094605168
 21
4122.242388512822
 31
0.0
  0
LINE
  5
FD8C
330
2
100
AcDbEntity
  8
VLB
100
AcDbLine
 10
-15180.54305605168
 20
4118.591390512821
 30
0.0
 11
-15179.74305605169
 21
4118.591390512821
 31
0.0
  0
LINE
  5
FD8D
330
2
100
AcDbEntity
  8
VLB
100
AcDbLine
 10
-15179.74305605169
 20
4118.591390512821
 30
0.0
 11
-15180.54305605168
 21
4118.591390512821
 31
0.0
1001
ACAD
1000
ASC_BOUNDS
1002
{
1070
    16
1002
}
  0
LINE
  5
FD8E
330
2
100
AcDbEntity
  8
VLB
100
AcDbLine
 10
-15180.54305605168
 20
4120.158057512824
 30
0.0
 11
-15181.20972305168
 21
4120.158057512824
 31
0.0
  0
LINE
  5
FD8F
330
2
100
AcDbEntity
  8
VLB
100
AcDbLine
 10
-15185.87638905168
 20
4119.42472451282
 30
0.0
 11
-15185.28094605168
 21
4118.39338751282
 31
0.0
  0
ARC
  5
FD90
330
2
100
AcDbEntity
  8
VLB
100
AcDbCircle
 10
-15182.50311705168
 20
4120.328589512821
 30
0.0
 40
3.373272
100
AcDbArc
 50
145.4349069999197
 51
210.0000000000272
  0
LINE
  5
FD91
330
2
100
AcDbEntity
  8
VLB
100
AcDbLine
 10
-15180.54305605168
 20
4120.158057512824
 30
0.0
 11
-15180.54305605168
 21
4127.091390512825
 31
0.0
  0
LINE
  5
FD92
330
2
100
AcDbEntity
  8
VLB
100
AcDbLine
 10
-15181.20972305168
 20
4118.39338751282
 30
0.0
 11
-15181.20972305168
 21
4127.091390512825
 31
0.0
  0
LINE
  5
FD93
330
2
100
AcDbEntity
  8
VLB
100
AcDbLine
 10
-15180.54305605168
 20
4126.091390512821
 30
0.0
 11
-15180.54305605168
 21
4118.591390512821
 31
0.0
  0
ARC
  5
FD94
330
2
100
AcDbEntity
  8
VLB
100
AcDbCircle
 10
-15173.13850005168
 20
4126.091390512821
 30
0.0
 40
12.737889
100
AcDbArc
 50
175.4973080000216
 51
197.5879540000596
  0
LINE
  5
FD95
330
2
100
AcDbEntity
  8
VLB
100
AcDbLine
 10
-15185.87638905168
 20
4119.42472451282
 30
0.0
 11
-15185.87638905168
 21
4127.091390512825
 31
0.0
  0
LINE
  5
FDF8
330
2
100
AcDbEntity
  8
SPS
100
AcDbLine
 10
-14762.24305605168
 20
3440.89139051282
 30
0.0
 11
-14762.24305605169
 21
4451.291390512821
 31
0.0
  0
LINE
  5
FDF9
330
2
100
AcDbEntity
  8
VLB
100
AcDbLine
 10
-14583.24305605169
 20
3526.624723512819
 30
0.0
 11
-14589.94105805169
 21
3526.624723512819
 31
0.0
  0
LINE
  5
FDFA
330
2
100
AcDbEntity
  8
VLB
100
AcDbLine
 10
-14589.74305505169
 20
3527.291390512818
 30
0.0
 11
-14583.24305605169
 21
3527.291390512818
 31
0.0
  0
LINE
  5
FDFB
330
2
100
AcDbEntity
  8
VLB
100
AcDbLine
 10
-14584.32496305169
 20
3527.291390512818
 30
0.0
 11
-14588.17638805169
 21
3527.291390512818
 31
0.0
  0
LINE
  5
FDFC
330
2
100
AcDbEntity
  8
VLB
100
AcDbLine
 10
-14583.24305605169
 20
3521.958057512819
 30
0.0
 11
-14588.90972205169
 21
3521.958057512819
 31
0.0
  0
ARC
  5
FDFD
330
2
100
AcDbEntity
  8
VLB
100
AcDbCircle
 10
-14588.00585605169
 20
3525.331329512818
 30
0.0
 40
3.373272
100
AcDbArc
 50
239.9999999999994
 51
304.5650930000675
  0
LINE
  5
FE0F
330
2
100
AcDbEntity
  8
VLB
100
AcDbLine
 10
-14934.54505305168
 20
3526.624723512819
 30
0.0
 11
-14934.54505305168
 21
3522.55350051282
 31
0.0
  0
LINE
  5
FE10
330
2
100
AcDbEntity
  8
VLB
100
AcDbLine
 10
-14934.74305605168
 20
3527.291390512818
 30
0.0
 11
-14934.74305605168
 21
3528.091390512818
 31
0.0
  0
LINE
  5
FE11
330
2
100
AcDbEntity
  8
VLB
100
AcDbLine
 10
-14934.74305605168
 20
3528.091390512818
 30
0.0
 11
-14934.74305605168
 21
3527.291390512818
 31
0.0
1001
ACAD
1000
ASC_BOUNDS
1002
{
1070
    16
1002
}
  0
LINE
  5
FE12
330
2
100
AcDbEntity
  8
VLB
100
AcDbLine
 10
-14935.57639005168
 20
3521.958057512819
 30
0.0
 11
-14934.54505305168
 21
3522.55350051282
 31
0.0
  0
LINE
  5
FE31
330
2
100
AcDbEntity
  8
VLB
100
AcDbLine
 10
-14589.94105805169
 20
3526.624723512819
 30
0.0
 11
-14589.94105805169
 21
3522.55350051282
 31
0.0
  0
LINE
  5
FE32
330
2
100
AcDbEntity
  8
VLB
100
AcDbLine
 10
-14588.17638805169
 20
3527.291390512818
 30
0.0
 11
-14588.17638805169
 21
3526.624723512819
 31
0.0
  0
LINE
  5
FE33
330
2
100
AcDbEntity
  8
VLB
100
AcDbLine
 10
-14589.74305505169
 20
3528.091390512818
 30
0.0
 11
-14589.74305505169
 21
3527.291390512818
 31
0.0
1001
ACAD
1000
ASC_BOUNDS
1002
{
1070
    16
1002
}
  0
LINE
  5
FE34
330
2
100
AcDbEntity
  8
VLB
100
AcDbLine
 10
-14588.90972205169
 20
3521.958057512819
 30
0.0
 11
-14589.94105805169
 21
3522.55350051282
 31
0.0
  0
LINE
  5
FE3E
330
2
100
AcDbEntity
  8
SPS
100
AcDbLine
 10
-14582.24305605169
 20
3550.035706983693
 30
0.0
 11
-14582.24305605169
 21
3514.956138322569
 31
0.0
  0
LINE
  5
FE3F
330
2
100
AcDbEntity
  8
VLB
100
AcDbLine
 10
-14574.54505305168
 20
3526.624723512819
 30
0.0
 11
-14574.54505305168
 21
3522.55350051282
 31
0.0
  0
LINE
  5
FE40
330
2
100
AcDbEntity
  8
VLB
100
AcDbLine
 10
-14578.39405405169
 20
3526.624723512819
 30
0.0
 11
-14578.39405405169
 21
3522.55350051282
 31
0.0
  0
LINE
  5
FE41
330
2
100
AcDbEntity
  8
VLB
100
AcDbLine
 10
-14574.74305605169
 20
3527.291390512818
 30
0.0
 11
-14574.74305605169
 21
3528.091390512818
 31
0.0
  0
LINE
  5
FE42
330
2
100
AcDbEntity
  8
VLB
100
AcDbLine
 10
-14574.74305605169
 20
3528.091390512818
 30
0.0
 11
-14574.74305605169
 21
3527.291390512818
 31
0.0
1001
ACAD
1000
ASC_BOUNDS
1002
{
1070
    16
1002
}
  0
LINE
  5
FE43
330
2
100
AcDbEntity
  8
VLB
100
AcDbLine
 10
-14576.30972305169
 20
3527.291390512818
 30
0.0
 11
-14576.30972305169
 21
3526.624723512819
 31
0.0
  0
LINE
  5
FE44
330
2
100
AcDbEntity
  8
VLB
100
AcDbLine
 10
-14575.57639005169
 20
3521.958057512819
 30
0.0
 11
-14574.54505305168
 21
3522.55350051282
 31
0.0
  0
ARC
  5
FE45
330
2
100
AcDbEntity
  8
VLB
100
AcDbCircle
 10
-14576.48025505168
 20
3525.331329512818
 30
0.0
 40
3.373272
100
AcDbArc
 50
235.4349069999325
 51
300.0000000000005
  0
ARC
  5
FE46
330
2
100
AcDbEntity
  8
VLB
100
AcDbCircle
 10
-14582.24305605169
 20
3534.695946512818
 30
0.0
 40
12.737889
100
AcDbArc
 50
252.4120459999403
 51
265.4973080000296
  0
LINE
  5
FE47
330
2
100
AcDbEntity
  8
VLB
100
AcDbLine
 10
-14586.09205705168
 20
3526.624723512819
 30
0.0
 11
-14586.09205705168
 21
3522.55350051282
 31
0.0
  0
LINE
  5
FE48
330
2
100
AcDbEntity
  8
VLB
100
AcDbLine
 10
-14583.24305605169
 20
3527.291390512818
 30
0.0
 11
-14582.24305605169
 21
3527.291390512818
 31
0.0
  0
LINE
  5
FE49
330
2
100
AcDbEntity
  8
VLB
100
AcDbLine
 10
-14576.30972305169
 20
3527.291390512818
 30
0.0
 11
-14583.24305605169
 21
3527.291390512818
 31
0.0
  0
LINE
  5
FE4A
330
2
100
AcDbEntity
  8
VLB
100
AcDbLine
 10
-14574.54505305168
 20
3526.624723512819
 30
0.0
 11
-14583.24305605169
 21
3526.624723512819
 31
0.0
  0
LINE
  5
FE4B
330
2
100
AcDbEntity
  8
VLB
100
AcDbLine
 10
-14582.24305605169
 20
3527.291390512818
 30
0.0
 11
-14574.74305605169
 21
3527.291390512818
 31
0.0
  0
ARC
  5
FE4C
330
2
100
AcDbEntity
  8
VLB
100
AcDbCircle
 10
-14582.24305605169
 20
3534.695946512818
 30
0.0
 40
12.737889
100
AcDbArc
 50
265.4973080000296
 51
287.5879540000596
  0
LINE
  5
FE4D
330
2
100
AcDbEntity
  8
VLB
100
AcDbLine
 10
-14575.57639005169
 20
3521.958057512819
 30
0.0
 11
-14583.24305605169
 21
3521.958057512819
 31
0.0
  0
LINE
  5
FE8E
330
2
100
AcDbEntity
  8
VLB
100
AcDbLine
 10
-14343.74305605169
 20
3528.091390512818
 30
0.0
 11
-14343.74305605169
 21
3579.591390512818
 31
0.0
  0
LINE
  5
FE92
330
2
100
AcDbEntity
  8
VLB
100
AcDbLine
 10
-14342.74305605169
 20
3529.591390512819
 30
0.0
 11
-14343.74305605169
 21
3529.591390512819
 31
0.0
  0
LINE
  5
FE9B
330
2
100
AcDbEntity
  8
VLB
100
AcDbLine
 10
-14396.74305605169
 20
3579.591390512818
 30
0.0
 11
-14343.74305605169
 21
3579.591390512818
 31
0.0
  0
LINE
  5
FE9C
330
2
100
AcDbEntity
  8
VLB
100
AcDbLine
 10
-14396.74305605169
 20
3579.591390512818
 30
0.0
 11
-14396.74305605169
 21
3581.091390512821
 31
0.0
  0
CIRCLE
  5
FE9D
330
2
100
AcDbEntity
  8
VLB
100
AcDbCircle
 10
-14387.19015070973
 20
3570.304509153
 30
0.0
 40
2.550000000006548
  0
CIRCLE
  5
FE9E
330
2
100
AcDbEntity
  8
VLB
100
AcDbCircle
 10
-14387.19015070973
 20
3570.304509153
 30
0.0
 40
5.000000000001818
  0
LINE
  5
FE9F
330
2
100
AcDbEntity
  8
SPS
100
AcDbLine
 10
-14387.19015070973
 20
3562.896266299039
 30
0.0
 11
-14387.19015070973
 21
3578.789118376882
 31
0.0
  0
LINE
  5
FEA0
330
2
100
AcDbEntity
  8
SPS
100
AcDbLine
 10
-14393.50150726681
 20
3570.304509153
 30
0.0
 11
-14380.16082112216
 21
3570.304509153
 31
0.0
  0
CIRCLE
  5
FEB4
330
2
100
AcDbEntity
  8
VLB
100
AcDbCircle
 10
-14353.010196999
 20
3570.304509153001
 30
0.0
 40
2.550000000006548
  0
CIRCLE
  5
FEB5
330
2
100
AcDbEntity
  8
VLB
100
AcDbCircle
 10
-14353.010196999
 20
3570.304509153001
 30
0.0
 40
5.000000000001818
  0
LINE
  5
FEB6
330
2
100
AcDbEntity
  8
SPS
100
AcDbLine
 10
-14353.010196999
 20
3562.896266299041
 30
0.0
 11
-14353.010196999
 21
3578.789118376884
 31
0.0
  0
LINE
  5
FEB7
330
2
100
AcDbEntity
  8
SPS
100
AcDbLine
 10
-14359.32155355607
 20
3570.304509153001
 30
0.0
 11
-14345.98086741143
 21
3570.304509153001
 31
0.0
  0
LINE
  5
FEC9
330
2
100
AcDbEntity
  8
SPS
100
AcDbLine
 10
-14762.24305605168
 20
3912.573539917358
 30
0.0
 11
-14762.24305605168
 21
3975.492873003329
 31
0.0
  0
LINE
  5
FECA
330
2
100
AcDbEntity
  8
SPS
100
AcDbLine
 10
-14779.45388666166
 20
3946.091390512821
 30
0.0
 11
-14733.97397206579
 21
3946.091390512821
 31
0.0
  0
LINE
  5
FEDA
330
2
100
AcDbEntity
  8
SPS
100
AcDbLine
 10
-14423.24314742175
 20
4010.991390512821
 30
0.0
 11
-14423.24314742175
 21
3990.191390512821
 31
0.0
  0
LINE
  5
FEE0
330
2
100
AcDbEntity
  8
SPS
100
AcDbLine
 10
-14433.64314742175
 20
3891.591390512821
 30
0.0
 11
-14412.84314742175
 21
3891.591390512821
 31
0.0
  0
LINE
  5
FEFC
330
2
100
AcDbEntity
  8
VLB
100
AcDbLine
 10
-14341.27638905169
 20
3765.091390512818
 30
0.0
 11
-14341.27638905169
 21
3758.39338851282
 31
0.0
  0
LINE
  5
FEFD
330
2
100
AcDbEntity
  8
VLB
100
AcDbLine
 10
-14341.94305605169
 20
3758.591391512818
 30
0.0
 11
-14341.94305605169
 21
3765.091390512818
 31
0.0
  0
LINE
  5
FEFE
330
2
100
AcDbEntity
  8
VLB
100
AcDbLine
 10
-14341.94305605169
 20
3764.009483512818
 30
0.0
 11
-14341.94305605169
 21
3760.158058512821
 31
0.0
  0
ARC
  5
FEFF
330
2
100
AcDbEntity
  8
VLB
100
AcDbCircle
 10
-14349.34761205169
 20
3766.091390512823
 30
0.0
 40
12.737889
100
AcDbArc
 50
342.4120459999404
 51
355.4973080000215
  0
LINE
  5
FF00
330
2
100
AcDbEntity
  8
VLB
100
AcDbLine
 10
-14336.60972305169
 20
3765.091390512818
 30
0.0
 11
-14336.60972305169
 21
3759.42472451282
 31
0.0
  0
ARC
  5
FF01
330
2
100
AcDbEntity
  8
VLB
100
AcDbCircle
 10
-14339.98299505169
 20
3760.328590512823
 30
0.0
 40
3.373272
100
AcDbArc
 50
329.9999999999727
 51
34.56509300008031
  0
LINE
  5
FF02
330
2
100
AcDbEntity
  8
VLB
100
AcDbLine
 10
-14341.27638905169
 20
3762.242389512822
 30
0.0
 11
-14337.20516605169
 21
3762.242389512822
 31
0.0
  0
LINE
  5
FF03
330
2
100
AcDbEntity
  8
VLB
100
AcDbLine
 10
-14341.27638905169
 20
3758.39338851282
 30
0.0
 11
-14337.20516605169
 21
3758.39338851282
 31
0.0
  0
LINE
  5
FF04
330
2
100
AcDbEntity
  8
VLB
100
AcDbLine
 10
-14341.94305605169
 20
3760.158058512821
 30
0.0
 11
-14341.27638905169
 21
3760.158058512821
 31
0.0
  0
LINE
  5
FF05
330
2
100
AcDbEntity
  8
VLB
100
AcDbLine
 10
-14342.74305605169
 20
3758.591391512818
 30
0.0
 11
-14341.94305605169
 21
3758.591391512818
 31
0.0
1001
ACAD
1000
ASC_BOUNDS
1002
{
1070
    16
1002
}
  0
LINE
  5
FF06
330
2
100
AcDbEntity
  8
VLB
100
AcDbLine
 10
-14336.60972305169
 20
3759.42472451282
 30
0.0
 11
-14337.20516605169
 21
3758.39338851282
 31
0.0
  0
LINE
  5
FF07
330
2
100
AcDbEntity
  8
VLB
100
AcDbLine
 10
-14341.94305605169
 20
3765.091390512818
 30
0.0
 11
-14341.94305605169
 21
3766.091390512821
 31
0.0
  0
LINE
  5
FF08
330
2
100
AcDbEntity
  8
VLB
100
AcDbLine
 10
-14341.27638905169
 20
3773.789393512823
 30
0.0
 11
-14337.20516605169
 21
3773.789393512823
 31
0.0
  0
LINE
  5
FF09
330
2
100
AcDbEntity
  8
VLB
100
AcDbLine
 10
-14341.27638905169
 20
3769.94039251282
 30
0.0
 11
-14337.20516605169
 21
3769.94039251282
 31
0.0
  0
LINE
  5
FF0A
330
2
100
AcDbEntity
  8
VLB
100
AcDbLine
 10
-14341.94305605169
 20
3773.591390512821
 30
0.0
 11
-14342.74305605169
 21
3773.591390512821
 31
0.0
  0
LINE
  5
FF0B
330
2
100
AcDbEntity
  8
VLB
100
AcDbLine
 10
-14342.74305605169
 20
3773.591390512821
 30
0.0
 11
-14341.94305605169
 21
3773.591390512821
 31
0.0
1001
ACAD
1000
ASC_BOUNDS
1002
{
1070
    16
1002
}
  0
LINE
  5
FF0C
330
2
100
AcDbEntity
  8
VLB
100
AcDbLine
 10
-14341.94305605169
 20
3772.024723512818
 30
0.0
 11
-14341.27638905169
 21
3772.024723512818
 31
0.0
  0
LINE
  5
FF0D
330
2
100
AcDbEntity
  8
VLB
100
AcDbLine
 10
-14336.60972305169
 20
3772.758056512822
 30
0.0
 11
-14337.20516605169
 21
3773.789393512823
 31
0.0
  0
ARC
  5
FF0E
330
2
100
AcDbEntity
  8
VLB
100
AcDbCircle
 10
-14339.98299505169
 20
3771.854191512824
 30
0.0
 40
3.373272
100
AcDbArc
 50
325.4349069999197
 51
30.00000000002723
  0
LINE
  5
FF0F
330
2
100
AcDbEntity
  8
VLB
100
AcDbLine
 10
-14341.94305605169
 20
3772.024723512818
 30
0.0
 11
-14341.94305605169
 21
3765.091390512818
 31
0.0
  0
LINE
  5
FF10
330
2
100
AcDbEntity
  8
VLB
100
AcDbLine
 10
-14341.27638905169
 20
3773.789393512823
 30
0.0
 11
-14341.27638905169
 21
3765.091390512818
 31
0.0
  0
LINE
  5
FF11
330
2
100
AcDbEntity
  8
VLB
100
AcDbLine
 10
-14341.94305605169
 20
3766.091390512821
 30
0.0
 11
-14341.94305605169
 21
3773.591390512821
 31
0.0
  0
ARC
  5
FF12
330
2
100
AcDbEntity
  8
VLB
100
AcDbCircle
 10
-14349.34761205169
 20
3766.091390512823
 30
0.0
 40
12.737889
100
AcDbArc
 50
355.4973080000215
 51
17.58795400005962
  0
LINE
  5
FF13
330
2
100
AcDbEntity
  8
VLB
100
AcDbLine
 10
-14336.60972305169
 20
3772.758056512822
 30
0.0
 11
-14336.60972305169
 21
3765.091390512818
 31
0.0
  0
ARC
  5
FF23
330
2
100
AcDbEntity
  8
VLB
100
AcDbCircle
 10
-14353.74305605157
 20
3946.091390512851
 30
0.0
 40
12.9999999998802
100
AcDbArc
 50
15.94236860555777
 51
22.61986494814464
  0
LINE
  5
FF24
330
2
100
AcDbEntity
  8
SPS
100
AcDbLine
 10
-14351.53776056141
 20
3946.091390512821
 30
0.0
 11
-14338.4985699554
 21
3946.091390512821
 31
0.0
  0
ARC
  5
FF25
330
2
100
AcDbEntity
  8
VLB
100
AcDbCircle
 10
-14353.74305605169
 20
3946.091390512821
 30
0.0
 40
12.99999999999925
100
AcDbArc
 50
344.0576313944422
 51
15.94236860555777
  0
ARC
  5
FF26
330
2
100
AcDbEntity
  8
VLB
100
AcDbCircle
 10
-14353.74305605181
 20
3946.091390512874
 30
0.0
 40
13.00000000013173
100
AcDbArc
 50
337.3801350519215
 51
344.0576313944422
  0
LINE
  5
FF27
330
2
100
AcDbEntity
  8
VLB
100
AcDbLine
 10
-14341.74305605169
 20
3941.091390512821
 30
0.0
 11
-14342.74305605168
 21
3941.091390512823
 31
0.0
  0
LINE
  5
FF2D
330
2
100
AcDbEntity
  8
VLB
100
AcDbLine
 10
-14341.74305605169
 20
3951.091390512821
 30
0.0
 11
-14342.74305605168
 21
3951.09139051282
 31
0.0
  0
LINE
  5
FF2F
330
2
100
AcDbEntity
  8
SPS
100
AcDbLine
 10
-14433.64314742175
 20
4000.591390512822
 30
0.0
 11
-14412.84314742175
 21
4000.591390512822
 31
0.0
  0
LINE
  5
FF4C
330
2
100
AcDbEntity
  8
VLB
100
AcDbLine
 10
-14341.27638905169
 20
4125.091390512817
 30
0.0
 11
-14341.27638905169
 21
4118.393388512821
 31
0.0
  0
LINE
  5
FF4D
330
2
100
AcDbEntity
  8
VLB
100
AcDbLine
 10
-14341.94305605169
 20
4118.591391512818
 30
0.0
 11
-14341.94305605169
 21
4125.091390512817
 31
0.0
  0
LINE
  5
FF4E
330
2
100
AcDbEntity
  8
VLB
100
AcDbLine
 10
-14341.94305605169
 20
4124.009483512818
 30
0.0
 11
-14341.94305605169
 21
4120.158058512821
 31
0.0
  0
ARC
  5
FF4F
330
2
100
AcDbEntity
  8
VLB
100
AcDbCircle
 10
-14349.34761205169
 20
4126.09139051282
 30
0.0
 40
12.737889
100
AcDbArc
 50
342.4120459999404
 51
355.4973080000215
  0
LINE
  5
FF50
330
2
100
AcDbEntity
  8
VLB
100
AcDbLine
 10
-14336.60972305169
 20
4125.091390512817
 30
0.0
 11
-14336.60972305169
 21
4119.42472451282
 31
0.0
  0
ARC
  5
FF51
330
2
100
AcDbEntity
  8
VLB
100
AcDbCircle
 10
-14339.98299505169
 20
4120.328590512819
 30
0.0
 40
3.373272
100
AcDbArc
 50
329.9999999999727
 51
34.56509300008031
  0
LINE
  5
FF52
330
2
100
AcDbEntity
  8
VLB
100
AcDbLine
 10
-14341.27638905169
 20
4122.242389512822
 30
0.0
 11
-14337.20516605169
 21
4122.242389512822
 31
0.0
  0
LINE
  5
FF53
330
2
100
AcDbEntity
  8
VLB
100
AcDbLine
 10
-14341.27638905169
 20
4118.393388512821
 30
0.0
 11
-14337.20516605169
 21
4118.393388512821
 31
0.0
  0
LINE
  5
FF54
330
2
100
AcDbEntity
  8
VLB
100
AcDbLine
 10
-14341.94305605169
 20
4120.158058512821
 30
0.0
 11
-14341.27638905169
 21
4120.158058512821
 31
0.0
  0
LINE
  5
FF55
330
2
100
AcDbEntity
  8
VLB
100
AcDbLine
 10
-14342.74305605168
 20
4118.591391512818
 30
0.0
 11
-14341.94305605169
 21
4118.591391512818
 31
0.0
1001
ACAD
1000
ASC_BOUNDS
1002
{
1070
    16
1002
}
  0
LINE
  5
FF56
330
2
100
AcDbEntity
  8
VLB
100
AcDbLine
 10
-14336.60972305169
 20
4119.42472451282
 30
0.0
 11
-14337.20516605169
 21
4118.393388512821
 31
0.0
  0
LINE
  5
FF57
330
2
100
AcDbEntity
  8
VLB
100
AcDbLine
 10
-14341.94305605169
 20
4125.091390512817
 30
0.0
 11
-14341.94305605169
 21
4126.091390512821
 31
0.0
  0
LINE
  5
FF58
330
2
100
AcDbEntity
  8
VLB
100
AcDbLine
 10
-14341.27638905169
 20
4133.789393512823
 30
0.0
 11
-14337.20516605169
 21
4133.789393512823
 31
0.0
  0
LINE
  5
FF59
330
2
100
AcDbEntity
  8
VLB
100
AcDbLine
 10
-14341.27638905169
 20
4129.94039251282
 30
0.0
 11
-14337.20516605169
 21
4129.94039251282
 31
0.0
  0
LINE
  5
FF5A
330
2
100
AcDbEntity
  8
VLB
100
AcDbLine
 10
-14341.94305605169
 20
4133.591390512822
 30
0.0
 11
-14342.74305605168
 21
4133.591390512822
 31
0.0
  0
LINE
  5
FF5B
330
2
100
AcDbEntity
  8
VLB
100
AcDbLine
 10
-14342.74305605168
 20
4133.591390512822
 30
0.0
 11
-14341.94305605169
 21
4133.591390512822
 31
0.0
1001
ACAD
1000
ASC_BOUNDS
1002
{
1070
    16
1002
}
  0
LINE
  5
FF5C
330
2
100
AcDbEntity
  8
VLB
100
AcDbLine
 10
-14341.94305605169
 20
4132.024723512819
 30
0.0
 11
-14341.27638905169
 21
4132.024723512819
 31
0.0
  0
LINE
  5
FF5D
330
2
100
AcDbEntity
  8
VLB
100
AcDbLine
 10
-14336.60972305169
 20
4132.758056512822
 30
0.0
 11
-14337.20516605169
 21
4133.789393512823
 31
0.0
  0
ARC
  5
FF5E
330
2
100
AcDbEntity
  8
VLB
100
AcDbCircle
 10
-14339.98299505169
 20
4131.854191512821
 30
0.0
 40
3.373272
100
AcDbArc
 50
325.4349069999197
 51
30.00000000002723
  0
LINE
  5
FF5F
330
2
100
AcDbEntity
  8
VLB
100
AcDbLine
 10
-14341.94305605169
 20
4132.024723512819
 30
0.0
 11
-14341.94305605169
 21
4125.091390512817
 31
0.0
  0
LINE
  5
FF60
330
2
100
AcDbEntity
  8
VLB
100
AcDbLine
 10
-14341.27638905169
 20
4133.789393512823
 30
0.0
 11
-14341.27638905169
 21
4125.091390512817
 31
0.0
  0
LINE
  5
FF61
330
2
100
AcDbEntity
  8
VLB
100
AcDbLine
 10
-14341.94305605169
 20
4126.091390512821
 30
0.0
 11
-14341.94305605169
 21
4133.591390512822
 31
0.0
  0
ARC
  5
FF62
330
2
100
AcDbEntity
  8
VLB
100
AcDbCircle
 10
-14349.34761205169
 20
4126.09139051282
 30
0.0
 40
12.737889
100
AcDbArc
 50
355.4973080000215
 51
17.58795400005962
  0
LINE
  5
FF63
330
2
100
AcDbEntity
  8
VLB
100
AcDbLine
 10
-14336.60972305169
 20
4132.758056512822
 30
0.0
 11
-14336.60972305169
 21
4125.091390512817
 31
0.0
  0
LINE
  5
FFC9
330
2
100
AcDbEntity
  8
VLB
100
AcDbLine
 10
-15062.24305605169
 20
5414.368928655027
 30
0.0
 11
-14843.74305605168
 21
5421.564053992273
 31
0.0
  0
LINE
  5
FFCC
330
2
100
AcDbEntity
  8
VLB
100
AcDbLine
 10
-15180.24305605169
 20
5371.368928655027
 30
0.0
 11
-14762.24305605168
 21
5371.368928655027
 31
0.0
  0
LINE
  5
FFCD
330
2
100
AcDbEntity
  8
VLB
100
AcDbLine
 10
-15062.24305605169
 20
5399.368928655027
 30
0.0
 11
-14854.07231957264
 21
5399.368928655026
 31
0.0
  0
LINE
  5
FFCE
330
2
100
AcDbEntity
  8
VLB
100
AcDbLine
 10
-14842.74305605169
 20
5406.596983627683
 30
0.0
 11
-14762.24305605168
 21
5409.247819278249
 31
0.0
  0
LINE
  5
FFCF
330
2
100
AcDbEntity
  8
VLB
100
AcDbLine
 10
-15062.24305605169
 20
5399.368928655027
 30
0.0
 11
-14843.74305605169
 21
5399.368928655026
 31
0.0
  0
LINE
  5
FFD2
330
2
100
AcDbEntity
  8
VLB
100
AcDbLine
 10
-15063.74305605169
 20
4627.868928655026
 30
0.0
 11
-14460.74305605168
 21
4627.868928655026
 31
0.0
  0
LINE
  5
FFD3
330
2
100
AcDbEntity
  8
VLB
100
AcDbLine
 10
-14344.24305605168
 20
4630.368928655027
 30
0.0
 11
-15178.2662877372
 21
4630.368928655027
 31
0.0
  0
LINE
  5
FFDC
330
2
100
AcDbEntity
  8
VLB
100
AcDbLine
 10
-14941.24305605168
 20
4366.558057512821
 30
0.0
 11
-14934.54505405168
 21
4366.558057512821
 31
0.0
  0
LINE
  5
FFDD
330
2
100
AcDbEntity
  8
VLB
100
AcDbLine
 10
-14934.74305705168
 20
4365.89139051282
 30
0.0
 11
-14941.24305605168
 21
4365.89139051282
 31
0.0
  0
LINE
  5
FFDE
330
2
100
AcDbEntity
  8
VLB
100
AcDbLine
 10
-14941.24305605168
 20
4371.22472351282
 30
0.0
 11
-14935.57639005168
 21
4371.22472351282
 31
0.0
  0
ARC
  5
FFDF
330
2
100
AcDbEntity
  8
VLB
100
AcDbCircle
 10
-14936.48025605168
 20
4367.85145151282
 30
0.0
 40
3.373272
100
AcDbArc
 50
59.99999999999946
 51
124.5650930000675
  0
LINE
  5
FFE0
330
2
100
AcDbEntity
  8
VLB
100
AcDbLine
 10
-14394.24305605168
 20
4312.091390512819
 30
0.0
 11
-14680.74305605169
 21
4312.091390512819
 31
0.0
  0
LINE
  5
FFE1
330
2
100
AcDbEntity
  8
VLB
100
AcDbLine
 10
-15178.74305605169
 20
4365.091390512822
 30
0.0
 11
-14843.74305605169
 21
4365.091390512821
 31
0.0
  0
LINE
  5
FFE5
330
2
100
AcDbEntity
  8
VLB
100
AcDbLine
 10
-15180.24305605169
 20
4630.368928655027
 30
0.0
 11
-15180.24305605169
 21
5371.368928655027
 31
0.0
  0
LINE
  5
FFF0
330
2
100
AcDbEntity
  8
VLB
100
AcDbLine
 10
-15178.74305605169
 20
4365.091390512822
 30
0.0
 11
-15178.74305605169
 21
4313.591390512821
 31
0.0
  0
LINE
  5
FFF3
330
2
100
AcDbEntity
  8
VLB
100
AcDbLine
 10
-15125.74305605169
 20
4313.591390512821
 30
0.0
 11
-15178.74305605169
 21
4313.591390512821
 31
0.0
  0
LINE
  5
FFF4
330
2
100
AcDbEntity
  8
SPS
100
AcDbLine
 10
-15177.29647782704
 20
4324.515649761921
 30
0.0
 11
-15163.9557916824
 21
4324.515649761921
 31
0.0
  0
LINE
  5
FFF5
330
2
100
AcDbEntity
  8
SPS
100
AcDbLine
 10
-15170.98512126997
 20
4317.10740690796
 30
0.0
 11
-15170.98512126997
 21
4333.000258985803
 31
0.0
  0
CIRCLE
  5
FFF6
330
2
100
AcDbEntity
  8
VLB
100
AcDbCircle
 10
-15170.98512126997
 20
4324.515649761921
 30
0.0
 40
5.000000000001818
  0
CIRCLE
  5
FFF7
330
2
100
AcDbEntity
  8
VLB
100
AcDbCircle
 10
-15170.98512126997
 20
4324.515649761921
 30
0.0
 40
2.550000000006548
  0
LINE
  5
FFF9
330
2
100
AcDbEntity
  8
VLB
100
AcDbLine
 10
-15125.74305605169
 20
4313.591390512821
 30
0.0
 11
-15125.74305605169
 21
4312.091390512818
 31
0.0
  0
CIRCLE
  5
10003
330
2
100
AcDbEntity
  8
VLB
100
AcDbCircle
 10
-15133.43361147182
 20
4324.515649761921
 30
0.0
 40
2.550000000006548
  0
CIRCLE
  5
10004
330
2
100
AcDbEntity
  8
VLB
100
AcDbCircle
 10
-15133.43361147182
 20
4324.515649761921
 30
0.0
 40
5.000000000001818
  0
LINE
  5
10005
330
2
100
AcDbEntity
  8
SPS
100
AcDbLine
 10
-15133.43361147182
 20
4317.10740690796
 30
0.0
 11
-15133.43361147182
 21
4333.000258985803
 31
0.0
  0
LINE
  5
10006
330
2
100
AcDbEntity
  8
SPS
100
AcDbLine
 10
-15139.74496802889
 20
4324.515649761921
 30
0.0
 11
-15126.40428188425
 21
4324.515649761921
 31
0.0
  0
ARC
  5
10017
330
2
100
AcDbEntity
  8
VLB
100
AcDbCircle
 10
-15170.98512126997
 20
4354.091390512822
 30
0.0
 40
12.99999999999925
100
AcDbArc
 50
67.3801350519691
 51
112.6198649480308
  0
LINE
  5
10018
330
2
100
AcDbEntity
  8
VLB
100
AcDbLine
 10
-15165.98512126997
 20
4366.09139051282
 30
0.0
 11
-15165.98512126997
 21
4365.091390512822
 31
0.0
  0
LINE
  5
10019
330
2
100
AcDbEntity
  8
VLB
100
AcDbLine
 10
-15175.98512126997
 20
4366.09139051282
 30
0.0
 11
-15175.98512126996
 21
4365.091390512822
 31
0.0
  0
LINE
  5
1001C
330
2
100
AcDbEntity
  8
SPS
100
AcDbLine
 10
-15170.98512126997
 20
4356.296686003095
 30
0.0
 11
-15170.98512126997
 21
4369.335876609105
 31
0.0
  0
LINE
  5
1001D
330
2
100
AcDbEntity
  8
VLB
100
AcDbLine
 10
-15179.74305605169
 20
4363.591390512822
 30
0.0
 11
-15178.74305605169
 21
4363.591390512822
 31
0.0
  0
LINE
  5
1001E
330
2
100
AcDbEntity
  8
VLB
100
AcDbLine
 10
-15180.74305605168
 20
4348.262577353739
 30
0.0
 11
-15179.74305605169
 21
4348.262577353742
 31
0.0
  0
LINE
  5
10024
330
2
100
AcDbEntity
  8
VLB
100
AcDbLine
 10
-15180.74305605168
 20
4358.26257735374
 30
0.0
 11
-15179.74305605169
 21
4358.262577353738
 31
0.0
  0
ARC
  5
10025
330
2
100
AcDbEntity
  8
VLB
100
AcDbCircle
 10
-15168.74305605156
 20
4353.262577353688
 30
0.0
 40
13.00000000013173
100
AcDbArc
 50
157.3801350519214
 51
164.0576313944422
  0
ARC
  5
10026
330
2
100
AcDbEntity
  8
VLB
100
AcDbCircle
 10
-15168.74305605169
 20
4353.26257735374
 30
0.0
 40
12.99999999999925
100
AcDbArc
 50
164.0576313944422
 51
195.9423686055577
  0
LINE
  5
10027
330
2
100
AcDbEntity
  8
SPS
100
AcDbLine
 10
-15170.94835154196
 20
4353.26257735374
 30
0.0
 11
-15183.98754214797
 21
4353.26257735374
 31
0.0
  0
ARC
  5
10028
330
2
100
AcDbEntity
  8
VLB
100
AcDbCircle
 10
-15168.7430560518
 20
4353.262577353713
 30
0.0
 40
12.9999999998802
100
AcDbArc
 50
195.9423686055577
 51
202.6198649481446
  0
LINE
  5
10029
330
2
100
AcDbEntity
  8
VLB
100
AcDbLine
 10
-15179.74305605169
 20
4358.262577353738
 30
0.0
 11
-15179.74305605169
 21
4348.262577353742
 31
0.0
  0
LINE
  5
10046
330
2
100
AcDbEntity
  8
SPS
100
AcDbLine
 10
-14942.24305605168
 20
4342.14707404195
 30
0.0
 11
-14942.24305605168
 21
4377.226642703074
 31
0.0
  0
LINE
  5
10047
330
2
100
AcDbEntity
  8
VLB
100
AcDbLine
 10
-14940.16114905168
 20
4365.89139051282
 30
0.0
 11
-14936.30972405169
 21
4365.89139051282
 31
0.0
  0
ARC
  5
10048
330
2
100
AcDbEntity
  8
VLB
100
AcDbCircle
 10
-14942.24305605168
 20
4358.486834512821
 30
0.0
 40
12.737889
100
AcDbArc
 50
72.41204599994038
 51
85.49730800002963
  0
LINE
  5
10049
330
2
100
AcDbEntity
  8
VLB
100
AcDbLine
 10
-14938.39405505169
 20
4366.558057512821
 30
0.0
 11
-14938.39405505169
 21
4370.62928051282
 31
0.0
  0
LINE
  5
1004A
330
2
100
AcDbEntity
  8
VLB
100
AcDbLine
 10
-14936.30972405169
 20
4365.89139051282
 30
0.0
 11
-14936.30972405169
 21
4366.558057512821
 31
0.0
  0
LINE
  5
1004B
330
2
100
AcDbEntity
  8
VLB
100
AcDbLine
 10
-14941.24305605168
 20
4365.89139051282
 30
0.0
 11
-14942.24305605168
 21
4365.89139051282
 31
0.0
  0
LINE
  5
1004C
330
2
100
AcDbEntity
  8
VLB
100
AcDbLine
 10
-14949.94105905169
 20
4366.558057512821
 30
0.0
 11
-14949.94105905169
 21
4370.62928051282
 31
0.0
  0
LINE
  5
1004D
330
2
100
AcDbEntity
  8
VLB
100
AcDbLine
 10
-14946.09205805168
 20
4366.558057512821
 30
0.0
 11
-14946.09205805168
 21
4370.62928051282
 31
0.0
  0
LINE
  5
1004E
330
2
100
AcDbEntity
  8
VLB
100
AcDbLine
 10
-14949.74305605168
 20
4365.89139051282
 30
0.0
 11
-14949.74305605168
 21
4365.091390512822
 31
0.0
  0
LINE
  5
1004F
330
2
100
AcDbEntity
  8
VLB
100
AcDbLine
 10
-14949.74305605168
 20
4365.091390512822
 30
0.0
 11
-14949.74305605168
 21
4365.89139051282
 31
0.0
1001
ACAD
1000
ASC_BOUNDS
1002
{
1070
    16
1002
}
  0
LINE
  5
10050
330
2
100
AcDbEntity
  8
VLB
100
AcDbLine
 10
-14948.17638905168
 20
4365.89139051282
 30
0.0
 11
-14948.17638905168
 21
4366.558057512821
 31
0.0
  0
LINE
  5
10051
330
2
100
AcDbEntity
  8
VLB
100
AcDbLine
 10
-14948.90972205169
 20
4371.22472351282
 30
0.0
 11
-14949.94105905169
 21
4370.62928051282
 31
0.0
  0
ARC
  5
10052
330
2
100
AcDbEntity
  8
VLB
100
AcDbCircle
 10
-14948.00585705169
 20
4367.85145151282
 30
0.0
 40
3.373272
100
AcDbArc
 50
55.43490699993245
 51
120.0000000000005
  0
LINE
  5
10053
330
2
100
AcDbEntity
  8
VLB
100
AcDbLine
 10
-14948.17638905168
 20
4365.89139051282
 30
0.0
 11
-14941.24305605168
 21
4365.89139051282
 31
0.0
  0
LINE
  5
10054
330
2
100
AcDbEntity
  8
VLB
100
AcDbLine
 10
-14949.94105905169
 20
4366.558057512821
 30
0.0
 11
-14941.24305605168
 21
4366.558057512821
 31
0.0
  0
LINE
  5
10055
330
2
100
AcDbEntity
  8
VLB
100
AcDbLine
 10
-14942.24305605168
 20
4365.89139051282
 30
0.0
 11
-14949.74305605168
 21
4365.89139051282
 31
0.0
  0
ARC
  5
10056
330
2
100
AcDbEntity
  8
VLB
100
AcDbCircle
 10
-14942.24305605168
 20
4358.486834512821
 30
0.0
 40
12.737889
100
AcDbArc
 50
85.49730800002963
 51
107.5879540000596
  0
LINE
  5
10057
330
2
100
AcDbEntity
  8
VLB
100
AcDbLine
 10
-14948.90972205169
 20
4371.22472351282
 30
0.0
 11
-14941.24305605168
 21
4371.22472351282
 31
0.0
  0
LINE
  5
1005D
330
2
100
AcDbEntity
  8
VLB
100
AcDbLine
 10
-15186.39962073719
 20
4646.36892865503
 30
0.0
 11
-15186.39962073719
 21
4652.035594655028
 31
0.0
  0
ARC
  5
1005E
330
2
100
AcDbEntity
  8
VLB
100
AcDbCircle
 10
-15173.66173173719
 20
4645.368928655027
 30
0.0
 40
12.737889
100
AcDbArc
 50
162.4120459999403
 51
175.4973080000216
  0
LINE
  5
1005F
330
2
100
AcDbEntity
  8
VLB
100
AcDbLine
 10
-15181.06628773719
 20
4647.45083565503
 30
0.0
 11
-15181.06628773719
 21
4651.302260655028
 31
0.0
  0
LINE
  5
10060
330
2
100
AcDbEntity
  8
VLB
100
AcDbLine
 10
-15181.06628773719
 20
4652.86892765503
 30
0.0
 11
-15181.06628773719
 21
4646.36892865503
 31
0.0
  0
LINE
  5
10061
330
2
100
AcDbEntity
  8
VLB
100
AcDbLine
 10
-15181.73295473719
 20
4646.36892865503
 30
0.0
 11
-15181.73295473719
 21
4653.066930655028
 31
0.0
  0
LINE
  5
1006C
330
2
100
AcDbEntity
  8
SPS
100
AcDbLine
 10
-15172.15057433417
 20
4645.368928655027
 30
0.0
 11
-15185.69407624853
 21
4645.368928655027
 31
0.0
  0
LINE
  5
1006D
330
2
100
AcDbEntity
  8
VLB
100
AcDbLine
 10
-15186.39962073719
 20
4638.702262655026
 30
0.0
 11
-15186.39962073719
 21
4646.36892865503
 31
0.0
  0
ARC
  5
1006E
330
2
100
AcDbEntity
  8
VLB
100
AcDbCircle
 10
-15173.66173173719
 20
4645.368928655027
 30
0.0
 40
12.737889
100
AcDbArc
 50
175.4973080000216
 51
197.5879540000596
  0
LINE
  5
1006F
330
2
100
AcDbEntity
  8
VLB
100
AcDbLine
 10
-15181.06628773719
 20
4645.368928655027
 30
0.0
 11
-15181.06628773719
 21
4637.868928655026
 31
0.0
  0
LINE
  5
10070
330
2
100
AcDbEntity
  8
VLB
100
AcDbLine
 10
-15181.73295473719
 20
4637.670925655025
 30
0.0
 11
-15181.73295473719
 21
4646.36892865503
 31
0.0
  0
LINE
  5
10071
330
2
100
AcDbEntity
  8
VLB
100
AcDbLine
 10
-15181.06628773719
 20
4639.435595655029
 30
0.0
 11
-15181.06628773719
 21
4646.36892865503
 31
0.0
  0
ARC
  5
10072
330
2
100
AcDbEntity
  8
VLB
100
AcDbCircle
 10
-15183.0263487372
 20
4639.606127655026
 30
0.0
 40
3.373272
100
AcDbArc
 50
145.4349069999197
 51
210.0000000000272
  0
LINE
  5
10073
330
2
100
AcDbEntity
  8
VLB
100
AcDbLine
 10
-15186.39962073719
 20
4638.702262655026
 30
0.0
 11
-15185.80417773719
 21
4637.670925655025
 31
0.0
  0
LINE
  5
10074
330
2
100
AcDbEntity
  8
VLB
100
AcDbLine
 10
-15181.06628773719
 20
4639.435595655029
 30
0.0
 11
-15181.73295473719
 21
4639.435595655029
 31
0.0
  0
LINE
  5
10075
330
2
100
AcDbEntity
  8
VLB
100
AcDbLine
 10
-15180.2662877372
 20
4637.868928655026
 30
0.0
 11
-15181.06628773719
 21
4637.868928655026
 31
0.0
1001
ACAD
1000
ASC_BOUNDS
1002
{
1070
    16
1002
}
  0
LINE
  5
10076
330
2
100
AcDbEntity
  8
VLB
100
AcDbLine
 10
-15181.06628773719
 20
4637.868928655026
 30
0.0
 11
-15180.2662877372
 21
4637.868928655026
 31
0.0
  0
LINE
  5
10077
330
2
100
AcDbEntity
  8
VLB
100
AcDbLine
 10
-15181.73295473719
 20
4641.519926655027
 30
0.0
 11
-15185.80417773719
 21
4641.519926655027
 31
0.0
  0
LINE
  5
10078
330
2
100
AcDbEntity
  8
VLB
100
AcDbLine
 10
-15181.73295473719
 20
4637.670925655025
 30
0.0
 11
-15185.80417773719
 21
4637.670925655025
 31
0.0
  0
LINE
  5
10079
330
2
100
AcDbEntity
  8
VLB
100
AcDbLine
 10
-15181.06628773719
 20
4646.36892865503
 30
0.0
 11
-15181.06628773719
 21
4645.368928655027
 31
0.0
  0
LINE
  5
10082
330
2
100
AcDbEntity
  8
VLB
100
AcDbLine
 10
-15180.24305605169
 20
4630.368928655027
 30
0.0
 11
-15178.74305605169
 21
4630.368928655027
 31
0.0
  0
LINE
  5
10083
330
2
100
AcDbEntity
  8
VLB
100
AcDbLine
 10
-15186.39962073719
 20
4652.035594655028
 30
0.0
 11
-15185.80417773719
 21
4653.066930655028
 31
0.0
  0
LINE
  5
10084
330
2
100
AcDbEntity
  8
VLB
100
AcDbLine
 10
-15180.2662877372
 20
4652.86892765503
 30
0.0
 11
-15181.06628773719
 21
4652.86892765503
 31
0.0
1001
ACAD
1000
ASC_BOUNDS
1002
{
1070
    16
1002
}
  0
LINE
  5
10085
330
2
100
AcDbEntity
  8
VLB
100
AcDbLine
 10
-15181.06628773719
 20
4651.302260655028
 30
0.0
 11
-15181.73295473719
 21
4651.302260655028
 31
0.0
  0
LINE
  5
10086
330
2
100
AcDbEntity
  8
VLB
100
AcDbLine
 10
-15181.73295473719
 20
4653.066930655028
 30
0.0
 11
-15185.80417773719
 21
4653.066930655028
 31
0.0
  0
LINE
  5
10087
330
2
100
AcDbEntity
  8
VLB
100
AcDbLine
 10
-15181.73295473719
 20
4649.217929655026
 30
0.0
 11
-15185.80417773719
 21
4649.217929655026
 31
0.0
  0
ARC
  5
10088
330
2
100
AcDbEntity
  8
VLB
100
AcDbCircle
 10
-15183.0263487372
 20
4651.131728655027
 30
0.0
 40
3.373272
100
AcDbArc
 50
149.9999999999727
 51
214.5650930000803
  0
LINE
  5
10091
330
2
100
AcDbEntity
  8
SPS
100
AcDbLine
 10
-15176.47960050664
 20
4671.056719234728
 30
0.0
 11
-15163.138914362
 21
4671.056719234728
 31
0.0
  0
LINE
  5
10092
330
2
100
AcDbEntity
  8
SPS
100
AcDbLine
 10
-15170.16824394957
 20
4663.648476380766
 30
0.0
 11
-15170.16824394957
 21
4679.541328458608
 31
0.0
  0
CIRCLE
  5
10093
330
2
100
AcDbEntity
  8
VLB
100
AcDbCircle
 10
-15170.16824394957
 20
4671.056719234728
 30
0.0
 40
5.000000000001818
  0
CIRCLE
  5
10094
330
2
100
AcDbEntity
  8
VLB
100
AcDbCircle
 10
-15170.16824394957
 20
4671.056719234728
 30
0.0
 40
2.550000000006548
  0
ARC
  5
10098
330
2
100
AcDbEntity
  8
VLB
100
AcDbCircle
 10
-15169.24305605169
 20
4671.056719234728
 30
0.0
 40
12.99999999999925
100
AcDbArc
 50
157.3801350519214
 51
202.6198649480785
  0
LINE
  5
10099
330
2
100
AcDbEntity
  8
VLB
100
AcDbLine
 10
-15181.24305605169
 20
4676.056719234728
 30
0.0
 11
-15180.24305605169
 21
4676.056719234725
 31
0.0
  0
LINE
  5
1009A
330
2
100
AcDbEntity
  8
VLB
100
AcDbLine
 10
-15181.24305605169
 20
4666.056719234727
 30
0.0
 11
-15180.24305605169
 21
4666.05671923473
 31
0.0
  0
LINE
  5
1009D
330
2
100
AcDbEntity
  8
SPS
100
AcDbLine
 10
-15171.44835154197
 20
4671.056719234728
 30
0.0
 11
-15184.48754214798
 21
4671.056719234728
 31
0.0
  0
LINE
  5
100B8
330
2
100
AcDbEntity
  8
VLB
100
AcDbLine
 10
-15063.74305605169
 20
4627.868928655026
 30
0.0
 11
-15063.74305605169
 21
4630.368928655027
 31
0.0
  0
ARC
  5
10112
330
2
100
AcDbEntity
  8
VLB
100
AcDbCircle
 10
-15169.24305605169
 20
4771.354457024374
 30
0.0
 40
12.99999999999925
100
AcDbArc
 50
157.3801350519214
 51
202.6198649480785
  0
LINE
  5
1011A
330
2
100
AcDbEntity
  8
VLB
100
AcDbLine
 10
-15181.24305605169
 20
4766.354457024373
 30
0.0
 11
-15180.24305605169
 21
4766.354457024376
 31
0.0
  0
LINE
  5
1011C
330
2
100
AcDbEntity
  8
SPS
100
AcDbLine
 10
-15171.44835154197
 20
4771.354457024374
 30
0.0
 11
-15184.48754214798
 21
4771.354457024374
 31
0.0
  0
LINE
  5
10120
330
2
100
AcDbEntity
  8
VLB
100
AcDbLine
 10
-15181.24305605169
 20
4776.354457024374
 30
0.0
 11
-15180.24305605169
 21
4776.354457024372
 31
0.0
  0
ARC
  5
10125
330
2
100
AcDbEntity
  8
VLB
100
AcDbCircle
 10
-15169.24305605169
 20
4871.65219481402
 30
0.0
 40
12.99999999999925
100
AcDbArc
 50
157.3801350519214
 51
202.6198649480785
  0
LINE
  5
10126
330
2
100
AcDbEntity
  8
VLB
100
AcDbLine
 10
-15181.24305605169
 20
4876.65219481402
 30
0.0
 11
-15180.24305605169
 21
4876.652194814018
 31
0.0
  0
LINE
  5
10127
330
2
100
AcDbEntity
  8
VLB
100
AcDbLine
 10
-15181.24305605169
 20
4866.65219481402
 30
0.0
 11
-15180.24305605169
 21
4866.652194814022
 31
0.0
  0
LINE
  5
1012A
330
2
100
AcDbEntity
  8
SPS
100
AcDbLine
 10
-15171.44835154197
 20
4871.65219481402
 30
0.0
 11
-15184.48754214798
 21
4871.65219481402
 31
0.0
  0
ARC
  5
1015E
330
2
100
AcDbEntity
  8
VLB
100
AcDbCircle
 10
-15169.24305605169
 20
4971.949932603666
 30
0.0
 40
12.99999999999925
100
AcDbArc
 50
157.3801350519214
 51
202.6198649480785
  0
LINE
  5
1015F
330
2
100
AcDbEntity
  8
VLB
100
AcDbLine
 10
-15181.24305605169
 20
4976.949932603666
 30
0.0
 11
-15180.24305605169
 21
4976.949932603663
 31
0.0
  0
LINE
  5
10160
330
2
100
AcDbEntity
  8
VLB
100
AcDbLine
 10
-15181.24305605169
 20
4966.949932603665
 30
0.0
 11
-15180.24305605169
 21
4966.949932603668
 31
0.0
  0
LINE
  5
10163
330
2
100
AcDbEntity
  8
SPS
100
AcDbLine
 10
-15171.44835154197
 20
4971.949932603666
 30
0.0
 11
-15184.48754214798
 21
4971.949932603666
 31
0.0
  0
ARC
  5
1016F
330
2
100
AcDbEntity
  8
VLB
100
AcDbCircle
 10
-15169.24305605169
 20
5072.247670393312
 30
0.0
 40
12.99999999999925
100
AcDbArc
 50
157.3801350519214
 51
202.6198649480785
  0
LINE
  5
10170
330
2
100
AcDbEntity
  8
VLB
100
AcDbLine
 10
-15181.24305605169
 20
5077.247670393312
 30
0.0
 11
-15180.24305605169
 21
5077.24767039331
 31
0.0
  0
LINE
  5
10171
330
2
100
AcDbEntity
  8
VLB
100
AcDbLine
 10
-15181.24305605169
 20
5067.247670393311
 30
0.0
 11
-15180.24305605169
 21
5067.247670393314
 31
0.0
  0
LINE
  5
10174
330
2
100
AcDbEntity
  8
SPS
100
AcDbLine
 10
-15171.44835154197
 20
5072.247670393312
 30
0.0
 11
-15184.48754214798
 21
5072.247670393312
 31
0.0
  0
ARC
  5
10180
330
2
100
AcDbEntity
  8
VLB
100
AcDbCircle
 10
-15169.24305605169
 20
5172.545408182958
 30
0.0
 40
12.99999999999925
100
AcDbArc
 50
157.3801350519214
 51
202.6198649480785
  0
LINE
  5
10181
330
2
100
AcDbEntity
  8
VLB
100
AcDbLine
 10
-15181.24305605169
 20
5177.545408182957
 30
0.0
 11
-15180.24305605169
 21
5177.545408182956
 31
0.0
  0
LINE
  5
10182
330
2
100
AcDbEntity
  8
VLB
100
AcDbLine
 10
-15181.24305605169
 20
5167.545408182958
 30
0.0
 11
-15180.24305605169
 21
5167.545408182959
 31
0.0
  0
LINE
  5
10185
330
2
100
AcDbEntity
  8
SPS
100
AcDbLine
 10
-15171.44835154197
 20
5172.545408182958
 30
0.0
 11
-15184.48754214798
 21
5172.545408182958
 31
0.0
  0
ARC
  5
101BA
330
2
100
AcDbEntity
  8
VLB
100
AcDbCircle
 10
-15169.24305605169
 20
5272.843145972604
 30
0.0
 40
12.99999999999925
100
AcDbArc
 50
157.3801350519214
 51
202.6198649480785
  0
LINE
  5
101BF
330
2
100
AcDbEntity
  8
VLB
100
AcDbLine
 10
-15181.24305605169
 20
5267.843145972603
 30
0.0
 11
-15180.24305605169
 21
5267.843145972605
 31
0.0
  0
LINE
  5
101C3
330
2
100
AcDbEntity
  8
VLB
100
AcDbLine
 10
-15181.24305605169
 20
5277.843145972603
 30
0.0
 11
-15180.24305605169
 21
5277.843145972601
 31
0.0
  0
LINE
  5
101C6
330
2
100
AcDbEntity
  8
SPS
100
AcDbLine
 10
-15171.44835154197
 20
5272.843145972604
 30
0.0
 11
-15184.48754214798
 21
5272.843145972604
 31
0.0
  0
CIRCLE
  5
101CC
330
2
100
AcDbEntity
  8
VLB
100
AcDbCircle
 10
-15153.57223777644
 20
5393.763165993425
 30
0.0
 40
12.5
  0
ARC
  5
101CD
330
2
100
AcDbEntity
  8
VLB
100
AcDbCircle
 10
-15153.57223777644
 20
5393.763165993425
 30
0.0
 40
22.5
100
AcDbArc
 50
303.748988595957
 51
236.2510114040428
  0
LINE
  5
101D0
330
2
100
AcDbEntity
  8
VLS
100
AcDbLine
 10
-15141.07223777644
 20
5381.263165993425
 30
0.0
 11
-15166.07223777644
 21
5381.263165993427
 31
0.0
  0
ARC
  5
101DA
330
2
100
AcDbEntity
  8
VLB
100
AcDbCircle
 10
-15169.24305605169
 20
5359.833407063858
 30
0.0
 40
12.99999999999925
100
AcDbArc
 50
157.3801350519214
 51
202.6198649480785
  0
LINE
  5
101DB
330
2
100
AcDbEntity
  8
VLB
100
AcDbLine
 10
-15181.24305605169
 20
5364.833407063858
 30
0.0
 11
-15180.24305605169
 21
5364.833407063855
 31
0.0
  0
LINE
  5
101DC
330
2
100
AcDbEntity
  8
VLB
100
AcDbLine
 10
-15181.24305605169
 20
5354.833407063857
 30
0.0
 11
-15180.24305605169
 21
5354.83340706386
 31
0.0
  0
LINE
  5
101DF
330
2
100
AcDbEntity
  8
SPS
100
AcDbLine
 10
-15171.44835154196
 20
5359.833407063858
 30
0.0
 11
-15184.48754214797
 21
5359.833407063858
 31
0.0
  0
ARC
  5
101E7
330
2
100
AcDbEntity
  8
VLB
100
AcDbCircle
 10
-15170.98512126997
 20
5360.368928655027
 30
0.0
 40
12.99999999999925
100
AcDbArc
 50
67.3801350519691
 51
112.6198649480308
  0
LINE
  5
101E8
330
2
100
AcDbEntity
  8
VLB
100
AcDbLine
 10
-15165.98512126997
 20
5372.368928655025
 30
0.0
 11
-15165.98512126997
 21
5371.368928655027
 31
0.0
  0
LINE
  5
101E9
330
2
100
AcDbEntity
  8
VLB
100
AcDbLine
 10
-15175.98512126997
 20
5372.368928655025
 30
0.0
 11
-15175.98512126997
 21
5371.368928655027
 31
0.0
  0
LINE
  5
101EC
330
2
100
AcDbEntity
  8
SPS
100
AcDbLine
 10
-15170.98512126997
 20
5362.574224145301
 30
0.0
 11
-15170.98512126997
 21
5375.613414751311
 31
0.0
  0
LINE
  5
101F3
330
2
100
AcDbEntity
  8
VLB
100
AcDbLine
 10
-15166.07223777644
 20
5381.263165993427
 30
0.0
 11
-15166.07223777644
 21
5372.404857193324
 31
0.0
  0
LINE
  5
101F4
330
2
100
AcDbEntity
  8
VLB
100
AcDbLine
 10
-15166.07223777644
 20
5381.263165993425
 30
0.0
 11
-15158.97121896967
 21
5382.48925797202
 31
0.0
  0
ARC
  5
1020D
330
2
100
AcDbEntity
  8
VLB
100
AcDbCircle
 10
-15137.7947950822
 20
5360.368928655027
 30
0.0
 40
12.99999999999925
100
AcDbArc
 50
67.3801350519691
 51
112.6198649480308
  0
LINE
  5
1020E
330
2
100
AcDbEntity
  8
VLB
100
AcDbLine
 10
-15132.7947950822
 20
5372.368928655025
 30
0.0
 11
-15132.7947950822
 21
5371.368928655027
 31
0.0
  0
LINE
  5
1020F
330
2
100
AcDbEntity
  8
VLB
100
AcDbLine
 10
-15142.7947950822
 20
5372.368928655025
 30
0.0
 11
-15142.79479508219
 21
5371.368928655027
 31
0.0
  0
LINE
  5
10212
330
2
100
AcDbEntity
  8
SPS
100
AcDbLine
 10
-15137.7947950822
 20
5362.574224145301
 30
0.0
 11
-15137.7947950822
 21
5375.613414751311
 31
0.0
  0
LINE
  5
10218
330
2
100
AcDbEntity
  8
VLB
100
AcDbLine
 10
-15141.07223777644
 20
5381.263165993425
 30
0.0
 11
-15148.1732565832
 21
5382.48925797202
 31
0.0
  0
LINE
  5
1021A
330
2
100
AcDbEntity
  8
VLB
100
AcDbLine
 10
-15141.07223777644
 20
5372.949006929264
 30
0.0
 11
-15141.07223777644
 21
5381.263165993425
 31
0.0
  0
LINE
  5
1021D
330
2
100
AcDbEntity
  8
SPS
100
AcDbLine
 10
-15153.57223777644
 20
5376.263165993427
 30
0.0
 11
-15153.57223777644
 21
5362.263165993425
 31
0.0
  0
LINE
  5
1021E
330
2
100
AcDbEntity
  8
SPS
100
AcDbLine
 10
-15153.57223777644
 20
5358.863194993426
 30
0.0
 11
-15153.57223777644
 21
5388.889267972019
 31
0.0
  0
LINE
  5
1023D
330
2
100
AcDbEntity
  8
SPS
100
AcDbLine
 10
-15052.06754758263
 20
5380.278966666736
 30
0.0
 11
-15052.06754758263
 21
5396.171818744579
 31
0.0
  0
CIRCLE
  5
1023E
330
2
100
AcDbEntity
  8
VLB
100
AcDbCircle
 10
-15052.06754758263
 20
5387.687209520699
 30
0.0
 40
5.000000000001818
  0
ARC
  5
1023F
330
2
100
AcDbEntity
  8
VLB
100
AcDbCircle
 10
-15051.24305605169
 20
5387.687209520699
 30
0.0
 40
12.99999999999925
100
AcDbArc
 50
157.3801350519214
 51
202.6198649480785
  0
LINE
  5
10240
330
2
100
AcDbEntity
  8
VLB
100
AcDbLine
 10
-15062.24305605169
 20
5371.368928655027
 30
0.0
 11
-15062.24305605169
 21
5399.368928655027
 31
0.0
  0
LINE
  5
10244
330
2
100
AcDbEntity
  8
SPS
100
AcDbLine
 10
-15058.37890413971
 20
5387.687209520699
 30
0.0
 11
-15045.03821799507
 21
5387.687209520699
 31
0.0
  0
CIRCLE
  5
10245
330
2
100
AcDbEntity
  8
VLB
100
AcDbCircle
 10
-15052.06754758263
 20
5387.687209520699
 30
0.0
 40
2.550000000006548
  0
LINE
  5
10251
330
2
100
AcDbEntity
  8
VLB
100
AcDbLine
 10
-15063.24305605168
 20
5382.687209520698
 30
0.0
 11
-15062.24305605169
 21
5382.6872095207
 31
0.0
  0
LINE
  5
10254
330
2
100
AcDbEntity
  8
SPS
100
AcDbLine
 10
-15053.44835154196
 20
5387.687209520699
 30
0.0
 11
-15066.48754214797
 21
5387.687209520699
 31
0.0
  0
LINE
  5
10255
330
2
100
AcDbEntity
  8
VLB
100
AcDbLine
 10
-15063.24305605168
 20
5392.687209520698
 30
0.0
 11
-15062.24305605169
 21
5392.687209520697
 31
0.0
  0
LINE
  5
10256
330
2
100
AcDbEntity
  8
VLB
100
AcDbLine
 10
-15062.24305605169
 20
5399.368928655027
 30
0.0
 11
-15062.24305605169
 21
5414.368928655027
 31
0.0
  0
LINE
  5
1026B
330
2
100
AcDbEntity
  8
VLB
100
AcDbLine
 10
-14344.24305605168
 20
4630.368928655027
 30
0.0
 11
-14344.24305605168
 21
5371.368928655029
 31
0.0
  0
LINE
  5
10284
330
2
100
AcDbEntity
  8
SPS
100
AcDbLine
 10
-14762.24305605168
 20
4612.868928655027
 30
0.0
 11
-14762.24305605168
 21
5424.247819278249
 31
0.0
  0
ARC
  5
10288
330
2
100
AcDbEntity
  8
VLB
100
AcDbCircle
 10
-14588.00585705169
 20
4367.851451512819
 30
0.0
 40
3.373272
100
AcDbArc
 50
55.43490699993245
 51
120.0000000000005
  0
LINE
  5
10289
330
2
100
AcDbEntity
  8
VLB
100
AcDbLine
 10
-14588.17638905168
 20
4365.891390512819
 30
0.0
 11
-14581.24305605168
 21
4365.891390512819
 31
0.0
  0
LINE
  5
1028A
330
2
100
AcDbEntity
  8
VLB
100
AcDbLine
 10
-14589.94105905169
 20
4366.558057512818
 30
0.0
 11
-14581.24305605168
 21
4366.558057512818
 31
0.0
  0
LINE
  5
1028B
330
2
100
AcDbEntity
  8
VLB
100
AcDbLine
 10
-14582.24305605169
 20
4365.891390512819
 30
0.0
 11
-14589.74305605168
 21
4365.891390512819
 31
0.0
  0
LINE
  5
1028C
330
2
100
AcDbEntity
  8
VLB
100
AcDbLine
 10
-14588.90972205169
 20
4371.224723512818
 30
0.0
 11
-14581.24305605168
 21
4371.224723512818
 31
0.0
  0
LINE
  5
102A1
330
2
100
AcDbEntity
  8
VLB
100
AcDbLine
 10
-14934.54505405168
 20
4366.558057512821
 30
0.0
 11
-14934.54505405168
 21
4370.62928051282
 31
0.0
  0
LINE
  5
102A2
330
2
100
AcDbEntity
  8
VLB
100
AcDbLine
 10
-14934.74305705168
 20
4365.091390512822
 30
0.0
 11
-14934.74305705168
 21
4365.89139051282
 31
0.0
1001
ACAD
1000
ASC_BOUNDS
1002
{
1070
    16
1002
}
  0
LINE
  5
102A3
330
2
100
AcDbEntity
  8
VLB
100
AcDbLine
 10
-14935.57639005168
 20
4371.22472351282
 30
0.0
 11
-14934.54505405168
 21
4370.62928051282
 31
0.0
  0
LINE
  5
102B2
330
2
100
AcDbEntity
  8
VLB
100
AcDbLine
 10
-14589.94105905169
 20
4366.558057512818
 30
0.0
 11
-14589.94105905169
 21
4370.629280512818
 31
0.0
  0
LINE
  5
102B3
330
2
100
AcDbEntity
  8
VLB
100
AcDbLine
 10
-14589.74305605168
 20
4365.891390512819
 30
0.0
 11
-14589.74305605168
 21
4365.091390512819
 31
0.0
  0
LINE
  5
102B4
330
2
100
AcDbEntity
  8
VLB
100
AcDbLine
 10
-14589.74305605168
 20
4365.091390512819
 30
0.0
 11
-14589.74305605168
 21
4365.891390512819
 31
0.0
1001
ACAD
1000
ASC_BOUNDS
1002
{
1070
    16
1002
}
  0
LINE
  5
102B5
330
2
100
AcDbEntity
  8
VLB
100
AcDbLine
 10
-14588.17638905168
 20
4365.891390512819
 30
0.0
 11
-14588.17638905168
 21
4366.558057512818
 31
0.0
  0
LINE
  5
102B6
330
2
100
AcDbEntity
  8
VLB
100
AcDbLine
 10
-14588.90972205169
 20
4371.224723512818
 30
0.0
 11
-14589.94105905169
 21
4370.629280512818
 31
0.0
  0
CIRCLE
  5
102B7
330
2
100
AcDbEntity
  8
VLB
100
AcDbCircle
 10
-14762.24305605168
 20
4671.056719234728
 30
0.0
 40
2.550000000006548
  0
CIRCLE
  5
102B8
330
2
100
AcDbEntity
  8
VLB
100
AcDbCircle
 10
-14762.24305605168
 20
4671.056719234728
 30
0.0
 40
5.000000000001818
  0
LINE
  5
102B9
330
2
100
AcDbEntity
  8
SPS
100
AcDbLine
 10
-14768.55441260876
 20
4671.056719234728
 30
0.0
 11
-14755.21372646412
 21
4671.056719234728
 31
0.0
  0
LINE
  5
102BF
330
2
100
AcDbEntity
  8
SPS
100
AcDbLine
 10
-14762.24305605168
 20
4663.648476380766
 30
0.0
 11
-14762.24305605168
 21
4679.541328458608
 31
0.0
  0
LINE
  5
102CB
330
2
100
AcDbEntity
  8
SPS
100
AcDbLine
 10
-14471.03776056142
 20
4233.336915589435
 30
0.0
 11
-14457.99856995541
 21
4233.336915589435
 31
0.0
  0
ARC
  5
102CE
330
2
100
AcDbEntity
  8
VLB
100
AcDbCircle
 10
-14473.24305605157
 20
4233.336915589465
 30
0.0
 40
12.9999999998802
100
AcDbArc
 50
15.94236860555777
 51
22.61986494814464
  0
ARC
  5
102CF
330
2
100
AcDbEntity
  8
VLB
100
AcDbCircle
 10
-14473.24305605169
 20
4233.336915589435
 30
0.0
 40
12.99999999999925
100
AcDbArc
 50
344.0576313944422
 51
15.94236860555777
  0
ARC
  5
102D0
330
2
100
AcDbEntity
  8
VLB
100
AcDbCircle
 10
-14473.24305605181
 20
4233.336915589489
 30
0.0
 40
13.00000000013173
100
AcDbArc
 50
337.3801350519215
 51
344.0576313944422
  0
LINE
  5
102D1
330
2
100
AcDbEntity
  8
VLB
100
AcDbLine
 10
-14461.24305605169
 20
4228.336915589436
 30
0.0
 11
-14462.24305605169
 21
4228.336915589437
 31
0.0
  0
LINE
  5
102D7
330
2
100
AcDbEntity
  8
VLB
100
AcDbLine
 10
-14461.24305605169
 20
4238.336915589436
 30
0.0
 11
-14462.24305605169
 21
4238.336915589434
 31
0.0
  0
ARC
  5
102DB
330
2
100
AcDbEntity
  8
VLB
100
AcDbCircle
 10
-14472.44928975002
 20
4235.09139051282
 30
0.0
 40
12.99999999999925
100
AcDbArc
 50
67.3801350519691
 51
112.6198649480308
  0
LINE
  5
102DC
330
2
100
AcDbEntity
  8
VLB
100
AcDbLine
 10
-14467.44928975002
 20
4247.091390512819
 30
0.0
 11
-14467.44928975002
 21
4246.091390512821
 31
0.0
  0
LINE
  5
102DD
330
2
100
AcDbEntity
  8
VLB
100
AcDbLine
 10
-14477.44928975002
 20
4247.091390512819
 30
0.0
 11
-14477.44928975002
 21
4246.091390512821
 31
0.0
  0
LINE
  5
102E0
330
2
100
AcDbEntity
  8
SPS
100
AcDbLine
 10
-14472.44928975002
 20
4237.296686003094
 30
0.0
 11
-14472.44928975002
 21
4250.335876609105
 31
0.0
  0
LINE
  5
102E4
330
2
100
AcDbEntity
  8
VLB
100
AcDbLine
 10
-14580.16114905168
 20
4365.891390512819
 30
0.0
 11
-14576.30972405168
 21
4365.891390512819
 31
0.0
  0
ARC
  5
102E5
330
2
100
AcDbEntity
  8
VLB
100
AcDbCircle
 10
-14576.48025605168
 20
4367.851451512819
 30
0.0
 40
3.373272
100
AcDbArc
 50
59.99999999999946
 51
124.5650930000675
  0
LINE
  5
102E6
330
2
100
AcDbEntity
  8
VLB
100
AcDbLine
 10
-14578.39405505169
 20
4366.558057512818
 30
0.0
 11
-14578.39405505169
 21
4370.629280512818
 31
0.0
  0
LINE
  5
102E7
330
2
100
AcDbEntity
  8
VLB
100
AcDbLine
 10
-14574.54505405168
 20
4366.558057512818
 30
0.0
 11
-14574.54505405168
 21
4370.629280512818
 31
0.0
  0
LINE
  5
102E8
330
2
100
AcDbEntity
  8
VLB
100
AcDbLine
 10
-14576.30972405168
 20
4365.891390512819
 30
0.0
 11
-14576.30972405168
 21
4366.558057512818
 31
0.0
  0
LINE
  5
102E9
330
2
100
AcDbEntity
  8
VLB
100
AcDbLine
 10
-14574.74305705168
 20
4365.091390512819
 30
0.0
 11
-14574.74305705168
 21
4365.891390512819
 31
0.0
1001
ACAD
1000
ASC_BOUNDS
1002
{
1070
    16
1002
}
  0
LINE
  5
102EA
330
2
100
AcDbEntity
  8
VLB
100
AcDbLine
 10
-14575.57639005169
 20
4371.224723512818
 30
0.0
 11
-14574.54505405168
 21
4370.629280512818
 31
0.0
  0
LINE
  5
102EB
330
2
100
AcDbEntity
  8
SPS
100
AcDbLine
 10
-14582.24305605169
 20
4342.14707404195
 30
0.0
 11
-14582.24305605169
 21
4377.226642703074
 31
0.0
  0
LINE
  5
102EC
330
2
100
AcDbEntity
  8
VLB
100
AcDbLine
 10
-14581.24305605168
 20
4365.891390512819
 30
0.0
 11
-14582.24305605169
 21
4365.891390512819
 31
0.0
  0
LINE
  5
102ED
330
2
100
AcDbEntity
  8
VLB
100
AcDbLine
 10
-14586.09205805168
 20
4366.558057512818
 30
0.0
 11
-14586.09205805168
 21
4370.629280512818
 31
0.0
  0
ARC
  5
102EE
330
2
100
AcDbEntity
  8
VLB
100
AcDbCircle
 10
-14582.24305605169
 20
4358.486834512819
 30
0.0
 40
12.737889
100
AcDbArc
 50
85.49730800002963
 51
107.5879540000596
  0
LINE
  5
102EF
330
2
100
AcDbEntity
  8
VLB
100
AcDbLine
 10
-14581.24305605168
 20
4366.558057512818
 30
0.0
 11
-14574.54505405168
 21
4366.558057512818
 31
0.0
  0
LINE
  5
102F0
330
2
100
AcDbEntity
  8
VLB
100
AcDbLine
 10
-14574.74305705168
 20
4365.891390512819
 30
0.0
 11
-14581.24305605168
 21
4365.891390512819
 31
0.0
  0
ARC
  5
102F1
330
2
100
AcDbEntity
  8
VLB
100
AcDbCircle
 10
-14582.24305605169
 20
4358.486834512819
 30
0.0
 40
12.737889
100
AcDbArc
 50
72.41204599994038
 51
85.49730800002963
  0
LINE
  5
102F2
330
2
100
AcDbEntity
  8
VLB
100
AcDbLine
 10
-14581.24305605168
 20
4371.224723512818
 30
0.0
 11
-14575.57639005169
 21
4371.224723512818
 31
0.0
  0
LINE
  5
102F4
330
2
100
AcDbEntity
  8
VLB
100
AcDbLine
 10
-14394.24305605168
 20
4311.09139051282
 30
0.0
 11
-14394.24305605168
 21
4364.09139051282
 31
0.0
  0
LINE
  5
102F5
330
2
100
AcDbEntity
  8
VLB
100
AcDbLine
 10
-14394.24305605168
 20
4311.09139051282
 30
0.0
 11
-14395.74305605169
 21
4311.09139051282
 31
0.0
  0
CIRCLE
  5
102F6
330
2
100
AcDbEntity
  8
VLB
100
AcDbCircle
 10
-14384.3864903832
 20
4322.241767942982
 30
0.0
 40
2.550000000006548
  0
CIRCLE
  5
102F7
330
2
100
AcDbEntity
  8
VLB
100
AcDbCircle
 10
-14384.3864903832
 20
4322.241767942982
 30
0.0
 40
5.000000000001818
  0
LINE
  5
102F8
330
2
100
AcDbEntity
  8
SPS
100
AcDbLine
 10
-14384.3864903832
 20
4314.833525089021
 30
0.0
 11
-14384.3864903832
 21
4330.726377166864
 31
0.0
  0
LINE
  5
102F9
330
2
100
AcDbEntity
  8
SPS
100
AcDbLine
 10
-14390.69784694028
 20
4322.241767942982
 30
0.0
 11
-14377.35716079564
 21
4322.241767942982
 31
0.0
  0
LINE
  5
1030E
330
2
100
AcDbEntity
  8
VLB
100
AcDbLine
 10
-14342.74305605168
 20
4364.09139051282
 30
0.0
 11
-14394.24305605168
 21
4364.09139051282
 31
0.0
  0
CIRCLE
  5
1030F
330
2
100
AcDbEntity
  8
VLB
100
AcDbCircle
 10
-14384.3864903832
 20
4353.207170919013
 30
0.0
 40
2.550000000006548
  0
CIRCLE
  5
10310
330
2
100
AcDbEntity
  8
VLB
100
AcDbCircle
 10
-14384.3864903832
 20
4353.207170919013
 30
0.0
 40
5.000000000001818
  0
LINE
  5
10311
330
2
100
AcDbEntity
  8
SPS
100
AcDbLine
 10
-14384.3864903832
 20
4345.798928065053
 30
0.0
 11
-14384.3864903832
 21
4361.691780142895
 31
0.0
  0
LINE
  5
10312
330
2
100
AcDbEntity
  8
SPS
100
AcDbLine
 10
-14390.69784694028
 20
4353.207170919013
 30
0.0
 11
-14377.35716079564
 21
4353.207170919013
 31
0.0
  0
LINE
  5
10313
330
2
100
AcDbEntity
  8
VLB
100
AcDbLine
 10
-14344.24305605169
 20
4365.091390512819
 30
0.0
 11
-14344.24305605169
 21
4364.09139051282
 31
0.0
  0
LINE
  5
10331
330
2
100
AcDbEntity
  8
VLB
100
AcDbLine
 10
-14460.74305605168
 20
4627.868928655026
 30
0.0
 11
-14460.74305605168
 21
4630.368928655027
 31
0.0
  0
LINE
  5
1038B
330
2
100
AcDbEntity
  8
VLB
100
AcDbLine
 10
-14342.75315736618
 20
4646.36892865503
 30
0.0
 11
-14342.75315736618
 21
4653.066930655028
 31
0.0
  0
LINE
  5
1038C
330
2
100
AcDbEntity
  8
VLB
100
AcDbLine
 10
-14343.41982436617
 20
4652.86892765503
 30
0.0
 11
-14343.41982436617
 21
4646.36892865503
 31
0.0
  0
LINE
  5
1038D
330
2
100
AcDbEntity
  8
VLB
100
AcDbLine
 10
-14343.41982436617
 20
4647.45083565503
 30
0.0
 11
-14343.41982436617
 21
4651.302260655028
 31
0.0
  0
ARC
  5
1038E
330
2
100
AcDbEntity
  8
VLB
100
AcDbCircle
 10
-14350.82438036618
 20
4645.368928655027
 30
0.0
 40
12.737889
100
AcDbArc
 50
4.502691999978397
 51
17.58795400005962
  0
LINE
  5
1038F
330
2
100
AcDbEntity
  8
VLB
100
AcDbLine
 10
-14338.08649136618
 20
4646.36892865503
 30
0.0
 11
-14338.08649136618
 21
4652.035594655028
 31
0.0
  0
LINE
  5
10398
330
2
100
AcDbEntity
  8
VLB
100
AcDbLine
 10
-14343.41982436617
 20
4646.36892865503
 30
0.0
 11
-14343.41982436617
 21
4645.368928655027
 31
0.0
  0
LINE
  5
10399
330
2
100
AcDbEntity
  8
VLB
100
AcDbLine
 10
-14342.75315736618
 20
4637.670925655025
 30
0.0
 11
-14338.68193436618
 21
4637.670925655025
 31
0.0
  0
LINE
  5
1039A
330
2
100
AcDbEntity
  8
VLB
100
AcDbLine
 10
-14342.75315736618
 20
4641.519926655027
 30
0.0
 11
-14338.68193436618
 21
4641.519926655027
 31
0.0
  0
LINE
  5
1039B
330
2
100
AcDbEntity
  8
VLB
100
AcDbLine
 10
-14343.41982436617
 20
4637.868928655026
 30
0.0
 11
-14344.21982436617
 21
4637.868928655026
 31
0.0
  0
LINE
  5
1039C
330
2
100
AcDbEntity
  8
VLB
100
AcDbLine
 10
-14344.21982436617
 20
4637.868928655026
 30
0.0
 11
-14343.41982436617
 21
4637.868928655026
 31
0.0
1001
ACAD
1000
ASC_BOUNDS
1002
{
1070
    16
1002
}
  0
LINE
  5
1039D
330
2
100
AcDbEntity
  8
VLB
100
AcDbLine
 10
-14343.41982436617
 20
4639.435595655029
 30
0.0
 11
-14342.75315736618
 21
4639.435595655029
 31
0.0
  0
LINE
  5
1039E
330
2
100
AcDbEntity
  8
VLB
100
AcDbLine
 10
-14338.08649136618
 20
4638.702262655026
 30
0.0
 11
-14338.68193436618
 21
4637.670925655025
 31
0.0
  0
ARC
  5
1039F
330
2
100
AcDbEntity
  8
VLB
100
AcDbCircle
 10
-14341.45976336617
 20
4639.606127655026
 30
0.0
 40
3.373272
100
AcDbArc
 50
329.9999999999727
 51
34.56509300008031
  0
LINE
  5
103A0
330
2
100
AcDbEntity
  8
VLB
100
AcDbLine
 10
-14343.41982436617
 20
4639.435595655029
 30
0.0
 11
-14343.41982436617
 21
4646.36892865503
 31
0.0
  0
LINE
  5
103A1
330
2
100
AcDbEntity
  8
VLB
100
AcDbLine
 10
-14342.75315736618
 20
4637.670925655025
 30
0.0
 11
-14342.75315736618
 21
4646.36892865503
 31
0.0
  0
LINE
  5
103A2
330
2
100
AcDbEntity
  8
VLB
100
AcDbLine
 10
-14343.41982436617
 20
4645.368928655027
 30
0.0
 11
-14343.41982436617
 21
4637.868928655026
 31
0.0
  0
ARC
  5
103A3
330
2
100
AcDbEntity
  8
VLB
100
AcDbCircle
 10
-14350.82438036618
 20
4645.368928655027
 30
0.0
 40
12.737889
100
AcDbArc
 50
342.4120459999404
 51
4.502691999978397
  0
LINE
  5
103A4
330
2
100
AcDbEntity
  8
VLB
100
AcDbLine
 10
-14338.08649136618
 20
4638.702262655026
 30
0.0
 11
-14338.08649136618
 21
4646.36892865503
 31
0.0
  0
LINE
  5
103A5
330
2
100
AcDbEntity
  8
SPS
100
AcDbLine
 10
-14352.3355377692
 20
4645.368928655027
 30
0.0
 11
-14338.79203585484
 21
4645.368928655027
 31
0.0
  0
LINE
  5
103A6
330
2
100
AcDbEntity
  8
VLB
100
AcDbLine
 10
-14344.24305605168
 20
4630.368928655027
 30
0.0
 11
-14345.74305605168
 21
4630.368928655027
 31
0.0
  0
ARC
  5
103B0
330
2
100
AcDbEntity
  8
VLB
100
AcDbCircle
 10
-14341.45976336617
 20
4651.131728655027
 30
0.0
 40
3.373272
100
AcDbArc
 50
325.4349069999197
 51
30.00000000002723
  0
LINE
  5
103B1
330
2
100
AcDbEntity
  8
VLB
100
AcDbLine
 10
-14342.75315736618
 20
4649.217929655026
 30
0.0
 11
-14338.68193436618
 21
4649.217929655026
 31
0.0
  0
LINE
  5
103B2
330
2
100
AcDbEntity
  8
VLB
100
AcDbLine
 10
-14342.75315736618
 20
4653.066930655028
 30
0.0
 11
-14338.68193436618
 21
4653.066930655028
 31
0.0
  0
LINE
  5
103B3
330
2
100
AcDbEntity
  8
VLB
100
AcDbLine
 10
-14343.41982436617
 20
4651.302260655028
 30
0.0
 11
-14342.75315736618
 21
4651.302260655028
 31
0.0
  0
LINE
  5
103B4
330
2
100
AcDbEntity
  8
VLB
100
AcDbLine
 10
-14344.21982436617
 20
4652.86892765503
 30
0.0
 11
-14343.41982436617
 21
4652.86892765503
 31
0.0
1001
ACAD
1000
ASC_BOUNDS
1002
{
1070
    16
1002
}
  0
LINE
  5
103B5
330
2
100
AcDbEntity
  8
VLB
100
AcDbLine
 10
-14338.08649136618
 20
4652.035594655028
 30
0.0
 11
-14338.68193436618
 21
4653.066930655028
 31
0.0
  0
CIRCLE
  5
103B6
330
2
100
AcDbEntity
  8
VLB
100
AcDbCircle
 10
-14354.3178681538
 20
4671.056719234728
 30
0.0
 40
2.550000000006548
  0
CIRCLE
  5
103B7
330
2
100
AcDbEntity
  8
VLB
100
AcDbCircle
 10
-14354.3178681538
 20
4671.056719234728
 30
0.0
 40
5.000000000001818
  0
LINE
  5
103B8
330
2
100
AcDbEntity
  8
SPS
100
AcDbLine
 10
-14354.3178681538
 20
4663.648476380766
 30
0.0
 11
-14354.3178681538
 21
4679.541328458608
 31
0.0
  0
LINE
  5
103B9
330
2
100
AcDbEntity
  8
SPS
100
AcDbLine
 10
-14348.00651159673
 20
4671.056719234728
 30
0.0
 11
-14361.34719774137
 21
4671.056719234728
 31
0.0
  0
LINE
  5
10513
330
2
100
AcDbEntity
  8
SPS
100
AcDbLine
 10
-14354.3178681538
 20
4763.946214170411
 30
0.0
 11
-14354.3178681538
 21
4779.839066248254
 31
0.0
  0
CIRCLE
  5
10514
330
2
100
AcDbEntity
  8
VLB
100
AcDbCircle
 10
-14354.3178681538
 20
4771.354457024374
 30
0.0
 40
5.000000000001818
  0
CIRCLE
  5
10515
330
2
100
AcDbEntity
  8
VLB
100
AcDbCircle
 10
-14354.3178681538
 20
4771.354457024374
 30
0.0
 40
2.550000000006548
  0
LINE
  5
10516
330
2
100
AcDbEntity
  8
SPS
100
AcDbLine
 10
-14348.00651159673
 20
4771.354457024374
 30
0.0
 11
-14361.34719774137
 21
4771.354457024374
 31
0.0
  0
LINE
  5
10518
330
2
100
AcDbEntity
  8
SPS
100
AcDbLine
 10
-14348.00651159673
 20
4871.65219481402
 30
0.0
 11
-14361.34719774137
 21
4871.65219481402
 31
0.0
  0
LINE
  5
10519
330
2
100
AcDbEntity
  8
SPS
100
AcDbLine
 10
-14354.3178681538
 20
4864.243951960058
 30
0.0
 11
-14354.3178681538
 21
4880.1368040379
 31
0.0
  0
CIRCLE
  5
1051A
330
2
100
AcDbEntity
  8
VLB
100
AcDbCircle
 10
-14354.3178681538
 20
4871.65219481402
 30
0.0
 40
5.000000000001818
  0
CIRCLE
  5
1051B
330
2
100
AcDbEntity
  8
VLB
100
AcDbCircle
 10
-14354.3178681538
 20
4871.65219481402
 30
0.0
 40
2.550000000006548
  0
LINE
  5
10526
330
2
100
AcDbEntity
  8
SPS
100
AcDbLine
 10
-14348.00651159673
 20
4971.949932603666
 30
0.0
 11
-14361.34719774137
 21
4971.949932603666
 31
0.0
  0
LINE
  5
10527
330
2
100
AcDbEntity
  8
SPS
100
AcDbLine
 10
-14354.3178681538
 20
4964.541689749704
 30
0.0
 11
-14354.3178681538
 21
4980.434541827546
 31
0.0
  0
CIRCLE
  5
10528
330
2
100
AcDbEntity
  8
VLB
100
AcDbCircle
 10
-14354.3178681538
 20
4971.949932603666
 30
0.0
 40
5.000000000001818
  0
CIRCLE
  5
10529
330
2
100
AcDbEntity
  8
VLB
100
AcDbCircle
 10
-14354.3178681538
 20
4971.949932603666
 30
0.0
 40
2.550000000006548
  0
LINE
  5
1052A
330
2
100
AcDbEntity
  8
SPS
100
AcDbLine
 10
-14348.00651159673
 20
5072.247670393312
 30
0.0
 11
-14361.34719774137
 21
5072.247670393312
 31
0.0
  0
LINE
  5
1052B
330
2
100
AcDbEntity
  8
SPS
100
AcDbLine
 10
-14354.3178681538
 20
5064.839427539349
 30
0.0
 11
-14354.3178681538
 21
5080.732279617192
 31
0.0
  0
CIRCLE
  5
1052C
330
2
100
AcDbEntity
  8
VLB
100
AcDbCircle
 10
-14354.3178681538
 20
5072.247670393312
 30
0.0
 40
5.000000000001818
  0
CIRCLE
  5
1052D
330
2
100
AcDbEntity
  8
VLB
100
AcDbCircle
 10
-14354.3178681538
 20
5072.247670393312
 30
0.0
 40
2.550000000006548
  0
LINE
  5
1052E
330
2
100
AcDbEntity
  8
SPS
100
AcDbLine
 10
-14348.00651159673
 20
5172.545408182958
 30
0.0
 11
-14361.34719774137
 21
5172.545408182958
 31
0.0
  0
LINE
  5
1052F
330
2
100
AcDbEntity
  8
SPS
100
AcDbLine
 10
-14354.3178681538
 20
5165.137165328996
 30
0.0
 11
-14354.3178681538
 21
5181.030017406838
 31
0.0
  0
CIRCLE
  5
10530
330
2
100
AcDbEntity
  8
VLB
100
AcDbCircle
 10
-14354.3178681538
 20
5172.545408182958
 30
0.0
 40
5.000000000001818
  0
CIRCLE
  5
10531
330
2
100
AcDbEntity
  8
VLB
100
AcDbCircle
 10
-14354.3178681538
 20
5172.545408182958
 30
0.0
 40
2.550000000006548
  0
LINE
  5
1053E
330
2
100
AcDbEntity
  8
VLB
100
AcDbLine
 10
-14680.74305605169
 20
5421.564053992273
 30
0.0
 11
-14462.24305605169
 21
5414.368928655027
 31
0.0
  0
LINE
  5
1053F
330
2
100
AcDbEntity
  8
VLB
100
AcDbLine
 10
-14762.24305605168
 20
5409.247819278249
 30
0.0
 11
-14681.74305605168
 21
5406.596983627685
 31
0.0
  0
LINE
  5
1054D
330
2
100
AcDbEntity
  8
VLB
100
AcDbLine
 10
-14843.74305605169
 20
5391.5664608974
 30
0.0
 11
-14843.74305605168
 21
5421.564053992273
 31
0.0
  0
LINE
  5
1054F
330
2
100
AcDbEntity
  8
VLB
100
AcDbLine
 10
-14680.74305605169
 20
5391.5664608974
 30
0.0
 11
-14680.74305605169
 21
5421.564053992273
 31
0.0
  0
LINE
  5
10563
330
2
100
AcDbEntity
  8
SPS
100
AcDbLine
 10
-14472.31786815381
 20
5380.425164209893
 30
0.0
 11
-14472.31786815381
 21
5396.318016287736
 31
0.0
  0
CIRCLE
  5
10564
330
2
100
AcDbEntity
  8
VLB
100
AcDbCircle
 10
-14472.31786815381
 20
5387.833407063856
 30
0.0
 40
5.000000000001818
  0
LINE
  5
10565
330
2
100
AcDbEntity
  8
VLB
100
AcDbLine
 10
-14462.24305605169
 20
5371.368928655029
 30
0.0
 11
-14462.24305605169
 21
5399.368928655027
 31
0.0
  0
LINE
  5
10566
330
2
100
AcDbEntity
  8
SPS
100
AcDbLine
 10
-14466.00651159674
 20
5387.833407063856
 30
0.0
 11
-14479.34719774138
 21
5387.833407063856
 31
0.0
  0
CIRCLE
  5
10567
330
2
100
AcDbEntity
  8
VLB
100
AcDbCircle
 10
-14472.31786815381
 20
5387.833407063856
 30
0.0
 40
2.550000000006548
  0
LINE
  5
1056C
330
2
100
AcDbEntity
  8
VLB
100
AcDbLine
 10
-14462.24305605169
 20
5414.368928655027
 30
0.0
 11
-14462.24305605169
 21
5399.368928655027
 31
0.0
  0
LINE
  5
1056D
330
2
100
AcDbEntity
  8
SPS
100
AcDbLine
 10
-14354.3178681538
 20
5265.434903118642
 30
0.0
 11
-14354.3178681538
 21
5281.327755196484
 31
0.0
  0
CIRCLE
  5
1056E
330
2
100
AcDbEntity
  8
VLB
100
AcDbCircle
 10
-14354.3178681538
 20
5272.843145972604
 30
0.0
 40
5.000000000001818
  0
LINE
  5
1056F
330
2
100
AcDbEntity
  8
SPS
100
AcDbLine
 10
-14348.00651159673
 20
5272.843145972604
 30
0.0
 11
-14361.34719774137
 21
5272.843145972604
 31
0.0
  0
CIRCLE
  5
10570
330
2
100
AcDbEntity
  8
VLB
100
AcDbCircle
 10
-14354.3178681538
 20
5272.843145972604
 30
0.0
 40
2.550000000006548
  0
CIRCLE
  5
10572
330
2
100
AcDbEntity
  8
VLB
100
AcDbCircle
 10
-14370.91387432693
 20
5393.763165993425
 30
0.0
 40
12.5
  0
ARC
  5
10573
330
2
100
AcDbEntity
  8
VLB
100
AcDbCircle
 10
-14370.91387432693
 20
5393.763165993425
 30
0.0
 40
22.5
100
AcDbArc
 50
303.748988595957
 51
236.2510114040428
  0
LINE
  5
10576
330
2
100
AcDbEntity
  8
VLS
100
AcDbLine
 10
-14383.41387432693
 20
5381.263165993425
 30
0.0
 11
-14358.41387432693
 21
5381.263165993427
 31
0.0
  0
LINE
  5
10584
330
2
100
AcDbEntity
  8
VLB
100
AcDbLine
 10
-14383.41387432693
 20
5381.263165993425
 30
0.0
 11
-14376.31285552017
 21
5382.48925797202
 31
0.0
  0
LINE
  5
10586
330
2
100
AcDbEntity
  8
VLB
100
AcDbLine
 10
-14383.41387432693
 20
5371.36892865503
 30
0.0
 11
-14383.41387432693
 21
5381.263165993425
 31
0.0
  0
LINE
  5
10589
330
2
100
AcDbEntity
  8
SPS
100
AcDbLine
 10
-14370.91387432693
 20
5376.263165993427
 30
0.0
 11
-14370.91387432693
 21
5362.263165993425
 31
0.0
  0
LINE
  5
1058A
330
2
100
AcDbEntity
  8
SPS
100
AcDbLine
 10
-14370.91387432693
 20
5358.863194993426
 30
0.0
 11
-14370.91387432693
 21
5388.889267972019
 31
0.0
  0
LINE
  5
10593
330
2
100
AcDbEntity
  8
SPS
100
AcDbLine
 10
-14348.00651159673
 20
5359.833407063858
 30
0.0
 11
-14361.34719774137
 21
5359.833407063858
 31
0.0
  0
LINE
  5
10594
330
2
100
AcDbEntity
  8
SPS
100
AcDbLine
 10
-14354.3178681538
 20
5352.425164209895
 30
0.0
 11
-14354.3178681538
 21
5368.318016287737
 31
0.0
  0
CIRCLE
  5
10595
330
2
100
AcDbEntity
  8
VLB
100
AcDbCircle
 10
-14354.3178681538
 20
5359.833407063858
 30
0.0
 40
5.000000000001818
  0
CIRCLE
  5
10596
330
2
100
AcDbEntity
  8
VLB
100
AcDbCircle
 10
-14354.3178681538
 20
5359.833407063858
 30
0.0
 40
2.550000000006548
  0
LINE
  5
1059D
330
2
100
AcDbEntity
  8
VLB
100
AcDbLine
 10
-14358.41387432693
 20
5381.263165993427
 30
0.0
 11
-14358.41387432693
 21
5371.368928655029
 31
0.0
  0
LINE
  5
1059E
330
2
100
AcDbEntity
  8
VLB
100
AcDbLine
 10
-14358.41387432693
 20
5381.263165993425
 30
0.0
 11
-14365.5148931337
 21
5382.48925797202
 31
0.0
  0
LINE
  5
10C37
330
2
100
AcDbEntity
  8
VLB
100
AcDbLine
 10
-14762.24305605168
 20
5371.368928655027
 30
0.0
 11
-14344.24305605168
 21
5371.368928655029
 31
0.0
  0
LINE
  5
10C38
330
2
100
AcDbEntity
  8
VLB
100
AcDbLine
 10
-14680.74305605168
 20
5399.368928655026
 30
0.0
 11
-14462.24305605169
 21
5399.368928655027
 31
0.0
  0
LINE
  5
10C39
330
2
100
AcDbEntity
  8
VLB
100
AcDbLine
 10
-14670.41379253073
 20
5399.368928655026
 30
0.0
 11
-14462.24305605169
 21
5399.368928655027
 31
0.0
  0
LINE
  5
10C3A
330
2
100
AcDbEntity
  8
VLB
100
AcDbLine
 10
-14842.74305605169
 20
5393.065636221312
 30
0.0
 11
-14842.74305605168
 21
5420.353574649909
 31
0.0
  0
LINE
  5
10C3B
330
2
100
AcDbEntity
  8
VLB
100
AcDbLine
 10
-14681.74305605168
 20
5393.065636221312
 30
0.0
 11
-14681.74305605168
 21
5420.353574649909
 31
0.0
  0
LINE
  5
10C8C
330
2
100
AcDbEntity
  8
VLB
100
AcDbLine
 10
-13155.15945256844
 20
4630.368928655027
 30
0.0
 11
-13989.18268425396
 21
4630.368928655027
 31
0.0
  0
LINE
  5
10C8D
330
2
100
AcDbEntity
  8
VLB
100
AcDbLine
 10
-13573.15945256845
 20
5371.368928655027
 30
0.0
 11
-13155.15945256844
 21
5371.368928655029
 31
0.0
  0
LINE
  5
10C8E
330
2
100
AcDbEntity
  8
SPS
100
AcDbLine
 10
-13573.15945256845
 20
4612.868928655027
 30
0.0
 11
-13573.15945256845
 21
5439.255949781408
 31
0.0
  0
LINE
  5
10C8F
330
2
100
AcDbEntity
  8
VLB
100
AcDbLine
 10
-13991.15945256845
 20
4630.368928655027
 30
0.0
 11
-13991.15945256845
 21
5371.368928655027
 31
0.0
  0
ARC
  5
10C90
330
2
100
AcDbEntity
  8
VLB
100
AcDbCircle
 10
-13980.15945256845
 20
5272.843145972604
 30
0.0
 40
12.99999999999925
100
AcDbArc
 50
157.3801350519214
 51
202.6198649480785
  0
LINE
  5
10C92
330
2
100
AcDbEntity
  8
VLB
100
AcDbLine
 10
-13874.65945256845
 20
4627.868928655026
 30
0.0
 11
-13271.65945256844
 21
4627.868928655026
 31
0.0
  0
LINE
  5
10C93
330
2
100
AcDbEntity
  8
SPS
100
AcDbLine
 10
-13981.08464046633
 20
4663.648476380766
 30
0.0
 11
-13981.08464046633
 21
4679.541328458608
 31
0.0
  0
CIRCLE
  5
10C94
330
2
100
AcDbEntity
  8
VLB
100
AcDbCircle
 10
-13981.08464046633
 20
4671.056719234728
 30
0.0
 40
5.000000000001818
  0
ARC
  5
10C95
330
2
100
AcDbEntity
  8
VLB
100
AcDbCircle
 10
-13980.15945256845
 20
4671.056719234728
 30
0.0
 40
12.99999999999925
100
AcDbArc
 50
157.3801350519214
 51
202.6198649480785
  0
LINE
  5
10C96
330
2
100
AcDbEntity
  8
VLB
100
AcDbLine
 10
-13997.31601725396
 20
4638.702262655026
 30
0.0
 11
-13997.31601725396
 21
4646.36892865503
 31
0.0
  0
LINE
  5
10C97
330
2
100
AcDbEntity
  8
VLB
100
AcDbLine
 10
-13991.98268425396
 20
4645.368928655027
 30
0.0
 11
-13991.98268425396
 21
4637.868928655026
 31
0.0
  0
LINE
  5
10C98
330
2
100
AcDbEntity
  8
VLB
100
AcDbLine
 10
-13992.64935125396
 20
4637.670925655025
 30
0.0
 11
-13992.64935125396
 21
4646.36892865503
 31
0.0
  0
LINE
  5
10C99
330
2
100
AcDbEntity
  8
VLB
100
AcDbLine
 10
-13991.98268425396
 20
4639.435595655029
 30
0.0
 11
-13991.98268425396
 21
4646.36892865503
 31
0.0
  0
ARC
  5
10C9A
330
2
100
AcDbEntity
  8
VLB
100
AcDbCircle
 10
-13993.94274525396
 20
4639.606127655026
 30
0.0
 40
3.373272
100
AcDbArc
 50
145.4349069999197
 51
210.0000000000272
  0
LINE
  5
10C9B
330
2
100
AcDbEntity
  8
VLB
100
AcDbLine
 10
-13997.31601725396
 20
4638.702262655026
 30
0.0
 11
-13996.72057425396
 21
4637.670925655025
 31
0.0
  0
LINE
  5
10C9C
330
2
100
AcDbEntity
  8
VLB
100
AcDbLine
 10
-13991.98268425396
 20
4639.435595655029
 30
0.0
 11
-13992.64935125396
 21
4639.435595655029
 31
0.0
  0
LINE
  5
10C9D
330
2
100
AcDbEntity
  8
VLB
100
AcDbLine
 10
-13991.18268425396
 20
4637.868928655026
 30
0.0
 11
-13991.98268425396
 21
4637.868928655026
 31
0.0
1001
ACAD
1000
ASC_BOUNDS
1002
{
1070
    16
1002
}
  0
LINE
  5
10C9E
330
2
100
AcDbEntity
  8
VLB
100
AcDbLine
 10
-13991.98268425396
 20
4637.868928655026
 30
0.0
 11
-13991.18268425396
 21
4637.868928655026
 31
0.0
  0
LINE
  5
10C9F
330
2
100
AcDbEntity
  8
VLB
100
AcDbLine
 10
-13992.64935125396
 20
4637.670925655025
 30
0.0
 11
-13996.72057425396
 21
4637.670925655025
 31
0.0
  0
LINE
  5
10CA0
330
2
100
AcDbEntity
  8
VLB
100
AcDbLine
 10
-13991.15945256845
 20
4630.368928655027
 30
0.0
 11
-13989.65945256845
 21
4630.368928655027
 31
0.0
  0
LINE
  5
10CA1
330
2
100
AcDbEntity
  8
SPS
100
AcDbLine
 10
-13983.06697085093
 20
4645.368928655027
 30
0.0
 11
-13996.61047276529
 21
4645.368928655027
 31
0.0
  0
LINE
  5
10CA2
330
2
100
AcDbEntity
  8
VLB
100
AcDbLine
 10
-13997.31601725396
 20
4646.36892865503
 30
0.0
 11
-13997.31601725396
 21
4652.035594655028
 31
0.0
  0
ARC
  5
10CA3
330
2
100
AcDbEntity
  8
VLB
100
AcDbCircle
 10
-13984.57812825396
 20
4645.368928655027
 30
0.0
 40
12.737889
100
AcDbArc
 50
162.4120459999403
 51
175.4973080000216
  0
LINE
  5
10CA4
330
2
100
AcDbEntity
  8
VLB
100
AcDbLine
 10
-13991.98268425396
 20
4647.45083565503
 30
0.0
 11
-13991.98268425396
 21
4651.302260655028
 31
0.0
  0
LINE
  5
10CA5
330
2
100
AcDbEntity
  8
VLB
100
AcDbLine
 10
-13991.98268425396
 20
4652.86892765503
 30
0.0
 11
-13991.98268425396
 21
4646.36892865503
 31
0.0
  0
LINE
  5
10CA6
330
2
100
AcDbEntity
  8
VLB
100
AcDbLine
 10
-13992.64935125396
 20
4646.36892865503
 30
0.0
 11
-13992.64935125396
 21
4653.066930655028
 31
0.0
  0
ARC
  5
10CA7
330
2
100
AcDbEntity
  8
VLB
100
AcDbCircle
 10
-13984.57812825396
 20
4645.368928655027
 30
0.0
 40
12.737889
100
AcDbArc
 50
175.4973080000216
 51
197.5879540000596
  0
LINE
  5
10CA8
330
2
100
AcDbEntity
  8
VLB
100
AcDbLine
 10
-13992.64935125396
 20
4641.519926655027
 30
0.0
 11
-13996.72057425396
 21
4641.519926655027
 31
0.0
  0
LINE
  5
10CA9
330
2
100
AcDbEntity
  8
VLB
100
AcDbLine
 10
-13991.98268425396
 20
4646.36892865503
 30
0.0
 11
-13991.98268425396
 21
4645.368928655027
 31
0.0
  0
LINE
  5
10CAA
330
2
100
AcDbEntity
  8
VLB
100
AcDbLine
 10
-13997.31601725396
 20
4652.035594655028
 30
0.0
 11
-13996.72057425396
 21
4653.066930655028
 31
0.0
  0
LINE
  5
10CAB
330
2
100
AcDbEntity
  8
VLB
100
AcDbLine
 10
-13991.18268425396
 20
4652.86892765503
 30
0.0
 11
-13991.98268425396
 21
4652.86892765503
 31
0.0
1001
ACAD
1000
ASC_BOUNDS
1002
{
1070
    16
1002
}
  0
LINE
  5
10CAC
330
2
100
AcDbEntity
  8
VLB
100
AcDbLine
 10
-13991.98268425396
 20
4651.302260655028
 30
0.0
 11
-13992.64935125396
 21
4651.302260655028
 31
0.0
  0
LINE
  5
10CAD
330
2
100
AcDbEntity
  8
VLB
100
AcDbLine
 10
-13992.64935125396
 20
4653.066930655028
 30
0.0
 11
-13996.72057425396
 21
4653.066930655028
 31
0.0
  0
LINE
  5
10CAE
330
2
100
AcDbEntity
  8
VLB
100
AcDbLine
 10
-13992.64935125396
 20
4649.217929655026
 30
0.0
 11
-13996.72057425396
 21
4649.217929655026
 31
0.0
  0
ARC
  5
10CAF
330
2
100
AcDbEntity
  8
VLB
100
AcDbCircle
 10
-13993.94274525396
 20
4651.131728655027
 30
0.0
 40
3.373272
100
AcDbArc
 50
149.9999999999727
 51
214.5650930000803
  0
LINE
  5
10CB0
330
2
100
AcDbEntity
  8
VLB
100
AcDbLine
 10
-13992.15945256845
 20
4666.056719234727
 30
0.0
 11
-13991.15945256845
 21
4666.05671923473
 31
0.0
  0
LINE
  5
10CB1
330
2
100
AcDbEntity
  8
SPS
100
AcDbLine
 10
-13987.3959970234
 20
4671.056719234728
 30
0.0
 11
-13974.05531087876
 21
4671.056719234728
 31
0.0
  0
LINE
  5
10CB2
330
2
100
AcDbEntity
  8
SPS
100
AcDbLine
 10
-13982.36474805873
 20
4671.056719234728
 30
0.0
 11
-13995.40393866474
 21
4671.056719234728
 31
0.0
  0
CIRCLE
  5
10CB3
330
2
100
AcDbEntity
  8
VLB
100
AcDbCircle
 10
-13981.08464046633
 20
4671.056719234728
 30
0.0
 40
2.550000000006548
  0
LINE
  5
10CB4
330
2
100
AcDbEntity
  8
VLB
100
AcDbLine
 10
-13992.15945256845
 20
4676.056719234728
 30
0.0
 11
-13991.15945256845
 21
4676.056719234725
 31
0.0
  0
LINE
  5
10CB5
330
2
100
AcDbEntity
  8
VLB
100
AcDbLine
 10
-13874.65945256845
 20
4627.868928655026
 30
0.0
 11
-13874.65945256845
 21
4630.368928655027
 31
0.0
  0
LINE
  5
10CB6
330
2
100
AcDbEntity
  8
SPS
100
AcDbLine
 10
-13982.36474805873
 20
4771.354457024374
 30
0.0
 11
-13995.40393866474
 21
4771.354457024374
 31
0.0
  0
ARC
  5
10CB7
330
2
100
AcDbEntity
  8
VLB
100
AcDbCircle
 10
-13980.15945256845
 20
4771.354457024374
 30
0.0
 40
12.99999999999925
100
AcDbArc
 50
157.3801350519214
 51
202.6198649480785
  0
LINE
  5
10CB8
330
2
100
AcDbEntity
  8
VLB
100
AcDbLine
 10
-13992.15945256845
 20
4766.354457024373
 30
0.0
 11
-13991.15945256845
 21
4766.354457024376
 31
0.0
  0
LINE
  5
10CB9
330
2
100
AcDbEntity
  8
VLB
100
AcDbLine
 10
-13992.15945256845
 20
4776.354457024374
 30
0.0
 11
-13991.15945256845
 21
4776.354457024372
 31
0.0
  0
LINE
  5
10CBA
330
2
100
AcDbEntity
  8
SPS
100
AcDbLine
 10
-13982.36474805873
 20
4871.65219481402
 30
0.0
 11
-13995.40393866474
 21
4871.65219481402
 31
0.0
  0
ARC
  5
10CBB
330
2
100
AcDbEntity
  8
VLB
100
AcDbCircle
 10
-13980.15945256845
 20
4871.65219481402
 30
0.0
 40
12.99999999999925
100
AcDbArc
 50
157.3801350519214
 51
202.6198649480785
  0
LINE
  5
10CBC
330
2
100
AcDbEntity
  8
VLB
100
AcDbLine
 10
-13992.15945256845
 20
4876.65219481402
 30
0.0
 11
-13991.15945256845
 21
4876.652194814018
 31
0.0
  0
LINE
  5
10CBD
330
2
100
AcDbEntity
  8
VLB
100
AcDbLine
 10
-13992.15945256845
 20
4866.65219481402
 30
0.0
 11
-13991.15945256845
 21
4866.652194814022
 31
0.0
  0
LINE
  5
10CBE
330
2
100
AcDbEntity
  8
SPS
100
AcDbLine
 10
-13982.36474805873
 20
4971.949932603666
 30
0.0
 11
-13995.40393866474
 21
4971.949932603666
 31
0.0
  0
ARC
  5
10CBF
330
2
100
AcDbEntity
  8
VLB
100
AcDbCircle
 10
-13980.15945256845
 20
4971.949932603666
 30
0.0
 40
12.99999999999925
100
AcDbArc
 50
157.3801350519214
 51
202.6198649480785
  0
LINE
  5
10CC0
330
2
100
AcDbEntity
  8
VLB
100
AcDbLine
 10
-13992.15945256845
 20
4976.949932603666
 30
0.0
 11
-13991.15945256845
 21
4976.949932603663
 31
0.0
  0
LINE
  5
10CC1
330
2
100
AcDbEntity
  8
VLB
100
AcDbLine
 10
-13992.15945256845
 20
4966.949932603665
 30
0.0
 11
-13991.15945256845
 21
4966.949932603668
 31
0.0
  0
LINE
  5
10CC2
330
2
100
AcDbEntity
  8
SPS
100
AcDbLine
 10
-13982.36474805873
 20
5072.247670393312
 30
0.0
 11
-13995.40393866474
 21
5072.247670393312
 31
0.0
  0
ARC
  5
10CC3
330
2
100
AcDbEntity
  8
VLB
100
AcDbCircle
 10
-13980.15945256845
 20
5072.247670393312
 30
0.0
 40
12.99999999999925
100
AcDbArc
 50
157.3801350519214
 51
202.6198649480785
  0
LINE
  5
10CC4
330
2
100
AcDbEntity
  8
VLB
100
AcDbLine
 10
-13992.15945256845
 20
5077.247670393312
 30
0.0
 11
-13991.15945256845
 21
5077.24767039331
 31
0.0
  0
LINE
  5
10CC5
330
2
100
AcDbEntity
  8
VLB
100
AcDbLine
 10
-13992.15945256845
 20
5067.247670393311
 30
0.0
 11
-13991.15945256845
 21
5067.247670393314
 31
0.0
  0
LINE
  5
10CC6
330
2
100
AcDbEntity
  8
SPS
100
AcDbLine
 10
-13982.36474805873
 20
5172.545408182958
 30
0.0
 11
-13995.40393866474
 21
5172.545408182958
 31
0.0
  0
ARC
  5
10CC7
330
2
100
AcDbEntity
  8
VLB
100
AcDbCircle
 10
-13980.15945256845
 20
5172.545408182958
 30
0.0
 40
12.99999999999925
100
AcDbArc
 50
157.3801350519214
 51
202.6198649480785
  0
LINE
  5
10CC8
330
2
100
AcDbEntity
  8
VLB
100
AcDbLine
 10
-13992.15945256845
 20
5167.545408182958
 30
0.0
 11
-13991.15945256845
 21
5167.545408182959
 31
0.0
  0
LINE
  5
10CC9
330
2
100
AcDbEntity
  8
VLB
100
AcDbLine
 10
-13992.15945256845
 20
5177.545408182957
 30
0.0
 11
-13991.15945256845
 21
5177.545408182956
 31
0.0
  0
LINE
  5
10CCA
330
2
100
AcDbEntity
  8
VLB
100
AcDbLine
 10
-13992.15945256845
 20
5267.843145972603
 30
0.0
 11
-13991.15945256845
 21
5267.843145972605
 31
0.0
  0
CIRCLE
  5
10CCC
330
2
100
AcDbEntity
  8
VLB
100
AcDbCircle
 10
-13573.15945256845
 20
4671.056719234728
 30
0.0
 40
5.000000000001818
  0
LINE
  5
10CCD
330
2
100
AcDbEntity
  8
SPS
100
AcDbLine
 10
-13573.15945256845
 20
4663.648476380766
 30
0.0
 11
-13573.15945256845
 21
4679.541328458608
 31
0.0
  0
CIRCLE
  5
10CCE
330
2
100
AcDbEntity
  8
VLB
100
AcDbCircle
 10
-13573.15945256845
 20
4671.056719234728
 30
0.0
 40
2.550000000006548
  0
LINE
  5
10CCF
330
2
100
AcDbEntity
  8
SPS
100
AcDbLine
 10
-13579.47080912552
 20
4671.056719234728
 30
0.0
 11
-13566.13012298088
 21
4671.056719234728
 31
0.0
  0
LINE
  5
10CD1
330
2
100
AcDbEntity
  8
VLB
100
AcDbLine
 10
-13271.65945256844
 20
4627.868928655026
 30
0.0
 11
-13271.65945256844
 21
4630.368928655027
 31
0.0
  0
LINE
  5
10CD2
330
2
100
AcDbEntity
  8
VLB
100
AcDbLine
 10
-13873.15945256845
 20
5414.368928655027
 30
0.0
 11
-13573.15945256845
 21
5424.247819278249
 31
0.0
  0
LINE
  5
10CD3
330
2
100
AcDbEntity
  8
VLB
100
AcDbLine
 10
-13991.15945256845
 20
5371.368928655027
 30
0.0
 11
-13573.15945256845
 21
5371.368928655027
 31
0.0
  0
LINE
  5
10CD4
330
2
100
AcDbEntity
  8
VLB
100
AcDbLine
 10
-13873.15945256845
 20
5399.368928655027
 30
0.0
 11
-13664.9887160894
 21
5399.368928655027
 31
0.0
  0
LINE
  5
10CD5
330
2
100
AcDbEntity
  8
VLB
100
AcDbLine
 10
-13873.15945256845
 20
5399.368928655027
 30
0.0
 11
-13578.15945256845
 21
5399.368928655027
 31
0.0
  0
LINE
  5
10CE1
330
2
100
AcDbEntity
  8
SPS
100
AcDbLine
 10
-13862.98394409939
 20
5380.278966666736
 30
0.0
 11
-13862.98394409939
 21
5396.171818744579
 31
0.0
  0
LINE
  5
10CE2
330
2
100
AcDbEntity
  8
VLB
100
AcDbLine
 10
-13873.15945256845
 20
5371.368928655027
 30
0.0
 11
-13873.15945256845
 21
5399.368928655027
 31
0.0
  0
LINE
  5
10CE3
330
2
100
AcDbEntity
  8
SPS
100
AcDbLine
 10
-13982.36474805873
 20
5272.843145972604
 30
0.0
 11
-13995.40393866474
 21
5272.843145972604
 31
0.0
  0
LINE
  5
10CE4
330
2
100
AcDbEntity
  8
VLB
100
AcDbLine
 10
-13992.15945256845
 20
5277.843145972603
 30
0.0
 11
-13991.15945256845
 21
5277.843145972601
 31
0.0
  0
ARC
  5
10CE6
330
2
100
AcDbEntity
  8
VLB
100
AcDbCircle
 10
-13980.15945256845
 20
5359.833407063858
 30
0.0
 40
12.99999999999925
100
AcDbArc
 50
157.3801350519214
 51
202.6198649480785
  0
LINE
  5
10CE7
330
2
100
AcDbEntity
  8
VLB
100
AcDbLine
 10
-13992.15945256845
 20
5354.833407063857
 30
0.0
 11
-13991.15945256845
 21
5354.83340706386
 31
0.0
  0
LINE
  5
10CE8
330
2
100
AcDbEntity
  8
SPS
100
AcDbLine
 10
-13982.36474805873
 20
5359.833407063858
 30
0.0
 11
-13995.40393866474
 21
5359.833407063858
 31
0.0
  0
ARC
  5
10CE9
330
2
100
AcDbEntity
  8
VLB
100
AcDbCircle
 10
-13981.90151778673
 20
5360.368928655027
 30
0.0
 40
12.99999999999925
100
AcDbArc
 50
67.3801350519691
 51
112.6198649480308
  0
LINE
  5
10CEA
330
2
100
AcDbEntity
  8
VLB
100
AcDbLine
 10
-13986.90151778673
 20
5372.368928655025
 30
0.0
 11
-13986.90151778672
 21
5371.368928655027
 31
0.0
  0
LINE
  5
10CEB
330
2
100
AcDbEntity
  8
VLB
100
AcDbLine
 10
-13992.15945256845
 20
5364.833407063858
 30
0.0
 11
-13991.15945256845
 21
5364.833407063855
 31
0.0
  0
LINE
  5
10CEC
330
2
100
AcDbEntity
  8
VLB
100
AcDbLine
 10
-13976.90151778673
 20
5372.368928655025
 30
0.0
 11
-13976.90151778673
 21
5371.368928655027
 31
0.0
  0
LINE
  5
10CED
330
2
100
AcDbEntity
  8
SPS
100
AcDbLine
 10
-13981.90151778673
 20
5362.574224145301
 30
0.0
 11
-13981.90151778673
 21
5375.613414751311
 31
0.0
  0
ARC
  5
10CEF
330
2
100
AcDbEntity
  8
VLB
100
AcDbCircle
 10
-13948.71119159896
 20
5360.368928655027
 30
0.0
 40
12.99999999999925
100
AcDbArc
 50
67.3801350519691
 51
112.6198649480308
  0
LINE
  5
10CF0
330
2
100
AcDbEntity
  8
VLB
100
AcDbLine
 10
-13953.71119159896
 20
5372.368928655025
 30
0.0
 11
-13953.71119159895
 21
5371.368928655027
 31
0.0
  0
LINE
  5
10CF2
330
2
100
AcDbEntity
  8
VLB
100
AcDbLine
 10
-13943.71119159896
 20
5372.368928655025
 30
0.0
 11
-13943.71119159896
 21
5371.368928655027
 31
0.0
  0
LINE
  5
10CF3
330
2
100
AcDbEntity
  8
SPS
100
AcDbLine
 10
-13948.71119159896
 20
5362.574224145301
 30
0.0
 11
-13948.71119159896
 21
5375.613414751311
 31
0.0
  0
CIRCLE
  5
10CFE
330
2
100
AcDbEntity
  8
VLB
100
AcDbCircle
 10
-13862.98394409939
 20
5387.687209520699
 30
0.0
 40
5.000000000001818
  0
ARC
  5
10CFF
330
2
100
AcDbEntity
  8
VLB
100
AcDbCircle
 10
-13862.15945256845
 20
5387.687209520699
 30
0.0
 40
12.99999999999925
100
AcDbArc
 50
157.3801350519214
 51
202.6198649480785
  0
LINE
  5
10D00
330
2
100
AcDbEntity
  8
SPS
100
AcDbLine
 10
-13869.29530065647
 20
5387.687209520699
 30
0.0
 11
-13855.95461451183
 21
5387.687209520699
 31
0.0
  0
CIRCLE
  5
10D01
330
2
100
AcDbEntity
  8
VLB
100
AcDbCircle
 10
-13862.98394409939
 20
5387.687209520699
 30
0.0
 40
2.550000000006548
  0
LINE
  5
10D02
330
2
100
AcDbEntity
  8
VLB
100
AcDbLine
 10
-13874.15945256844
 20
5382.687209520698
 30
0.0
 11
-13873.15945256845
 21
5382.6872095207
 31
0.0
  0
LINE
  5
10D03
330
2
100
AcDbEntity
  8
SPS
100
AcDbLine
 10
-13864.36474805872
 20
5387.687209520699
 30
0.0
 11
-13877.40393866473
 21
5387.687209520699
 31
0.0
  0
LINE
  5
10D04
330
2
100
AcDbEntity
  8
VLB
100
AcDbLine
 10
-13874.15945256844
 20
5392.687209520698
 30
0.0
 11
-13873.15945256845
 21
5392.687209520697
 31
0.0
  0
LINE
  5
10D05
330
2
100
AcDbEntity
  8
VLB
100
AcDbLine
 10
-13873.15945256845
 20
5399.368928655027
 30
0.0
 11
-13873.15945256845
 21
5414.368928655027
 31
0.0
  0
LINE
  5
10D0B
330
2
100
AcDbEntity
  8
VLB
100
AcDbLine
 10
-13573.15945256845
 20
5424.247819278249
 30
0.0
 11
-13273.15945256845
 21
5414.368928655027
 31
0.0
  0
LINE
  5
10D0C
330
2
100
AcDbEntity
  8
VLB
100
AcDbLine
 10
-13481.33018904749
 20
5399.368928655027
 30
0.0
 11
-13273.15945256845
 21
5399.368928655027
 31
0.0
  0
LINE
  5
10D0D
330
2
100
AcDbEntity
  8
VLB
100
AcDbLine
 10
-13568.15945256845
 20
5399.368928655026
 30
0.0
 11
-13273.15945256845
 21
5399.368928655027
 31
0.0
  0
LINE
  5
10D10
330
2
100
AcDbEntity
  8
SPS
100
AcDbLine
 10
-13283.23426467057
 20
5380.425164209893
 30
0.0
 11
-13283.23426467057
 21
5396.318016287736
 31
0.0
  0
LINE
  5
10D11
330
2
100
AcDbEntity
  8
VLB
100
AcDbLine
 10
-13273.15945256845
 20
5371.368928655029
 30
0.0
 11
-13273.15945256845
 21
5399.368928655027
 31
0.0
  0
CIRCLE
  5
10D12
330
2
100
AcDbEntity
  8
VLB
100
AcDbCircle
 10
-13283.23426467057
 20
5387.833407063856
 30
0.0
 40
5.000000000001818
  0
LINE
  5
10D13
330
2
100
AcDbEntity
  8
SPS
100
AcDbLine
 10
-13276.92290811349
 20
5387.833407063856
 30
0.0
 11
-13290.26359425814
 21
5387.833407063856
 31
0.0
  0
CIRCLE
  5
10D14
330
2
100
AcDbEntity
  8
VLB
100
AcDbCircle
 10
-13283.23426467057
 20
5387.833407063856
 30
0.0
 40
2.550000000006548
  0
LINE
  5
10D15
330
2
100
AcDbEntity
  8
VLB
100
AcDbLine
 10
-13273.15945256845
 20
5414.368928655027
 30
0.0
 11
-13273.15945256845
 21
5399.368928655027
 31
0.0
  0
LINE
  5
10D16
330
2
100
AcDbEntity
  8
VLB
100
AcDbLine
 10
-13155.15945256844
 20
4630.368928655027
 30
0.0
 11
-13155.15945256844
 21
5371.368928655029
 31
0.0
  0
CIRCLE
  5
10D17
330
2
100
AcDbEntity
  8
VLB
100
AcDbCircle
 10
-13165.23426467056
 20
5272.843145972604
 30
0.0
 40
5.000000000001818
  0
LINE
  5
10D18
330
2
100
AcDbEntity
  8
SPS
100
AcDbLine
 10
-13165.23426467056
 20
5265.434903118642
 30
0.0
 11
-13165.23426467056
 21
5281.327755196484
 31
0.0
  0
CIRCLE
  5
10D19
330
2
100
AcDbEntity
  8
VLB
100
AcDbCircle
 10
-13165.23426467056
 20
5272.843145972604
 30
0.0
 40
2.550000000006548
  0
LINE
  5
10D1A
330
2
100
AcDbEntity
  8
VLB
100
AcDbLine
 10
-13153.66955388294
 20
4637.670925655025
 30
0.0
 11
-13149.59833088294
 21
4637.670925655025
 31
0.0
  0
LINE
  5
10D1B
330
2
100
AcDbEntity
  8
SPS
100
AcDbLine
 10
-13163.25193428597
 20
4645.368928655027
 30
0.0
 11
-13149.7084323716
 21
4645.368928655027
 31
0.0
  0
LINE
  5
10D1C
330
2
100
AcDbEntity
  8
VLB
100
AcDbLine
 10
-13153.66955388294
 20
4641.519926655027
 30
0.0
 11
-13149.59833088294
 21
4641.519926655027
 31
0.0
  0
LINE
  5
10D1D
330
2
100
AcDbEntity
  8
VLB
100
AcDbLine
 10
-13153.66955388294
 20
4649.217929655026
 30
0.0
 11
-13149.59833088294
 21
4649.217929655026
 31
0.0
  0
LINE
  5
10D1E
330
2
100
AcDbEntity
  8
VLB
100
AcDbLine
 10
-13153.66955388294
 20
4653.066930655028
 30
0.0
 11
-13149.59833088294
 21
4653.066930655028
 31
0.0
  0
CIRCLE
  5
10D1F
330
2
100
AcDbEntity
  8
VLB
100
AcDbCircle
 10
-13165.23426467056
 20
4671.056719234728
 30
0.0
 40
5.000000000001818
  0
LINE
  5
10D20
330
2
100
AcDbEntity
  8
SPS
100
AcDbLine
 10
-13165.23426467056
 20
4663.648476380766
 30
0.0
 11
-13165.23426467056
 21
4679.541328458608
 31
0.0
  0
LINE
  5
10D21
330
2
100
AcDbEntity
  8
VLB
100
AcDbLine
 10
-13154.33622088294
 20
4639.435595655029
 30
0.0
 11
-13154.33622088294
 21
4646.36892865503
 31
0.0
  0
LINE
  5
10D22
330
2
100
AcDbEntity
  8
VLB
100
AcDbLine
 10
-13153.66955388294
 20
4637.670925655025
 30
0.0
 11
-13153.66955388294
 21
4646.36892865503
 31
0.0
  0
LINE
  5
10D23
330
2
100
AcDbEntity
  8
VLB
100
AcDbLine
 10
-13154.33622088294
 20
4645.368928655027
 30
0.0
 11
-13154.33622088294
 21
4637.868928655026
 31
0.0
  0
LINE
  5
10D24
330
2
100
AcDbEntity
  8
VLB
100
AcDbLine
 10
-13154.33622088294
 20
4637.868928655026
 30
0.0
 11
-13155.13622088293
 21
4637.868928655026
 31
0.0
  0
LINE
  5
10D25
330
2
100
AcDbEntity
  8
VLB
100
AcDbLine
 10
-13155.13622088293
 20
4637.868928655026
 30
0.0
 11
-13154.33622088294
 21
4637.868928655026
 31
0.0
1001
ACAD
1000
ASC_BOUNDS
1002
{
1070
    16
1002
}
  0
LINE
  5
10D26
330
2
100
AcDbEntity
  8
VLB
100
AcDbLine
 10
-13154.33622088294
 20
4639.435595655029
 30
0.0
 11
-13153.66955388294
 21
4639.435595655029
 31
0.0
  0
LINE
  5
10D27
330
2
100
AcDbEntity
  8
VLB
100
AcDbLine
 10
-13155.15945256844
 20
4630.368928655027
 30
0.0
 11
-13156.65945256844
 21
4630.368928655027
 31
0.0
  0
LINE
  5
10D28
330
2
100
AcDbEntity
  8
VLB
100
AcDbLine
 10
-13153.66955388294
 20
4646.36892865503
 30
0.0
 11
-13153.66955388294
 21
4653.066930655028
 31
0.0
  0
LINE
  5
10D29
330
2
100
AcDbEntity
  8
VLB
100
AcDbLine
 10
-13154.33622088294
 20
4652.86892765503
 30
0.0
 11
-13154.33622088294
 21
4646.36892865503
 31
0.0
  0
LINE
  5
10D2A
330
2
100
AcDbEntity
  8
VLB
100
AcDbLine
 10
-13154.33622088294
 20
4647.45083565503
 30
0.0
 11
-13154.33622088294
 21
4651.302260655028
 31
0.0
  0
LINE
  5
10D2B
330
2
100
AcDbEntity
  8
VLB
100
AcDbLine
 10
-13154.33622088294
 20
4646.36892865503
 30
0.0
 11
-13154.33622088294
 21
4645.368928655027
 31
0.0
  0
LINE
  5
10D2C
330
2
100
AcDbEntity
  8
VLB
100
AcDbLine
 10
-13154.33622088294
 20
4651.302260655028
 30
0.0
 11
-13153.66955388294
 21
4651.302260655028
 31
0.0
  0
LINE
  5
10D2D
330
2
100
AcDbEntity
  8
VLB
100
AcDbLine
 10
-13155.13622088293
 20
4652.86892765503
 30
0.0
 11
-13154.33622088294
 21
4652.86892765503
 31
0.0
1001
ACAD
1000
ASC_BOUNDS
1002
{
1070
    16
1002
}
  0
LINE
  5
10D2E
330
2
100
AcDbEntity
  8
SPS
100
AcDbLine
 10
-13158.92290811349
 20
4671.056719234728
 30
0.0
 11
-13172.26359425813
 21
4671.056719234728
 31
0.0
  0
CIRCLE
  5
10D2F
330
2
100
AcDbEntity
  8
VLB
100
AcDbCircle
 10
-13165.23426467056
 20
4671.056719234728
 30
0.0
 40
2.550000000006548
  0
ARC
  5
10D30
330
2
100
AcDbEntity
  8
VLB
100
AcDbCircle
 10
-13152.37615988294
 20
4639.606127655026
 30
0.0
 40
3.373272
100
AcDbArc
 50
329.9999999999727
 51
34.56509300008031
  0
LINE
  5
10D31
330
2
100
AcDbEntity
  8
VLB
100
AcDbLine
 10
-13149.00288788294
 20
4638.702262655026
 30
0.0
 11
-13149.00288788294
 21
4646.36892865503
 31
0.0
  0
LINE
  5
10D32
330
2
100
AcDbEntity
  8
VLB
100
AcDbLine
 10
-13149.00288788294
 20
4638.702262655026
 30
0.0
 11
-13149.59833088294
 21
4637.670925655025
 31
0.0
  0
ARC
  5
10D33
330
2
100
AcDbEntity
  8
VLB
100
AcDbCircle
 10
-13161.74077688293
 20
4645.368928655027
 30
0.0
 40
12.737889
100
AcDbArc
 50
4.502691999978397
 51
17.58795400005962
  0
LINE
  5
10D34
330
2
100
AcDbEntity
  8
VLB
100
AcDbLine
 10
-13149.00288788294
 20
4646.36892865503
 30
0.0
 11
-13149.00288788294
 21
4652.035594655028
 31
0.0
  0
ARC
  5
10D35
330
2
100
AcDbEntity
  8
VLB
100
AcDbCircle
 10
-13161.74077688293
 20
4645.368928655027
 30
0.0
 40
12.737889
100
AcDbArc
 50
342.4120459999404
 51
4.502691999978397
  0
ARC
  5
10D36
330
2
100
AcDbEntity
  8
VLB
100
AcDbCircle
 10
-13152.37615988294
 20
4651.131728655027
 30
0.0
 40
3.373272
100
AcDbArc
 50
325.4349069999197
 51
30.00000000002723
  0
LINE
  5
10D37
330
2
100
AcDbEntity
  8
VLB
100
AcDbLine
 10
-13149.00288788294
 20
4652.035594655028
 30
0.0
 11
-13149.59833088294
 21
4653.066930655028
 31
0.0
  0
LINE
  5
10D38
330
2
100
AcDbEntity
  8
SPS
100
AcDbLine
 10
-13165.23426467056
 20
4763.946214170411
 30
0.0
 11
-13165.23426467056
 21
4779.839066248254
 31
0.0
  0
CIRCLE
  5
10D39
330
2
100
AcDbEntity
  8
VLB
100
AcDbCircle
 10
-13165.23426467056
 20
4771.354457024374
 30
0.0
 40
5.000000000001818
  0
LINE
  5
10D3A
330
2
100
AcDbEntity
  8
SPS
100
AcDbLine
 10
-13158.92290811349
 20
4771.354457024374
 30
0.0
 11
-13172.26359425813
 21
4771.354457024374
 31
0.0
  0
CIRCLE
  5
10D3B
330
2
100
AcDbEntity
  8
VLB
100
AcDbCircle
 10
-13165.23426467056
 20
4771.354457024374
 30
0.0
 40
2.550000000006548
  0
LINE
  5
10D3C
330
2
100
AcDbEntity
  8
SPS
100
AcDbLine
 10
-13158.92290811349
 20
4871.65219481402
 30
0.0
 11
-13172.26359425813
 21
4871.65219481402
 31
0.0
  0
CIRCLE
  5
10D3D
330
2
100
AcDbEntity
  8
VLB
100
AcDbCircle
 10
-13165.23426467056
 20
4871.65219481402
 30
0.0
 40
5.000000000001818
  0
LINE
  5
10D3E
330
2
100
AcDbEntity
  8
SPS
100
AcDbLine
 10
-13165.23426467056
 20
4864.243951960058
 30
0.0
 11
-13165.23426467056
 21
4880.1368040379
 31
0.0
  0
CIRCLE
  5
10D3F
330
2
100
AcDbEntity
  8
VLB
100
AcDbCircle
 10
-13165.23426467056
 20
4871.65219481402
 30
0.0
 40
2.550000000006548
  0
LINE
  5
10D40
330
2
100
AcDbEntity
  8
SPS
100
AcDbLine
 10
-13158.92290811349
 20
4971.949932603666
 30
0.0
 11
-13172.26359425813
 21
4971.949932603666
 31
0.0
  0
CIRCLE
  5
10D41
330
2
100
AcDbEntity
  8
VLB
100
AcDbCircle
 10
-13165.23426467056
 20
4971.949932603666
 30
0.0
 40
5.000000000001818
  0
LINE
  5
10D42
330
2
100
AcDbEntity
  8
SPS
100
AcDbLine
 10
-13165.23426467056
 20
4964.541689749704
 30
0.0
 11
-13165.23426467056
 21
4980.434541827546
 31
0.0
  0
CIRCLE
  5
10D43
330
2
100
AcDbEntity
  8
VLB
100
AcDbCircle
 10
-13165.23426467056
 20
4971.949932603666
 30
0.0
 40
2.550000000006548
  0
LINE
  5
10D44
330
2
100
AcDbEntity
  8
SPS
100
AcDbLine
 10
-13158.92290811349
 20
5072.247670393312
 30
0.0
 11
-13172.26359425813
 21
5072.247670393312
 31
0.0
  0
CIRCLE
  5
10D45
330
2
100
AcDbEntity
  8
VLB
100
AcDbCircle
 10
-13165.23426467056
 20
5072.247670393312
 30
0.0
 40
5.000000000001818
  0
LINE
  5
10D46
330
2
100
AcDbEntity
  8
SPS
100
AcDbLine
 10
-13165.23426467056
 20
5064.839427539349
 30
0.0
 11
-13165.23426467056
 21
5080.732279617192
 31
0.0
  0
CIRCLE
  5
10D47
330
2
100
AcDbEntity
  8
VLB
100
AcDbCircle
 10
-13165.23426467056
 20
5072.247670393312
 30
0.0
 40
2.550000000006548
  0
LINE
  5
10D48
330
2
100
AcDbEntity
  8
SPS
100
AcDbLine
 10
-13158.92290811349
 20
5172.545408182958
 30
0.0
 11
-13172.26359425813
 21
5172.545408182958
 31
0.0
  0
CIRCLE
  5
10D49
330
2
100
AcDbEntity
  8
VLB
100
AcDbCircle
 10
-13165.23426467056
 20
5172.545408182958
 30
0.0
 40
5.000000000001818
  0
LINE
  5
10D4A
330
2
100
AcDbEntity
  8
SPS
100
AcDbLine
 10
-13165.23426467056
 20
5165.137165328996
 30
0.0
 11
-13165.23426467056
 21
5181.030017406838
 31
0.0
  0
CIRCLE
  5
10D4B
330
2
100
AcDbEntity
  8
VLB
100
AcDbCircle
 10
-13165.23426467056
 20
5172.545408182958
 30
0.0
 40
2.550000000006548
  0
LINE
  5
10D57
330
2
100
AcDbEntity
  8
SPS
100
AcDbLine
 10
-13158.92290811349
 20
5272.843145972604
 30
0.0
 11
-13172.26359425813
 21
5272.843145972604
 31
0.0
  0
LINE
  5
10D5A
330
2
100
AcDbEntity
  8
SPS
100
AcDbLine
 10
-13158.92290811349
 20
5359.833407063858
 30
0.0
 11
-13172.26359425813
 21
5359.833407063858
 31
0.0
  0
CIRCLE
  5
10D5B
330
2
100
AcDbEntity
  8
VLB
100
AcDbCircle
 10
-13165.23426467056
 20
5359.833407063858
 30
0.0
 40
5.000000000001818
  0
LINE
  5
10D5C
330
2
100
AcDbEntity
  8
SPS
100
AcDbLine
 10
-13165.23426467056
 20
5352.425164209895
 30
0.0
 11
-13165.23426467056
 21
5368.318016287737
 31
0.0
  0
CIRCLE
  5
10D5F
330
2
100
AcDbEntity
  8
VLB
100
AcDbCircle
 10
-13165.23426467056
 20
5359.833407063858
 30
0.0
 40
2.550000000006548
  0
LINE
  5
10DA9
330
2
100
AcDbEntity
  8
VLB
100
AcDbLine
 10
-13103.8787636255
 20
5414.766927091442
 30
0.0
 11
-13272.28612501169
 21
5420.353574649909
 31
0.0
  0
LINE
  5
10DAA
330
2
100
AcDbEntity
  8
VLB
100
AcDbLine
 10
-13083.13657549649
 20
5391.5664608974
 30
0.0
 11
-13273.03211652543
 21
5397.86594479122
 31
0.0
  0
LINE
  5
10DAD
330
2
100
AcDbEntity
  8
VLB
100
AcDbLine
 10
-13272.28612501169
 20
5420.353574649909
 30
0.0
 11
-13273.03211652543
 21
5397.86594479122
 31
0.0
  0
LINE
  5
10DAE
330
2
100
AcDbEntity
  8
SPS
100
AcDbLine
 10
-13264.83614526828
 20
5394.592406162769
 30
0.0
 11
-13264.58748143036
 21
5402.088282782333
 31
0.0
  0
LINE
  5
10DAF
330
2
100
AcDbEntity
  8
VLB
100
AcDbLine
 10
-13083.13657549649
 20
5391.5664608974
 30
0.0
 11
-13083.08684272891
 21
5393.065636221312
 31
0.0
  0
LINE
  5
10DB0
330
2
100
AcDbEntity
  8
VLB
100
AcDbLine
 10
-13083.08684272891
 20
5393.065636221312
 30
0.0
 11
-13103.8787636255
 21
5414.766927091442
 31
0.0
  0
LINE
  5
10DED
330
2
100
AcDbEntity
  8
VLB
100
AcDbLine
 10
-14063.1823296404
 20
5391.5664608974
 30
0.0
 11
-13873.28678861146
 21
5397.86594479122
 31
0.0
  0
LINE
  5
10DEE
330
2
100
AcDbEntity
  8
VLB
100
AcDbLine
 10
-14042.44014151139
 20
5414.766927091442
 30
0.0
 11
-13874.0327801252
 21
5420.353574649909
 31
0.0
  0
LINE
  5
10DEF
330
2
100
AcDbEntity
  8
VLB
100
AcDbLine
 10
-14063.23206240798
 20
5393.065636221312
 30
0.0
 11
-14042.44014151139
 21
5414.766927091442
 31
0.0
  0
LINE
  5
10DF0
330
2
100
AcDbEntity
  8
VLB
100
AcDbLine
 10
-14063.1823296404
 20
5391.5664608974
 30
0.0
 11
-14063.23206240798
 21
5393.065636221312
 31
0.0
  0
LINE
  5
10DF1
330
2
100
AcDbEntity
  8
SPS
100
AcDbLine
 10
-13881.48275986861
 20
5394.592406162769
 30
0.0
 11
-13881.73142370653
 21
5402.088282782333
 31
0.0
  0
LINE
  5
10DF2
330
2
100
AcDbEntity
  8
VLB
100
AcDbLine
 10
-13874.0327801252
 20
5420.353574649909
 30
0.0
 11
-13873.28678861146
 21
5397.86594479122
 31
0.0
  0
LINE
  5
10DF3
330
2
100
AcDbEntity
  8
VLB
100
AcDbLine
 10
-14680.74305605169
 20
5391.5664608974
 30
0.0
 11
-14843.74305605168
 21
5391.5664608974
 31
0.0
  0
LINE
  5
10DF4
330
2
100
AcDbEntity
  8
VLB
100
AcDbLine
 10
-14681.74305605168
 20
5393.065636221312
 30
0.0
 11
-14842.74305605169
 21
5393.065636221312
 31
0.0
  0
LINE
  5
10DF5
330
2
100
AcDbEntity
  8
VLB
100
AcDbLine
 10
-14680.74305605169
 20
5414.766927091442
 30
0.0
 11
-14681.74305605168
 21
5414.766927091442
 31
0.0
  0
LINE
  5
10DF6
330
2
100
AcDbEntity
  8
VLB
100
AcDbLine
 10
-14680.74305605169
 20
5420.353574649909
 30
0.0
 11
-14681.74305605168
 21
5420.353574649909
 31
0.0
  0
LINE
  5
10DF7
330
2
100
AcDbEntity
  8
VLB
100
AcDbLine
 10
-14842.74305605168
 20
5420.353574649909
 30
0.0
 11
-14843.74305605169
 21
5420.353574649909
 31
0.0
  0
LINE
  5
10DF8
330
2
100
AcDbEntity
  8
VLB
100
AcDbLine
 10
-14842.74305605168
 20
5414.766927091442
 30
0.0
 11
-14843.74305605169
 21
5414.766927091442
 31
0.0
  0
LINE
  5
10DFF
330
2
100
AcDbEntity
  8
VLB
100
AcDbLine
 10
-14682.74305605168
 20
5398.257010842133
 30
0.0
 11
-14841.74305605169
 21
5398.257010842133
 31
0.0
  0
LINE
  5
10E00
330
2
100
AcDbEntity
  8
VLB
100
AcDbLine
 10
-14681.74305605168
 20
5399.256461058076
 30
0.0
 11
-14842.74305605169
 21
5399.256461058076
 31
0.0
  0
LINE
  5
15548
330
2
100
AcDbEntity
  8
SPS
100
AcDbLine
 10
-13581.15945256845
 20
5393.868928655027
 30
0.0
 11
-13565.15945256845
 21
5393.868928655027
 31
0.0
  0
ARC
  5
15549
330
2
100
AcDbEntity
  8
VLB
100
AcDbCircle
 10
-13573.15945256845
 20
5411.368928655028
 30
0.0
 40
5.0
100
AcDbArc
 50
0.0
 51
180.0
  0
LINE
  5
1554A
330
2
100
AcDbEntity
  8
VLB
100
AcDbLine
 10
-13585.65945256845
 20
5371.368928655027
 30
0.0
 11
-13560.65945256845
 21
5371.368928655027
 31
0.0
  0
ELLIPSE
  5
1554C
330
2
100
AcDbEntity
  8
VLS
100
AcDbEllipse
 10
-13573.15945256845
 20
5376.969015462343
 30
0.0
 11
-5.0
 21
0.0000000000000003
 31
0.0
210
0.0
220
0.0
230
1.0
 40
0.3616747482367373
 41
0.6435011087932847
 42
2.498091544796508
  0
LINE
  5
1554D
330
2
100
AcDbEntity
  8
VLB
100
AcDbLine
 10
-13578.15945256845
 20
5411.368928655027
 30
0.0
 11
-13578.15945256845
 21
5376.969015462343
 31
0.0
  0
LINE
  5
1554E
330
2
100
AcDbEntity
  8
VLB
100
AcDbLine
 10
-13585.65945256845
 20
5379.225313238038
 30
0.0
 11
-13585.65945256845
 21
5371.368928655027
 31
0.0
  0
LINE
  5
15551
330
2
100
AcDbEntity
  8
VLB
100
AcDbLine
 10
-13585.65945256845
 20
5379.225313238038
 30
0.0
 11
-13578.15945256845
 21
5379.225313238038
 31
0.0
  0
LINE
  5
15552
330
2
100
AcDbEntity
  8
VLB
100
AcDbLine
 10
-13585.65945256845
 20
5379.225313238038
 30
0.0
 11
-13578.15945256845
 21
5382.75725203968
 31
0.0
  0
LINE
  5
15553
330
2
100
AcDbEntity
  8
VLB
100
AcDbLine
 10
-13568.15945256845
 20
5411.368928655028
 30
0.0
 11
-13568.15945256845
 21
5376.969015462343
 31
0.0
  0
LINE
  5
15554
330
2
100
AcDbEntity
  8
VLB
100
AcDbLine
 10
-13560.65945256845
 20
5379.225313238038
 30
0.0
 11
-13560.65945256845
 21
5371.368928655027
 31
0.0
  0
LINE
  5
15557
330
2
100
AcDbEntity
  8
VLB
100
AcDbLine
 10
-13560.65945256845
 20
5379.225313238038
 30
0.0
 11
-13568.15945256845
 21
5382.757252039677
 31
0.0
  0
LINE
  5
15558
330
2
100
AcDbEntity
  8
VLB
100
AcDbLine
 10
-13568.15945256845
 20
5379.225313238038
 30
0.0
 11
-13560.65945256845
 21
5379.225313238038
 31
0.0
  0
LINE
  5
1555F
330
2
100
AcDbEntity
  8
VLB
100
AcDbLine
 10
-15062.24305605169
 20
3647.091390512821
 30
0.0
 11
-14841.74305605169
 21
3647.091390512821
 31
0.0
  0
LINE
  5
15560
330
2
100
AcDbEntity
  8
VLB
100
AcDbLine
 10
-14463.24305605169
 20
3646.091390512821
 30
0.0
 11
-14463.24305605169
 21
4246.091390512821
 31
0.0
  0
LINE
  5
15561
330
2
100
AcDbEntity
  8
VLB
100
AcDbLine
 10
-14462.24305605169
 20
4245.091390512821
 30
0.0
 11
-14682.74305605169
 21
4245.091390512821
 31
0.0
  0
LINE
  5
15562
330
2
100
AcDbEntity
  8
VLB
100
AcDbLine
 10
-15061.24305605169
 20
4246.091390512821
 30
0.0
 11
-15061.24305605168
 21
3646.091390512821
 31
0.0
  0
LINE
  5
15563
330
2
100
AcDbEntity
  8
VLB
100
AcDbLine
 10
-15061.24305605169
 20
3646.091390512821
 30
0.0
 11
-14841.74305605169
 21
3646.091390512821
 31
0.0
  0
LINE
  5
15564
330
2
100
AcDbEntity
  8
VLB
100
AcDbLine
 10
-14462.24305605169
 20
3647.091390512822
 30
0.0
 11
-14462.24305605169
 21
4245.091390512821
 31
0.0
  0
LINE
  5
15565
330
2
100
AcDbEntity
  8
VLB
100
AcDbLine
 10
-14463.24305605169
 20
4246.091390512821
 30
0.0
 11
-14682.74305605168
 21
4246.091390512821
 31
0.0
  0
LINE
  5
15566
330
2
100
AcDbEntity
  8
VLB
100
AcDbLine
 10
-15062.24305605169
 20
4245.091390512821
 30
0.0
 11
-15062.24305605169
 21
3647.091390512821
 31
0.0
  0
LINE
  5
15567
330
2
100
AcDbEntity
  8
VLB
100
AcDbLine
 10
-14841.74305605169
 20
3647.091390512821
 30
0.0
 11
-14841.74305605169
 21
3627.591390512821
 31
0.0
  0
LINE
  5
15568
330
2
100
AcDbEntity
  8
VLB
100
AcDbLine
 10
-14682.74305605168
 20
3647.091390512821
 30
0.0
 11
-14682.74305605168
 21
3627.591390512821
 31
0.0
  0
LINE
  5
15569
330
2
100
AcDbEntity
  8
VLB
100
AcDbLine
 10
-14841.74305605169
 20
4245.091390512821
 30
0.0
 11
-15062.24305605169
 21
4245.091390512821
 31
0.0
  0
LINE
  5
1556A
330
2
100
AcDbEntity
  8
VLB
100
AcDbLine
 10
-14841.74305605169
 20
4246.091390512821
 30
0.0
 11
-15061.24305605168
 21
4246.091390512821
 31
0.0
  0
LINE
  5
1556B
330
2
100
AcDbEntity
  8
VLB
100
AcDbLine
 10
-14682.74305605169
 20
3647.091390512821
 30
0.0
 11
-14462.24305605169
 21
3647.091390512821
 31
0.0
  0
LINE
  5
1556C
330
2
100
AcDbEntity
  8
VLB
100
AcDbLine
 10
-14682.74305605168
 20
3646.091390512821
 30
0.0
 11
-14463.24305605169
 21
3646.091390512821
 31
0.0
  0
LINE
  5
1556D
330
2
100
AcDbEntity
  8
VLB
100
AcDbLine
 10
-14841.74305605169
 20
3627.591390512821
 30
0.0
 11
-14682.74305605169
 21
3627.591390512821
 31
0.0
  0
LINE
  5
15581
330
2
100
AcDbEntity
  8
VLB
100
AcDbLine
 10
-14841.74305605169
 20
5398.257010842133
 30
0.0
 11
-14841.74305605169
 21
5399.256461058076
 31
0.0
  0
LINE
  5
15582
330
2
100
AcDbEntity
  8
VLB
100
AcDbLine
 10
-14682.74305605168
 20
5398.257010842133
 30
0.0
 11
-14682.74305605168
 21
5399.256461058076
 31
0.0
  0
LINE
  5
155FB
330
2
100
AcDbEntity
  8
VLB
100
AcDbLine
 10
-14680.74305605169
 20
3645.891390512821
 30
0.0
 11
-14682.74305605168
 21
3645.891390512821
 31
0.0
  0
LINE
  5
155FC
330
2
100
AcDbEntity
  8
VLB
100
AcDbLine
 10
-14843.74305605169
 20
3455.891390512821
 30
0.0
 11
-14680.74305605169
 21
3455.891390512821
 31
0.0
  0
LINE
  5
155FD
330
2
100
AcDbEntity
  8
VLB
100
AcDbLine
 10
-14843.74305605169
 20
3645.891390512821
 30
0.0
 11
-14843.74305605169
 21
3455.891390512821
 31
0.0
  0
LINE
  5
155FE
330
2
100
AcDbEntity
  8
VLB
100
AcDbLine
 10
-14842.24305605169
 20
3645.891390512821
 30
0.0
 11
-14842.24305605169
 21
3455.891390512821
 31
0.0
  0
LINE
  5
155FF
330
2
100
AcDbEntity
  8
VLB
100
AcDbLine
 10
-14842.24305605169
 20
3477.391390512821
 30
0.0
 11
-14843.74305605169
 21
3477.391390512821
 31
0.0
  0
LINE
  5
15600
330
2
100
AcDbEntity
  8
VLB
100
AcDbLine
 10
-14680.74305605169
 20
3455.891390512821
 30
0.0
 11
-14680.74305605169
 21
3645.891390512821
 31
0.0
  0
LINE
  5
15601
330
2
100
AcDbEntity
  8
VLB
100
AcDbLine
 10
-14682.24305605169
 20
3455.891390512821
 30
0.0
 11
-14682.24305605169
 21
3645.891390512821
 31
0.0
  0
LINE
  5
15602
330
2
100
AcDbEntity
  8
VLB
100
AcDbLine
 10
-14680.74305605169
 20
3477.391390512823
 30
0.0
 11
-14682.24305605169
 21
3477.391390512821
 31
0.0
  0
LINE
  5
15609
330
2
100
AcDbEntity
  8
VLB
100
AcDbLine
 10
-14841.74305605169
 20
3645.891390512821
 30
0.0
 11
-14843.74305605169
 21
3645.891390512821
 31
0.0
  0
CIRCLE
  5
1560D
330
2
100
AcDbEntity
  8
VLB
100
AcDbCircle
 10
-14812.24305605169
 20
3637.591390512821
 30
0.0
 40
5.000000000001818
  0
LINE
  5
1560E
330
2
100
AcDbEntity
  8
SPS
100
AcDbLine
 10
-14812.24305605169
 20
3630.183147658859
 30
0.0
 11
-14812.24305605169
 21
3646.075999736702
 31
0.0
  0
CIRCLE
  5
1560F
330
2
100
AcDbEntity
  8
VLB
100
AcDbCircle
 10
-14812.24305605169
 20
3637.591390512821
 30
0.0
 40
2.550000000006548
  0
LINE
  5
15610
330
2
100
AcDbEntity
  8
SPS
100
AcDbLine
 10
-14805.93169949461
 20
3637.591390512821
 30
0.0
 11
-14819.27238563925
 21
3637.591390512821
 31
0.0
  0
CIRCLE
  5
15611
330
2
100
AcDbEntity
  8
VLB
100
AcDbCircle
 10
-14712.24305605169
 20
3637.591390512821
 30
0.0
 40
5.000000000001818
  0
LINE
  5
15612
330
2
100
AcDbEntity
  8
SPS
100
AcDbLine
 10
-14712.24305605169
 20
3630.183147658859
 30
0.0
 11
-14712.24305605169
 21
3646.075999736702
 31
0.0
  0
CIRCLE
  5
15613
330
2
100
AcDbEntity
  8
VLB
100
AcDbCircle
 10
-14712.24305605169
 20
3637.591390512821
 30
0.0
 40
2.550000000006548
  0
LINE
  5
15614
330
2
100
AcDbEntity
  8
SPS
100
AcDbLine
 10
-14705.93169949461
 20
3637.591390512821
 30
0.0
 11
-14719.27238563925
 21
3637.591390512821
 31
0.0
  0
LINE
  5
15615
330
2
100
AcDbEntity
  8
VLB
100
AcDbLine
 10
-14843.74305605169
 20
4436.291390512821
 30
0.0
 11
-14680.74305605169
 21
4436.291390512821
 31
0.0
  0
LINE
  5
15616
330
2
100
AcDbEntity
  8
VLB
100
AcDbLine
 10
-14841.74305605169
 20
4264.591390512822
 30
0.0
 11
-14682.74305605169
 21
4264.591390512822
 31
0.0
  0
LINE
  5
15617
330
2
100
AcDbEntity
  8
VLB
100
AcDbLine
 10
-14843.74305605169
 20
4246.291390512822
 30
0.0
 11
-14843.74305605169
 21
4436.291390512821
 31
0.0
  0
LINE
  5
15618
330
2
100
AcDbEntity
  8
VLB
100
AcDbLine
 10
-14842.24305605169
 20
4246.291390512822
 30
0.0
 11
-14842.24305605169
 21
4436.291390512821
 31
0.0
  0
LINE
  5
15619
330
2
100
AcDbEntity
  8
VLB
100
AcDbLine
 10
-14842.24305605169
 20
4414.791390512822
 30
0.0
 11
-14843.74305605169
 21
4414.791390512822
 31
0.0
  0
LINE
  5
1561A
330
2
100
AcDbEntity
  8
SPS
100
AcDbLine
 10
-14805.93169949461
 20
4254.591390512821
 30
0.0
 11
-14819.27238563925
 21
4254.591390512821
 31
0.0
  0
CIRCLE
  5
1561B
330
2
100
AcDbEntity
  8
VLB
100
AcDbCircle
 10
-14812.24305605169
 20
4254.591390512821
 30
0.0
 40
5.000000000001818
  0
LINE
  5
1561C
330
2
100
AcDbEntity
  8
SPS
100
AcDbLine
 10
-14812.24305605169
 20
4261.999633366784
 30
0.0
 11
-14812.24305605169
 21
4246.106781288942
 31
0.0
  0
LINE
  5
1561D
330
2
100
AcDbEntity
  8
VLB
100
AcDbLine
 10
-14841.74305605169
 20
4245.091390512821
 30
0.0
 11
-14841.74305605169
 21
4264.591390512822
 31
0.0
  0
CIRCLE
  5
1561E
330
2
100
AcDbEntity
  8
VLB
100
AcDbCircle
 10
-14812.24305605169
 20
4254.591390512821
 30
0.0
 40
2.550000000006548
  0
LINE
  5
1561F
330
2
100
AcDbEntity
  8
VLB
100
AcDbLine
 10
-14841.74305605169
 20
4246.291390512822
 30
0.0
 11
-14843.74305605169
 21
4246.291390512822
 31
0.0
  0
LINE
  5
15620
330
2
100
AcDbEntity
  8
VLB
100
AcDbLine
 10
-14680.74305605169
 20
4436.291390512821
 30
0.0
 11
-14680.74305605169
 21
4246.291390512822
 31
0.0
  0
LINE
  5
15621
330
2
100
AcDbEntity
  8
VLB
100
AcDbLine
 10
-14682.24305605169
 20
4436.291390512821
 30
0.0
 11
-14682.24305605169
 21
4246.291390512822
 31
0.0
  0
LINE
  5
15622
330
2
100
AcDbEntity
  8
VLB
100
AcDbLine
 10
-14680.74305605169
 20
4414.79139051282
 30
0.0
 11
-14682.24305605169
 21
4414.791390512822
 31
0.0
  0
LINE
  5
15623
330
2
100
AcDbEntity
  8
SPS
100
AcDbLine
 10
-14712.24305605169
 20
4261.999633366784
 30
0.0
 11
-14712.24305605169
 21
4246.106781288942
 31
0.0
  0
LINE
  5
15624
330
2
100
AcDbEntity
  8
VLB
100
AcDbLine
 10
-14682.74305605168
 20
4245.091390512821
 30
0.0
 11
-14682.74305605168
 21
4264.591390512822
 31
0.0
  0
LINE
  5
15625
330
2
100
AcDbEntity
  8
SPS
100
AcDbLine
 10
-14705.93169949461
 20
4254.591390512821
 30
0.0
 11
-14719.27238563925
 21
4254.591390512821
 31
0.0
  0
CIRCLE
  5
15626
330
2
100
AcDbEntity
  8
VLB
100
AcDbCircle
 10
-14712.24305605169
 20
4254.591390512821
 30
0.0
 40
2.550000000006548
  0
CIRCLE
  5
15627
330
2
100
AcDbEntity
  8
VLB
100
AcDbCircle
 10
-14712.24305605169
 20
4254.591390512821
 30
0.0
 40
5.000000000001818
  0
LINE
  5
15628
330
2
100
AcDbEntity
  8
VLB
100
AcDbLine
 10
-14680.74305605169
 20
4246.291390512822
 30
0.0
 11
-14682.74305605168
 21
4246.291390512822
 31
0.0
  0
LINE
  5
15629
330
2
100
AcDbEntity
  8
VLS
100
AcDbLine
 10
-15061.24305605169
 20
4245.091390512821
 30
0.0
 11
-15047.10683249667
 21
4230.955166957807
 31
0.0
  0
LINE
  5
1562A
330
2
100
AcDbEntity
  8
VLS
100
AcDbLine
 10
-14463.24305605169
 20
4245.091390512821
 30
0.0
 11
-14477.3792796067
 21
4230.955166957808
 31
0.0
  0
LINE
  5
15675
330
2
100
AcDbEntity
  8
VLB
100
AcDbLine
 10
-14843.74305605169
 20
4312.091390512818
 30
0.0
 11
-15125.74305605169
 21
4312.091390512818
 31
0.0
  0
LINE
  5
15676
330
2
100
AcDbEntity
  8
VLB
100
AcDbLine
 10
-14680.74305605169
 20
4365.091390512819
 30
0.0
 11
-14344.24305605169
 21
4365.091390512819
 31
0.0
  0
LINE
  5
15677
330
2
100
AcDbEntity
  8
VLB
100
AcDbLine
 10
-14680.74305605168
 20
3581.091390512821
 30
0.0
 11
-14396.74305605169
 21
3581.091390512821
 31
0.0
  0
LINE
  5
15678
330
2
100
AcDbEntity
  8
VLB
100
AcDbLine
 10
-14843.74305605169
 20
3528.09139051282
 30
0.0
 11
-15178.24305605169
 21
3528.091390512821
 31
0.0
  0
LINE
  5
1567B
330
2
100
AcDbEntity
  8
VLB
100
AcDbLine
 10
-15044.4885811283
 20
4247.091390512816
 30
0.0
 11
-15044.4885811283
 21
4246.091390512819
 31
0.0
  0
ARC
  5
1567C
330
2
100
AcDbEntity
  8
VLB
100
AcDbCircle
 10
-15049.48858112835
 20
4235.091390512699
 30
0.0
 40
13.00000000013173
100
AcDbArc
 50
67.38013505192149
 51
74.0576313944422
  0
ARC
  5
1567D
330
2
100
AcDbEntity
  8
VLB
100
AcDbCircle
 10
-15049.48858112833
 20
4235.091390512935
 30
0.0
 40
12.9999999998802
100
AcDbArc
 50
105.9423686055577
 51
112.6198649481446
  0
ARC
  5
1567E
330
2
100
AcDbEntity
  8
VLB
100
AcDbCircle
 10
-15049.4885811283
 20
4235.09139051282
 30
0.0
 40
12.99999999999925
100
AcDbArc
 50
74.0576313944422
 51
105.9423686055577
  0
LINE
  5
1567F
330
2
100
AcDbEntity
  8
VLB
100
AcDbLine
 10
-15054.4885811283
 20
4247.091390512816
 30
0.0
 11
-15054.4885811283
 21
4246.091390512819
 31
0.0
  0
LINE
  5
15680
330
2
100
AcDbEntity
  8
SPS
100
AcDbLine
 10
-15049.4885811283
 20
4237.296686003093
 30
0.0
 11
-15049.4885811283
 21
4250.335876609103
 31
0.0
  0
LINE
  5
15681
330
2
100
AcDbEntity
  8
SPS
100
AcDbLine
 10
-15053.44835154196
 20
4235.885156814485
 30
0.0
 11
-15066.48754214797
 21
4235.885156814485
 31
0.0
  0
LINE
  5
15682
330
2
100
AcDbEntity
  8
VLB
100
AcDbLine
 10
-15063.24305605168
 20
4230.885156814485
 30
0.0
 11
-15062.24305605169
 21
4230.885156814485
 31
0.0
  0
LINE
  5
15683
330
2
100
AcDbEntity
  8
VLB
100
AcDbLine
 10
-15063.24305605168
 20
4240.885156814485
 30
0.0
 11
-15062.24305605169
 21
4240.885156814481
 31
0.0
  0
ARC
  5
15684
330
2
100
AcDbEntity
  8
VLB
100
AcDbCircle
 10
-15051.24305605168
 20
4235.885156814485
 30
0.0
 40
12.99999999999925
100
AcDbArc
 50
157.380135051969
 51
202.6198649480308
  0
LINE
  5
15685
330
2
100
AcDbEntity
  8
VLB
100
AcDbLine
 10
-15063.24305605168
 20
3663.845865436208
 30
0.0
 11
-15062.24305605168
 21
3663.845865436206
 31
0.0
  0
ARC
  5
15686
330
2
100
AcDbEntity
  8
VLB
100
AcDbCircle
 10
-15051.24305605156
 20
3658.845865436154
 30
0.0
 40
13.00000000013173
100
AcDbArc
 50
157.3801350519214
 51
164.0576313944422
  0
ARC
  5
15687
330
2
100
AcDbEntity
  8
VLB
100
AcDbCircle
 10
-15051.2430560518
 20
3658.845865436179
 30
0.0
 40
12.9999999998802
100
AcDbArc
 50
195.9423686055577
 51
202.6198649481446
  0
ARC
  5
15688
330
2
100
AcDbEntity
  8
VLB
100
AcDbCircle
 10
-15051.24305605168
 20
3658.845865436207
 30
0.0
 40
12.99999999999925
100
AcDbArc
 50
164.0576313944422
 51
195.9423686055577
  0
LINE
  5
15689
330
2
100
AcDbEntity
  8
VLB
100
AcDbLine
 10
-15063.24305605168
 20
3653.845865436208
 30
0.0
 11
-15062.24305605168
 21
3653.845865436209
 31
0.0
  0
LINE
  5
1568A
330
2
100
AcDbEntity
  8
SPS
100
AcDbLine
 10
-15053.44835154196
 20
3658.845865436207
 30
0.0
 11
-15066.48754214797
 21
3658.845865436207
 31
0.0
  0
LINE
  5
1568B
330
2
100
AcDbEntity
  8
SPS
100
AcDbLine
 10
-15052.03682235335
 20
3654.886095022549
 30
0.0
 11
-15052.03682235335
 21
3641.846904416538
 31
0.0
  0
LINE
  5
1568C
330
2
100
AcDbEntity
  8
VLB
100
AcDbLine
 10
-15047.03682235335
 20
3645.091390512824
 30
0.0
 11
-15047.03682235335
 21
3646.091390512823
 31
0.0
  0
LINE
  5
1568D
330
2
100
AcDbEntity
  8
VLB
100
AcDbLine
 10
-15057.03682235335
 20
3645.091390512824
 30
0.0
 11
-15057.03682235334
 21
3646.091390512823
 31
0.0
  0
ARC
  5
1568E
330
2
100
AcDbEntity
  8
VLB
100
AcDbCircle
 10
-15052.03682235335
 20
3657.091390512822
 30
0.0
 40
12.99999999999925
100
AcDbArc
 50
247.380135051969
 51
292.6198649480308
  0
LINE
  5
1568F
330
2
100
AcDbEntity
  8
VLB
100
AcDbLine
 10
-14479.99753097507
 20
3645.091390512825
 30
0.0
 11
-14479.99753097507
 21
3646.091390512824
 31
0.0
  0
ARC
  5
15690
330
2
100
AcDbEntity
  8
VLB
100
AcDbCircle
 10
-14474.99753097502
 20
3657.091390512944
 30
0.0
 40
13.00000000013173
100
AcDbArc
 50
247.3801350519214
 51
254.0576313944421
  0
ARC
  5
15691
330
2
100
AcDbEntity
  8
VLB
100
AcDbCircle
 10
-14474.99753097504
 20
3657.091390512707
 30
0.0
 40
12.9999999998802
100
AcDbArc
 50
285.9423686055577
 51
292.6198649481445
  0
ARC
  5
15692
330
2
100
AcDbEntity
  8
VLB
100
AcDbCircle
 10
-14474.99753097507
 20
3657.091390512824
 30
0.0
 40
12.99999999999925
100
AcDbArc
 50
254.0576313944421
 51
285.9423686055577
  0
LINE
  5
15693
330
2
100
AcDbEntity
  8
VLB
100
AcDbLine
 10
-14469.99753097507
 20
3645.091390512825
 30
0.0
 11
-14469.99753097507
 21
3646.091390512824
 31
0.0
  0
LINE
  5
15694
330
2
100
AcDbEntity
  8
SPS
100
AcDbLine
 10
-14474.99753097507
 20
3654.886095022549
 30
0.0
 11
-14474.99753097507
 21
3641.84690441654
 31
0.0
  0
LINE
  5
15695
330
2
100
AcDbEntity
  8
SPS
100
AcDbLine
 10
-14471.03776056141
 20
3656.297624211157
 30
0.0
 11
-14457.9985699554
 21
3656.297624211157
 31
0.0
  0
LINE
  5
15696
330
2
100
AcDbEntity
  8
VLB
100
AcDbLine
 10
-14461.24305605169
 20
3661.297624211157
 30
0.0
 11
-14462.24305605169
 21
3661.297624211157
 31
0.0
  0
LINE
  5
15697
330
2
100
AcDbEntity
  8
VLB
100
AcDbLine
 10
-14461.24305605169
 20
3651.297624211157
 30
0.0
 11
-14462.24305605169
 21
3651.297624211161
 31
0.0
  0
ARC
  5
15698
330
2
100
AcDbEntity
  8
VLB
100
AcDbCircle
 10
-14473.24305605169
 20
3656.297624211157
 30
0.0
 40
12.99999999999925
100
AcDbArc
 50
337.380135051969
 51
22.61986494803084
  0
LINE
  5
1569A
330
2
100
AcDbEntity
  8
VLB
100
AcDbLine
 10
-14475.10170746623
 20
4219.825268398276
 30
0.0
 11
-14475.10170746623
 21
4229.640209798275
 31
0.0
  0
LINE
  5
1569B
330
2
100
AcDbEntity
  8
VLB
100
AcDbLine
 10
-14483.60170746623
 20
4234.547688098276
 30
0.0
 11
-14492.10170746623
 21
4229.640209798275
 31
0.0
  0
LINE
  5
1569C
330
2
100
AcDbEntity
  8
SPS
100
AcDbLine
 10
-14483.60170746623
 20
4224.732739098275
 30
0.0
 11
-14494.10170746623
 21
4224.732739098275
 31
0.0
  0
LINE
  5
1569D
330
2
100
AcDbEntity
  8
VLB
100
AcDbLine
 10
-14492.10170746623
 20
4219.825268398276
 30
0.0
 11
-14483.60170746623
 21
4214.917790098275
 31
0.0
  0
LINE
  5
1569E
330
2
100
AcDbEntity
  8
SPS
100
AcDbLine
 10
-14483.60170746623
 20
4224.732739098275
 30
0.0
 11
-14483.60170746623
 21
4214.232739098275
 31
0.0
  0
LINE
  5
1569F
330
2
100
AcDbEntity
  8
SPS
100
AcDbLine
 10
-14483.60170746623
 20
4224.732739098275
 30
0.0
 11
-14483.60170746623
 21
4235.232739098275
 31
0.0
  0
LINE
  5
156A0
330
2
100
AcDbEntity
  8
VLB
100
AcDbLine
 10
-14492.10170746623
 20
4229.640209798275
 30
0.0
 11
-14492.10170746623
 21
4219.825268398276
 31
0.0
  0
LINE
  5
156A1
330
2
100
AcDbEntity
  8
VLB
100
AcDbLine
 10
-14475.10170746623
 20
4229.640209798275
 30
0.0
 11
-14483.60170746623
 21
4234.547688098276
 31
0.0
  0
LINE
  5
156A2
330
2
100
AcDbEntity
  8
VLB
100
AcDbLine
 10
-14483.60170746623
 20
4214.917790098275
 30
0.0
 11
-14475.10170746623
 21
4219.825268398276
 31
0.0
  0
LINE
  5
156A3
330
2
100
AcDbEntity
  8
SPS
100
AcDbLine
 10
-14483.60170746623
 20
4224.732739098275
 30
0.0
 11
-14473.10170746623
 21
4224.732739098275
 31
0.0
  0
CIRCLE
  5
156A4
330
2
100
AcDbEntity
  8
VLB
100
AcDbCircle
 10
-14483.60170746623
 20
4224.732739098275
 30
0.0
 40
8.5
  0
CIRCLE
  5
156A5
330
2
100
AcDbEntity
  8
VLB
100
AcDbCircle
 10
-15040.88440463714
 20
4224.732739098275
 30
0.0
 40
8.5
  0
LINE
  5
156A6
330
2
100
AcDbEntity
  8
VLB
100
AcDbLine
 10
-15045.79187533714
 20
4216.232739098275
 30
0.0
 11
-15035.97693393714
 21
4216.232739098275
 31
0.0
  0
LINE
  5
156A7
330
2
100
AcDbEntity
  8
SPS
100
AcDbLine
 10
-15040.88440463714
 20
4224.732739098275
 30
0.0
 11
-15030.38440463714
 21
4224.732739098275
 31
0.0
  0
LINE
  5
156A8
330
2
100
AcDbEntity
  8
VLB
100
AcDbLine
 10
-15035.97693393714
 20
4233.232739098276
 30
0.0
 11
-15045.79187533714
 21
4233.232739098276
 31
0.0
  0
LINE
  5
156A9
330
2
100
AcDbEntity
  8
VLB
100
AcDbLine
 10
-15031.06945563714
 20
4224.732739098275
 30
0.0
 11
-15035.97693393714
 21
4233.232739098276
 31
0.0
  0
LINE
  5
156AA
330
2
100
AcDbEntity
  8
VLB
100
AcDbLine
 10
-15035.97693393714
 20
4216.232739098275
 30
0.0
 11
-15031.06945563714
 21
4224.732739098275
 31
0.0
  0
LINE
  5
156AB
330
2
100
AcDbEntity
  8
SPS
100
AcDbLine
 10
-15040.88440463714
 20
4224.732739098275
 30
0.0
 11
-15040.88440463714
 21
4235.232739098275
 31
0.0
  0
LINE
  5
156AC
330
2
100
AcDbEntity
  8
VLB
100
AcDbLine
 10
-15045.79187533714
 20
4233.232739098276
 30
0.0
 11
-15050.69935363714
 21
4224.732739098275
 31
0.0
  0
LINE
  5
156AD
330
2
100
AcDbEntity
  8
SPS
100
AcDbLine
 10
-15040.88440463714
 20
4224.732739098275
 30
0.0
 11
-15051.38440463714
 21
4224.732739098275
 31
0.0
  0
LINE
  5
156AE
330
2
100
AcDbEntity
  8
SPS
100
AcDbLine
 10
-15040.88440463714
 20
4224.732739098275
 30
0.0
 11
-15040.88440463714
 21
4214.232739098275
 31
0.0
  0
LINE
  5
156AF
330
2
100
AcDbEntity
  8
VLB
100
AcDbLine
 10
-15050.69935363714
 20
4224.732739098275
 30
0.0
 11
-15045.79187533714
 21
4216.232739098275
 31
0.0
  0
CIRCLE
  5
156B0
330
2
100
AcDbEntity
  8
VLB
100
AcDbCircle
 10
-15040.88440463714
 20
3667.450041927367
 30
0.0
 40
8.5
  0
LINE
  5
156B1
330
2
100
AcDbEntity
  8
VLB
100
AcDbLine
 10
-15032.38440463714
 20
3662.542571227368
 30
0.0
 11
-15032.38440463714
 21
3672.357512627367
 31
0.0
  0
LINE
  5
156B2
330
2
100
AcDbEntity
  8
SPS
100
AcDbLine
 10
-15040.88440463714
 20
3667.450041927368
 30
0.0
 11
-15040.88440463714
 21
3677.950041927368
 31
0.0
  0
LINE
  5
156B3
330
2
100
AcDbEntity
  8
VLB
100
AcDbLine
 10
-15049.38440463714
 20
3672.357512627367
 30
0.0
 11
-15049.38440463714
 21
3662.542571227368
 31
0.0
  0
LINE
  5
156B4
330
2
100
AcDbEntity
  8
VLB
100
AcDbLine
 10
-15040.88440463714
 20
3677.264990927368
 30
0.0
 11
-15049.38440463714
 21
3672.357512627367
 31
0.0
  0
LINE
  5
156B5
330
2
100
AcDbEntity
  8
VLB
100
AcDbLine
 10
-15032.38440463714
 20
3672.357512627367
 30
0.0
 11
-15040.88440463714
 21
3677.264990927368
 31
0.0
  0
LINE
  5
156B6
330
2
100
AcDbEntity
  8
SPS
100
AcDbLine
 10
-15040.88440463714
 20
3667.450041927368
 30
0.0
 11
-15051.38440463714
 21
3667.450041927368
 31
0.0
  0
LINE
  5
156B7
330
2
100
AcDbEntity
  8
VLB
100
AcDbLine
 10
-15049.38440463714
 20
3662.542571227368
 30
0.0
 11
-15040.88440463714
 21
3657.635092927367
 31
0.0
  0
LINE
  5
156B8
330
2
100
AcDbEntity
  8
SPS
100
AcDbLine
 10
-15040.88440463714
 20
3667.450041927368
 30
0.0
 11
-15040.88440463714
 21
3656.950041927368
 31
0.0
  0
LINE
  5
156B9
330
2
100
AcDbEntity
  8
SPS
100
AcDbLine
 10
-15040.88440463714
 20
3667.450041927368
 30
0.0
 11
-15030.38440463714
 21
3667.450041927368
 31
0.0
  0
LINE
  5
156BA
330
2
100
AcDbEntity
  8
VLB
100
AcDbLine
 10
-15040.88440463714
 20
3657.635092927367
 30
0.0
 11
-15032.38440463714
 21
3662.542571227368
 31
0.0
  0
CIRCLE
  5
156BB
330
2
100
AcDbEntity
  8
VLB
100
AcDbCircle
 10
-14483.60170746623
 20
3667.450041927367
 30
0.0
 40
8.5
  0
LINE
  5
156BC
330
2
100
AcDbEntity
  8
VLB
100
AcDbLine
 10
-14478.69423676623
 20
3675.950041927367
 30
0.0
 11
-14488.50917816623
 21
3675.950041927367
 31
0.0
  0
LINE
  5
156BD
330
2
100
AcDbEntity
  8
SPS
100
AcDbLine
 10
-14483.60170746623
 20
3667.450041927367
 30
0.0
 11
-14494.10170746623
 21
3667.450041927367
 31
0.0
  0
LINE
  5
156BE
330
2
100
AcDbEntity
  8
VLB
100
AcDbLine
 10
-14488.50917816623
 20
3658.950041927367
 30
0.0
 11
-14478.69423676623
 21
3658.950041927367
 31
0.0
  0
LINE
  5
156BF
330
2
100
AcDbEntity
  8
VLB
100
AcDbLine
 10
-14493.41665646623
 20
3667.450041927367
 30
0.0
 11
-14488.50917816623
 21
3658.950041927367
 31
0.0
  0
LINE
  5
156C0
330
2
100
AcDbEntity
  8
VLB
100
AcDbLine
 10
-14488.50917816623
 20
3675.950041927367
 30
0.0
 11
-14493.41665646623
 21
3667.450041927367
 31
0.0
  0
LINE
  5
156C1
330
2
100
AcDbEntity
  8
SPS
100
AcDbLine
 10
-14483.60170746623
 20
3667.450041927367
 30
0.0
 11
-14483.60170746623
 21
3656.950041927367
 31
0.0
  0
LINE
  5
156C2
330
2
100
AcDbEntity
  8
VLB
100
AcDbLine
 10
-14478.69423676623
 20
3658.950041927367
 30
0.0
 11
-14473.78675846623
 21
3667.450041927367
 31
0.0
  0
LINE
  5
156C3
330
2
100
AcDbEntity
  8
SPS
100
AcDbLine
 10
-14483.60170746623
 20
3667.450041927367
 30
0.0
 11
-14473.10170746623
 21
3667.450041927367
 31
0.0
  0
LINE
  5
156C4
330
2
100
AcDbEntity
  8
SPS
100
AcDbLine
 10
-14483.60170746623
 20
3667.450041927367
 30
0.0
 11
-14483.60170746623
 21
3677.950041927367
 31
0.0
  0
LINE
  5
156C5
330
2
100
AcDbEntity
  8
VLB
100
AcDbLine
 10
-14473.78675846623
 20
3667.450041927367
 30
0.0
 11
-14478.69423676623
 21
3675.950041927367
 31
0.0
  0
LINE
  5
156C6
330
2
100
AcDbEntity
  8
VLS
100
AcDbLine
 10
-14477.3792796067
 20
3661.227614067835
 30
0.0
 11
-14463.24305605169
 21
3647.091390512821
 31
0.0
  0
LINE
  5
156C7
330
2
100
AcDbEntity
  8
VLS
100
AcDbLine
 10
-14489.82413532577
 20
4218.510311238743
 30
0.0
 11
-15034.6619767776
 21
3673.6724697869
 31
0.0
  0
LINE
  5
156C8
330
2
100
AcDbEntity
  8
VLS
100
AcDbLine
 10
-15034.6619767776
 20
4218.510311238741
 30
0.0
 11
-14489.82413532576
 21
3673.672469786899
 31
0.0
  0
LINE
  5
156CA
330
2
100
AcDbEntity
  8
VLS
100
AcDbLine
 10
-15047.10683249667
 20
3661.227614067836
 30
0.0
 11
-15061.24305605168
 21
3647.091390512821
 31
0.0
  0
LINE
  5
156CF
330
2
100
AcDbEntity
  8
SPS
100
AcDbLine
 10
-15101.24296468162
 20
3901.991390512821
 30
0.0
 11
-15101.24296468162
 21
3881.191390512821
 31
0.0
  0
LINE
  5
156D0
330
2
100
AcDbEntity
  8
SPS
100
AcDbLine
 10
-14423.24314742175
 20
3901.991390512821
 30
0.0
 11
-14423.24314742175
 21
3881.191390512821
 31
0.0
  0
LINE
  5
17946
330
2
100
AcDbEntity
  8
SPS
100
AcDbLine
 10
-15170.94835154196
 20
3538.920203671903
 30
0.0
 11
-15183.98754214797
 21
3538.920203671903
 31
0.0
  0
ARC
  5
17947
330
2
100
AcDbEntity
  8
VLB
100
AcDbCircle
 10
-15168.74305605169
 20
3538.920203671903
 30
0.0
 40
12.99999999999925
100
AcDbArc
 50
164.0576313944422
 51
195.9423686055577
  0
LINE
  5
17948
330
2
100
AcDbEntity
  8
VLB
100
AcDbLine
 10
-15179.74305605169
 20
3533.920203671905
 30
0.0
 11
-15179.74305605169
 21
3543.920203671901
 31
0.0
  0
LINE
  5
17949
330
2
100
AcDbEntity
  8
VLB
100
AcDbLine
 10
-15180.74305605168
 20
3543.920203671903
 30
0.0
 11
-15179.74305605169
 21
3543.920203671901
 31
0.0
  0
ARC
  5
1794A
330
2
100
AcDbEntity
  8
VLB
100
AcDbCircle
 10
-15168.7430560518
 20
3538.92020367193
 30
0.0
 40
12.9999999998802
100
AcDbArc
 50
157.3801350518553
 51
164.0576313944422
  0
LINE
  5
1794B
330
2
100
AcDbEntity
  8
VLB
100
AcDbLine
 10
-15180.74305605168
 20
3533.920203671903
 30
0.0
 11
-15179.74305605169
 21
3533.920203671905
 31
0.0
  0
ARC
  5
1794C
330
2
100
AcDbEntity
  8
VLB
100
AcDbCircle
 10
-15168.74305605156
 20
3538.920203671956
 30
0.0
 40
13.00000000013173
100
AcDbArc
 50
195.9423686055577
 51
202.6198649480785
  0
ARC
  5
1794D
330
2
100
AcDbEntity
  8
VLB
100
AcDbCircle
 10
-15170.98512126996
 20
3539.091390512821
 30
0.0
 40
12.99999999999925
100
AcDbArc
 50
247.380135051969
 51
292.6198649480308
  0
LINE
  5
1794E
330
2
100
AcDbEntity
  8
VLB
100
AcDbLine
 10
-15175.98512126997
 20
3527.091390512823
 30
0.0
 11
-15175.98512126996
 21
3528.091390512821
 31
0.0
  0
LINE
  5
1794F
330
2
100
AcDbEntity
  8
VLB
100
AcDbLine
 10
-15165.98512126996
 20
3527.091390512823
 30
0.0
 11
-15165.98512126996
 21
3528.091390512821
 31
0.0
  0
LINE
  5
17950
330
2
100
AcDbEntity
  8
SPS
100
AcDbLine
 10
-15170.98512126996
 20
3536.886095022547
 30
0.0
 11
-15170.98512126996
 21
3523.846904416537
 31
0.0
  0
ARC
  5
17951
330
2
100
AcDbEntity
  8
VLB
100
AcDbCircle
 10
-14353.50099083341
 20
4354.091390512822
 30
0.0
 40
12.99999999999925
100
AcDbArc
 50
67.3801350519691
 51
112.6198649480308
  0
LINE
  5
17952
330
2
100
AcDbEntity
  8
SPS
100
AcDbLine
 10
-14351.53776056141
 20
4353.26257735374
 30
0.0
 11
-14338.4985699554
 21
4353.26257735374
 31
0.0
  0
ARC
  5
17953
330
2
100
AcDbEntity
  8
VLB
100
AcDbCircle
 10
-14353.74305605169
 20
4353.26257735374
 30
0.0
 40
12.99999999999925
100
AcDbArc
 50
344.0576313944422
 51
15.94236860555777
  0
LINE
  5
17954
330
2
100
AcDbEntity
  8
VLB
100
AcDbLine
 10
-14342.74305605168
 20
4358.262577353738
 30
0.0
 11
-14342.74305605168
 21
4348.262577353742
 31
0.0
  0
LINE
  5
17955
330
2
100
AcDbEntity
  8
VLB
100
AcDbLine
 10
-14341.74305605169
 20
4348.262577353739
 30
0.0
 11
-14342.74305605168
 21
4348.262577353742
 31
0.0
  0
ARC
  5
17956
330
2
100
AcDbEntity
  8
VLB
100
AcDbCircle
 10
-14353.74305605157
 20
4353.262577353713
 30
0.0
 40
12.9999999998802
100
AcDbArc
 50
337.3801350518554
 51
344.0576313944422
  0
LINE
  5
17957
330
2
100
AcDbEntity
  8
VLB
100
AcDbLine
 10
-14348.5009908334
 20
4366.09139051282
 30
0.0
 11
-14348.50099083341
 21
4365.091390512822
 31
0.0
  0
LINE
  5
17958
330
2
100
AcDbEntity
  8
VLB
100
AcDbLine
 10
-14341.74305605169
 20
4358.26257735374
 30
0.0
 11
-14342.74305605168
 21
4358.262577353738
 31
0.0
  0
ARC
  5
17959
330
2
100
AcDbEntity
  8
VLB
100
AcDbCircle
 10
-14353.74305605181
 20
4353.262577353688
 30
0.0
 40
13.00000000013173
100
AcDbArc
 50
15.94236860555777
 51
22.6198649480785
  0
LINE
  5
1795A
330
2
100
AcDbEntity
  8
VLB
100
AcDbLine
 10
-14358.5009908334
 20
4366.09139051282
 30
0.0
 11
-14358.5009908334
 21
4365.091390512822
 31
0.0
  0
LINE
  5
1795B
330
2
100
AcDbEntity
  8
SPS
100
AcDbLine
 10
-14353.50099083341
 20
4356.296686003095
 30
0.0
 11
-14353.50099083341
 21
4369.335876609105
 31
0.0
  0
LINE
  5
1795C
330
2
100
AcDbEntity
  8
SPS
100
AcDbLine
 10
-14351.53776056141
 20
3538.920203671903
 30
0.0
 11
-14338.4985699554
 21
3538.920203671903
 31
0.0
  0
LINE
  5
1795D
330
2
100
AcDbEntity
  8
SPS
100
AcDbLine
 10
-14353.50099083341
 20
3536.886095022544
 30
0.0
 11
-14353.50099083341
 21
3523.846904416533
 31
0.0
  0
LINE
  5
1795E
330
2
100
AcDbEntity
  8
VLB
100
AcDbLine
 10
-14358.5009908334
 20
3527.091390512819
 30
0.0
 11
-14358.5009908334
 21
3528.091390512818
 31
0.0
  0
LINE
  5
1795F
330
2
100
AcDbEntity
  8
VLB
100
AcDbLine
 10
-14348.5009908334
 20
3527.091390512819
 30
0.0
 11
-14348.50099083341
 21
3528.091390512818
 31
0.0
  0
ARC
  5
17960
330
2
100
AcDbEntity
  8
VLB
100
AcDbCircle
 10
-14353.50099083341
 20
3539.091390512818
 30
0.0
 40
12.99999999999925
100
AcDbArc
 50
247.380135051969
 51
292.6198649480308
  0
ARC
  5
17961
330
2
100
AcDbEntity
  8
VLB
100
AcDbCircle
 10
-14353.74305605169
 20
3538.920203671903
 30
0.0
 40
12.99999999999925
100
AcDbArc
 50
344.0576313944422
 51
15.94236860555775
  0
LINE
  5
17962
330
2
100
AcDbEntity
  8
VLB
100
AcDbLine
 10
-14342.74305605168
 20
3533.920203671905
 30
0.0
 11
-14342.74305605168
 21
3543.920203671901
 31
0.0
  0
LINE
  5
17963
330
2
100
AcDbEntity
  8
VLB
100
AcDbLine
 10
-14341.74305605169
 20
3543.920203671903
 30
0.0
 11
-14342.74305605168
 21
3543.920203671901
 31
0.0
  0
ARC
  5
17964
330
2
100
AcDbEntity
  8
VLB
100
AcDbCircle
 10
-14353.74305605157
 20
3538.92020367193
 30
0.0
 40
12.9999999998802
100
AcDbArc
 50
15.94236860555775
 51
22.61986494814463
  0
LINE
  5
17965
330
2
100
AcDbEntity
  8
VLB
100
AcDbLine
 10
-14341.74305605169
 20
3533.920203671903
 30
0.0
 11
-14342.74305605168
 21
3533.920203671905
 31
0.0
  0
ARC
  5
17966
330
2
100
AcDbEntity
  8
VLB
100
AcDbCircle
 10
-14353.74305605181
 20
3538.920203671956
 30
0.0
 40
13.00000000013173
100
AcDbArc
 50
337.3801350519215
 51
344.0576313944422
  0
LINE
  5
17972
330
2
100
AcDbEntity
  8
VLB
100
AcDbLine
 10
-15126.74305605168
 20
3593.553171697176
 30
0.0
 11
-15126.74305605168
 21
3583.553171697179
 31
0.0
  0
LINE
  5
17974
330
2
100
AcDbEntity
  8
SPS
100
AcDbLine
 10
-14369.24305605169
 20
3961.591390512819
 30
0.0
 11
-14369.24305605169
 21
3930.591390512823
 31
0.0
  0
ARC
  5
17975
330
2
100
AcDbEntity
  8
VLB
100
AcDbCircle
 10
-14369.24305605169
 20
3946.091390512821
 30
0.0
 40
12.49999999999818
100
AcDbArc
 50
203.5781784781862
 51
336.4218215218136
  0
LINE
  5
17976
330
2
100
AcDbEntity
  8
SPS
100
AcDbLine
 10
-14394.74305605169
 20
3946.091390512821
 30
0.0
 11
-14343.74305605169
 21
3946.091390512821
 31
0.0
  0
LINE
  5
17977
330
2
100
AcDbEntity
  8
VLB
100
AcDbLine
 10
-14386.74305605169
 20
3951.091390512821
 30
0.0
 11
-14351.74305605169
 21
3951.091390512821
 31
0.0
  0
LINE
  5
17978
330
2
100
AcDbEntity
  8
VLB
100
AcDbLine
 10
-14386.74305605169
 20
3941.091390512821
 30
0.0
 11
-14351.74305605169
 21
3941.091390512821
 31
0.0
  0
ARC
  5
17979
330
2
100
AcDbEntity
  8
VLB
100
AcDbCircle
 10
-14369.24305605169
 20
3946.091390512821
 30
0.0
 40
12.49999999999818
100
AcDbArc
 50
23.57817847818628
 51
156.4218215218137
  0
LINE
  5
1797A
330
2
100
AcDbEntity
  8
SPS
100
AcDbLine
 10
-14386.74305605169
 20
3954.091390512821
 30
0.0
 11
-14386.74305605169
 21
3938.091390512822
 31
0.0
  0
ARC
  5
1797B
330
2
100
AcDbEntity
  8
VLB
100
AcDbCircle
 10
-14386.74305605169
 20
3946.091390512821
 30
0.0
 40
5.0
100
AcDbArc
 50
90.0
 51
270.0
  0
LINE
  5
1797C
330
2
100
AcDbEntity
  8
SPS
100
AcDbLine
 10
-14351.74305605169
 20
3954.091390512821
 30
0.0
 11
-14351.74305605169
 21
3938.091390512822
 31
0.0
  0
ARC
  5
1797D
330
2
100
AcDbEntity
  8
VLB
100
AcDbCircle
 10
-14351.74305605169
 20
3946.091390512821
 30
0.0
 40
5.0
100
AcDbArc
 50
270.0
 51
90.0
  0
ARC
  5
1797E
330
2
100
AcDbEntity
  8
VLB
100
AcDbCircle
 10
-15153.24305605169
 20
3946.091390512821
 30
0.0
 40
12.49999999999818
100
AcDbArc
 50
203.5781784781862
 51
336.4218215218136
  0
LINE
  5
1797F
330
2
100
AcDbEntity
  8
VLB
100
AcDbLine
 10
-15170.74305605169
 20
3951.091390512821
 30
0.0
 11
-15135.74305605169
 21
3951.091390512821
 31
0.0
  0
LINE
  5
17980
330
2
100
AcDbEntity
  8
VLB
100
AcDbLine
 10
-15170.74305605169
 20
3941.091390512821
 30
0.0
 11
-15135.74305605169
 21
3941.091390512821
 31
0.0
  0
ARC
  5
17981
330
2
100
AcDbEntity
  8
VLB
100
AcDbCircle
 10
-15153.24305605169
 20
3946.091390512821
 30
0.0
 40
12.49999999999818
100
AcDbArc
 50
23.57817847818628
 51
156.4218215218137
  0
LINE
  5
17982
330
2
100
AcDbEntity
  8
SPS
100
AcDbLine
 10
-15178.74305605169
 20
3946.091390512821
 30
0.0
 11
-15127.74305605169
 21
3946.091390512821
 31
0.0
  0
LINE
  5
17983
330
2
100
AcDbEntity
  8
SPS
100
AcDbLine
 10
-15153.24305605169
 20
3961.591390512819
 30
0.0
 11
-15153.24305605169
 21
3930.591390512823
 31
0.0
  0
LINE
  5
17984
330
2
100
AcDbEntity
  8
SPS
100
AcDbLine
 10
-15170.74305605169
 20
3954.091390512821
 30
0.0
 11
-15170.74305605169
 21
3938.091390512822
 31
0.0
  0
ARC
  5
17985
330
2
100
AcDbEntity
  8
VLB
100
AcDbCircle
 10
-15170.74305605169
 20
3946.091390512821
 30
0.0
 40
5.0
100
AcDbArc
 50
90.0
 51
270.0
  0
LINE
  5
17986
330
2
100
AcDbEntity
  8
SPS
100
AcDbLine
 10
-15135.74305605169
 20
3954.091390512821
 30
0.0
 11
-15135.74305605169
 21
3938.091390512822
 31
0.0
  0
ARC
  5
17987
330
2
100
AcDbEntity
  8
VLB
100
AcDbCircle
 10
-15135.74305605169
 20
3946.091390512821
 30
0.0
 40
5.0
100
AcDbArc
 50
270.0
 51
90.0
  0
TEXT
  5
17989
330
2
100
AcDbEntity
  8
VLB
100
AcDbText
 10
-14651.44045763513
 20
5816.851113222138
 30
0.0
 40
80.0
  1
FDA 31-35..-..
  7
ROMANS8
100
AcDbText
  0
LINE
  5
199F9
330
2
100
AcDbEntity
  8
SPS
100
AcDbLine
 10
-14365.96828116233
 20
4126.091390512825
 30
0.0
 11
-14324.94012593099
 21
4126.091390512825
 31
0.0
  0
LINE
  5
199FA
330
2
100
AcDbEntity
  8
SPS
100
AcDbLine
 10
-14365.96828116232
 20
3766.091390512824
 30
0.0
 11
-14324.94012593098
 21
3766.091390512825
 31
0.0
  0
LINE
  5
1B471
330
2
100
AcDbEntity
  8
VLB
100
AcDbLine
 10
-15101.24296468162
 20
4008.096929412821
 30
0.0
 11
-15107.74296468162
 21
4004.344160012822
 31
0.0
  0
LINE
  5
1B472
330
2
100
AcDbEntity
  8
VLB
100
AcDbLine
 10
-15094.74296468162
 20
4004.344160012822
 30
0.0
 11
-15101.24296468162
 21
4008.096929412821
 31
0.0
  0
LINE
  5
1B473
330
2
100
AcDbEntity
  8
SPS
100
AcDbLine
 10
-15101.24296468162
 20
4000.591390512822
 30
0.0
 11
-15109.74296468162
 21
4000.591390512822
 31
0.0
  0
LINE
  5
1B474
330
2
100
AcDbEntity
  8
VLB
100
AcDbLine
 10
-15107.74296468162
 20
3996.838621012822
 30
0.0
 11
-15101.24296468162
 21
3993.085851612821
 31
0.0
  0
LINE
  5
1B475
330
2
100
AcDbEntity
  8
SPS
100
AcDbLine
 10
-15101.24296468162
 20
4000.591390512822
 30
0.0
 11
-15101.24296468162
 21
3992.091390512822
 31
0.0
  0
LINE
  5
1B476
330
2
100
AcDbEntity
  8
VLB
100
AcDbLine
 10
-15101.24296468162
 20
3993.085851612821
 30
0.0
 11
-15094.74296468162
 21
3996.838621012822
 31
0.0
  0
LINE
  5
1B477
330
2
100
AcDbEntity
  8
SPS
100
AcDbLine
 10
-15101.24296468162
 20
4000.591390512822
 30
0.0
 11
-15092.74296468162
 21
4000.591390512822
 31
0.0
  0
LINE
  5
1B478
330
2
100
AcDbEntity
  8
SPS
100
AcDbLine
 10
-15101.24296468162
 20
4000.591390512822
 30
0.0
 11
-15101.24296468162
 21
4009.091390512821
 31
0.0
  0
LINE
  5
1B479
330
2
100
AcDbEntity
  8
VLB
100
AcDbLine
 10
-15107.74296468162
 20
4004.344160012822
 30
0.0
 11
-15107.74296468162
 21
3996.838621012822
 31
0.0
  0
LINE
  5
1B47A
330
2
100
AcDbEntity
  8
VLB
100
AcDbLine
 10
-15094.74296468162
 20
3996.838621012822
 30
0.0
 11
-15094.74296468162
 21
4004.344160012822
 31
0.0
  0
CIRCLE
  5
1B47B
330
2
100
AcDbEntity
  8
VLB
100
AcDbCircle
 10
-15101.24296468162
 20
4000.591390512822
 30
0.0
 40
6.5
  0
LINE
  5
1B47C
330
2
100
AcDbEntity
  8
VLB
100
AcDbLine
 10
-15101.24296468162
 20
3899.096929412822
 30
0.0
 11
-15107.74296468162
 21
3895.344160012821
 31
0.0
  0
LINE
  5
1B47D
330
2
100
AcDbEntity
  8
VLB
100
AcDbLine
 10
-15094.74296468162
 20
3895.344160012821
 30
0.0
 11
-15101.24296468162
 21
3899.096929412822
 31
0.0
  0
LINE
  5
1B47E
330
2
100
AcDbEntity
  8
SPS
100
AcDbLine
 10
-15101.24296468162
 20
3891.591390512822
 30
0.0
 11
-15109.74296468162
 21
3891.591390512822
 31
0.0
  0
LINE
  5
1B47F
330
2
100
AcDbEntity
  8
VLB
100
AcDbLine
 10
-15107.74296468162
 20
3887.838621012821
 30
0.0
 11
-15101.24296468162
 21
3884.085851612822
 31
0.0
  0
LINE
  5
1B480
330
2
100
AcDbEntity
  8
SPS
100
AcDbLine
 10
-15101.24296468162
 20
3891.591390512822
 30
0.0
 11
-15101.24296468162
 21
3883.091390512822
 31
0.0
  0
LINE
  5
1B481
330
2
100
AcDbEntity
  8
VLB
100
AcDbLine
 10
-15101.24296468162
 20
3884.085851612822
 30
0.0
 11
-15094.74296468162
 21
3887.838621012821
 31
0.0
  0
LINE
  5
1B482
330
2
100
AcDbEntity
  8
SPS
100
AcDbLine
 10
-15101.24296468162
 20
3891.591390512822
 30
0.0
 11
-15092.74296468162
 21
3891.591390512822
 31
0.0
  0
LINE
  5
1B483
330
2
100
AcDbEntity
  8
SPS
100
AcDbLine
 10
-15101.24296468162
 20
3891.591390512822
 30
0.0
 11
-15101.24296468162
 21
3900.091390512822
 31
0.0
  0
LINE
  5
1B484
330
2
100
AcDbEntity
  8
VLB
100
AcDbLine
 10
-15107.74296468162
 20
3895.344160012821
 30
0.0
 11
-15107.74296468162
 21
3887.838621012821
 31
0.0
  0
LINE
  5
1B485
330
2
100
AcDbEntity
  8
VLB
100
AcDbLine
 10
-15094.74296468162
 20
3887.838621012821
 30
0.0
 11
-15094.74296468162
 21
3895.344160012821
 31
0.0
  0
CIRCLE
  5
1B486
330
2
100
AcDbEntity
  8
VLB
100
AcDbCircle
 10
-15101.24296468162
 20
3891.591390512822
 30
0.0
 40
6.5
  0
LINE
  5
1B487
330
2
100
AcDbEntity
  8
VLB
100
AcDbLine
 10
-14423.24314742174
 20
4008.096929412821
 30
0.0
 11
-14429.74314742174
 21
4004.344160012822
 31
0.0
  0
LINE
  5
1B488
330
2
100
AcDbEntity
  8
VLB
100
AcDbLine
 10
-14416.74314742174
 20
4004.344160012822
 30
0.0
 11
-14423.24314742174
 21
4008.096929412821
 31
0.0
  0
LINE
  5
1B489
330
2
100
AcDbEntity
  8
SPS
100
AcDbLine
 10
-14423.24314742174
 20
4000.591390512822
 30
0.0
 11
-14431.74314742174
 21
4000.591390512822
 31
0.0
  0
LINE
  5
1B48A
330
2
100
AcDbEntity
  8
VLB
100
AcDbLine
 10
-14429.74314742174
 20
3996.838621012822
 30
0.0
 11
-14423.24314742174
 21
3993.085851612821
 31
0.0
  0
LINE
  5
1B48B
330
2
100
AcDbEntity
  8
SPS
100
AcDbLine
 10
-14423.24314742174
 20
4000.591390512822
 30
0.0
 11
-14423.24314742174
 21
3992.091390512822
 31
0.0
  0
LINE
  5
1B48C
330
2
100
AcDbEntity
  8
VLB
100
AcDbLine
 10
-14423.24314742174
 20
3993.085851612821
 30
0.0
 11
-14416.74314742174
 21
3996.838621012822
 31
0.0
  0
LINE
  5
1B48D
330
2
100
AcDbEntity
  8
SPS
100
AcDbLine
 10
-14423.24314742174
 20
4000.591390512822
 30
0.0
 11
-14414.74314742174
 21
4000.591390512822
 31
0.0
  0
LINE
  5
1B48E
330
2
100
AcDbEntity
  8
SPS
100
AcDbLine
 10
-14423.24314742174
 20
4000.591390512822
 30
0.0
 11
-14423.24314742174
 21
4009.091390512821
 31
0.0
  0
LINE
  5
1B48F
330
2
100
AcDbEntity
  8
VLB
100
AcDbLine
 10
-14429.74314742174
 20
4004.344160012822
 30
0.0
 11
-14429.74314742174
 21
3996.838621012822
 31
0.0
  0
LINE
  5
1B490
330
2
100
AcDbEntity
  8
VLB
100
AcDbLine
 10
-14416.74314742174
 20
3996.838621012822
 30
0.0
 11
-14416.74314742174
 21
4004.344160012822
 31
0.0
  0
CIRCLE
  5
1B491
330
2
100
AcDbEntity
  8
VLB
100
AcDbCircle
 10
-14423.24314742174
 20
4000.591390512822
 30
0.0
 40
6.5
  0
LINE
  5
1B492
330
2
100
AcDbEntity
  8
VLB
100
AcDbLine
 10
-14423.24314742174
 20
3899.096929412822
 30
0.0
 11
-14429.74314742174
 21
3895.344160012821
 31
0.0
  0
LINE
  5
1B493
330
2
100
AcDbEntity
  8
VLB
100
AcDbLine
 10
-14416.74314742174
 20
3895.344160012821
 30
0.0
 11
-14423.24314742174
 21
3899.096929412822
 31
0.0
  0
LINE
  5
1B494
330
2
100
AcDbEntity
  8
SPS
100
AcDbLine
 10
-14423.24314742174
 20
3891.591390512822
 30
0.0
 11
-14431.74314742174
 21
3891.591390512822
 31
0.0
  0
LINE
  5
1B495
330
2
100
AcDbEntity
  8
VLB
100
AcDbLine
 10
-14429.74314742174
 20
3887.838621012821
 30
0.0
 11
-14423.24314742174
 21
3884.085851612822
 31
0.0
  0
LINE
  5
1B496
330
2
100
AcDbEntity
  8
SPS
100
AcDbLine
 10
-14423.24314742174
 20
3891.591390512822
 30
0.0
 11
-14423.24314742174
 21
3883.091390512822
 31
0.0
  0
LINE
  5
1B497
330
2
100
AcDbEntity
  8
VLB
100
AcDbLine
 10
-14423.24314742174
 20
3884.085851612822
 30
0.0
 11
-14416.74314742174
 21
3887.838621012821
 31
0.0
  0
LINE
  5
1B498
330
2
100
AcDbEntity
  8
SPS
100
AcDbLine
 10
-14423.24314742174
 20
3891.591390512822
 30
0.0
 11
-14414.74314742174
 21
3891.591390512822
 31
0.0
  0
LINE
  5
1B499
330
2
100
AcDbEntity
  8
SPS
100
AcDbLine
 10
-14423.24314742174
 20
3891.591390512822
 30
0.0
 11
-14423.24314742174
 21
3900.091390512822
 31
0.0
  0
LINE
  5
1B49A
330
2
100
AcDbEntity
  8
VLB
100
AcDbLine
 10
-14429.74314742174
 20
3895.344160012821
 30
0.0
 11
-14429.74314742174
 21
3887.838621012821
 31
0.0
  0
LINE
  5
1B49B
330
2
100
AcDbEntity
  8
VLB
100
AcDbLine
 10
-14416.74314742174
 20
3887.838621012821
 30
0.0
 11
-14416.74314742174
 21
3895.344160012821
 31
0.0
  0
CIRCLE
  5
1B49C
330
2
100
AcDbEntity
  8
VLB
100
AcDbCircle
 10
-14423.24314742174
 20
3891.591390512822
 30
0.0
 40
6.5
  0
LINE
  5
1F4A3
330
2
100
AcDbEntity
  8
SPS
100
AcDbLine
 10
-14950.98904847259
 20
4645.368928655027
 30
0.0
 11
-14933.49706363078
 21
4645.368928655027
 31
0.0
  0
LWPOLYLINE
  5
1F4A4
330
2
100
AcDbEntity
  8
VLB
100
AcDbPolyline
 90
        6
 70
     1
 43
0.0
 10
-14945.99583280142
 20
4651.868928655026
 10
-14949.74860955115
 20
4645.368928655027
 10
-14945.99583280142
 20
4638.868928655027
 10
-14938.49027930195
 20
4638.868928655027
 10
-14934.73750255222
 20
4645.368928655027
 10
-14938.49027930195
 20
4651.868928655026
  0
CIRCLE
  5
1F4A5
330
2
100
AcDbEntity
  8
VLB
100
AcDbCircle
 10
-14942.24305605168
 20
4645.368928655027
 30
0.0
 40
6.5
  0
LINE
  5
1F4A6
330
2
100
AcDbEntity
  8
SPS
100
AcDbLine
 10
-14942.24305605168
 20
4654.114921075929
 30
0.0
 11
-14942.24305605168
 21
4636.622936234125
 31
0.0
  0
LINE
  5
1F4A7
330
2
100
AcDbEntity
  8
SPS
100
AcDbLine
 10
-14573.49706363078
 20
4645.368928655027
 30
0.0
 11
-14590.98904847259
 21
4645.368928655027
 31
0.0
  0
LWPOLYLINE
  5
1F4A8
330
2
100
AcDbEntity
  8
VLB
100
AcDbPolyline
 90
        6
 70
     1
 43
0.0
 10
-14578.49027930195
 20
4651.868928655026
 10
-14574.73750255222
 20
4645.368928655027
 10
-14578.49027930195
 20
4638.868928655027
 10
-14585.99583280142
 20
4638.868928655027
 10
-14589.74860955115
 20
4645.368928655027
 10
-14585.99583280142
 20
4651.868928655026
  0
CIRCLE
  5
1F4A9
330
2
100
AcDbEntity
  8
VLB
100
AcDbCircle
 10
-14582.24305605169
 20
4645.368928655027
 30
0.0
 40
6.5
  0
LINE
  5
1F4AA
330
2
100
AcDbEntity
  8
SPS
100
AcDbLine
 10
-14582.24305605169
 20
4654.114921075929
 30
0.0
 11
-14582.24305605169
 21
4636.622936234125
 31
0.0
  0
LINE
  5
1F4AB
330
2
100
AcDbEntity
  8
SPS
100
AcDbLine
 10
-13761.90544498935
 20
4645.368928655027
 30
0.0
 11
-13744.41346014754
 21
4645.368928655027
 31
0.0
  0
LWPOLYLINE
  5
1F4AC
330
2
100
AcDbEntity
  8
VLB
100
AcDbPolyline
 90
        6
 70
     1
 43
0.0
 10
-13756.91222931818
 20
4651.868928655026
 10
-13760.66500606791
 20
4645.368928655027
 10
-13756.91222931818
 20
4638.868928655027
 10
-13749.40667581871
 20
4638.868928655027
 10
-13745.65389906898
 20
4645.368928655027
 10
-13749.40667581871
 20
4651.868928655026
  0
CIRCLE
  5
1F4AD
330
2
100
AcDbEntity
  8
VLB
100
AcDbCircle
 10
-13753.15945256845
 20
4645.368928655027
 30
0.0
 40
6.5
  0
LINE
  5
1F4AE
330
2
100
AcDbEntity
  8
SPS
100
AcDbLine
 10
-13753.15945256845
 20
4654.114921075929
 30
0.0
 11
-13753.15945256845
 21
4636.622936234125
 31
0.0
  0
LINE
  5
1F4AF
330
2
100
AcDbEntity
  8
SPS
100
AcDbLine
 10
-13384.41346014755
 20
4645.368928655027
 30
0.0
 11
-13401.90544498935
 21
4645.368928655027
 31
0.0
  0
LWPOLYLINE
  5
1F4B0
330
2
100
AcDbEntity
  8
VLB
100
AcDbPolyline
 90
        6
 70
     1
 43
0.0
 10
-13389.40667581871
 20
4651.868928655026
 10
-13385.65389906898
 20
4645.368928655027
 10
-13389.40667581871
 20
4638.868928655027
 10
-13396.91222931818
 20
4638.868928655027
 10
-13400.66500606791
 20
4645.368928655027
 10
-13396.91222931818
 20
4651.868928655026
  0
CIRCLE
  5
1F4B1
330
2
100
AcDbEntity
  8
VLB
100
AcDbCircle
 10
-13393.15945256845
 20
4645.368928655027
 30
0.0
 40
6.5
  0
LINE
  5
1F4B2
330
2
100
AcDbEntity
  8
SPS
100
AcDbLine
 10
-13393.15945256845
 20
4654.114921075929
 30
0.0
 11
-13393.15945256845
 21
4636.622936234125
 31
0.0
  0
LINE
  5
1F94D
330
2
100
AcDbEntity
  8
VLB
100
AcDbLine
 10
-15178.24305605169
 20
4630.368928655027
 30
0.0
 11
-15178.24305605169
 21
5371.368928655027
 31
0.0
  0
LINE
  5
1F94F
330
2
100
AcDbEntity
  8
VLB
100
AcDbLine
 10
-14345.24305605168
 20
4630.368928655027
 30
0.0
 11
-14345.24305605168
 21
5371.368928655029
 31
0.0
  0
LINE
  5
1F950
330
2
100
AcDbEntity
  8
VLB
100
AcDbLine
 10
-13156.15945256844
 20
4630.368928655027
 30
0.0
 11
-13156.15945256844
 21
5371.368928655029
 31
0.0
  0
LINE
  5
1FB9F
330
2
100
AcDbEntity
  8
VLB
100
AcDbLine
 10
-13871.15945256845
 20
5371.368928655027
 30
0.0
 11
-13871.15945256845
 21
5399.368928655027
 31
0.0
  0
LINE
  5
1FBA0
330
2
100
AcDbEntity
  8
VLB
100
AcDbLine
 10
-15060.24305605168
 20
5371.368928655027
 30
0.0
 11
-15060.24305605168
 21
5399.368928655027
 31
0.0
  0
LINE
  5
1FBA6
330
2
100
AcDbEntity
  8
VLB
100
AcDbLine
 10
-15061.24305605168
 20
5399.368928655027
 30
0.0
 11
-15061.24305605168
 21
5414.368928655027
 31
0.0
  0
LINE
  5
1FBA7
330
2
100
AcDbEntity
  8
VLB
100
AcDbLine
 10
-14463.24305605169
 20
5414.368928655027
 30
0.0
 11
-14463.24305605169
 21
5399.368928655027
 31
0.0
  0
LINE
  5
1FBA8
330
2
100
AcDbEntity
  8
VLB
100
AcDbLine
 10
-14463.24305605169
 20
5371.368928655029
 30
0.0
 11
-14463.24305605169
 21
5399.368928655027
 31
0.0
  0
LINE
  5
1FBAA
330
2
100
AcDbEntity
  8
VLB
100
AcDbLine
 10
-13872.15945256845
 20
5399.368928655027
 30
0.0
 11
-13872.15945256845
 21
5414.368928655027
 31
0.0
  0
LINE
  5
1FBAB
330
2
100
AcDbEntity
  8
VLB
100
AcDbLine
 10
-13274.15945256845
 20
5414.368928655027
 30
0.0
 11
-13274.15945256845
 21
5399.368928655027
 31
0.0
  0
LINE
  5
1FBAC
330
2
100
AcDbEntity
  8
VLB
100
AcDbLine
 10
-13274.15945256845
 20
5371.368928655029
 30
0.0
 11
-13274.15945256845
 21
5399.368928655027
 31
0.0
  0
VIEWPORT
  5
51E
330
7
100
AcDbEntity
 67
     1
  8
0
100
AcDbViewport
 10
222.9989965408922
 20
359.8485954918802
 30
0.0
 40
1687.01080625753
 41
963.3348615119601
 68
     1
 69
     1
1001
ACAD
1000
MVIEW
1002
{
1070
    16
1010
0.0
1020
0.0
1030
0.0
1010
0.0
1020
0.0
1030
1.0
1040
0.0
1040
963.3348615119601
1040
222.9989965408922
1040
359.8485954918802
1040
50.0
1040
0.0
1040
0.0
1070
     0
1070
   100
1070
     1
1070
     1
1070
     0
1070
     0
1070
     0
1070
     0
1040
0.0
1040
0.0
1040
0.0
1040
1.0
1040
1.0
1040
10.0
1040
10.0
1070
     0
1002
{
1002
}
1002
}
  0
ENDSEC
  0
SECTION
  2
OBJECTS
  0
DICTIONARY
  5
1A
330
0
100
AcDbDictionary
  3
ACAD_GROUP
350
18
  3
ACAD_LAYOUT
350
EDC7
  3
ACAD_MLINESTYLE
350
19
  3
ACAD_PLOTSETTINGS
350
EDC8
  3
ACAD_PLOTSTYLENAME
350
EDC5
  3
ACDBHEADERROUNDTRIPXREC
350
1FE46
  3
ACDBVARIABLEDICTIONARY
350
EDE7
  3
CONTENTDICTIONARY
350
81A
  0
DICTIONARY
  5
1FE67
330
2
100
AcDbDictionary
280
     1
  3
ACAD_LAYOUTSELFREF
360
1FE68
  0
DICTIONARY
  5
1FE69
330
7
100
AcDbDictionary
280
     1
  3
ACAD_LAYOUTSELFREF
360
1FE6A
  0
DICTIONARY
  5
18
102
{ACAD_REACTORS
330
1A
102
}
330
1A
100
AcDbDictionary
  3
*A1
350
63B1
  3
*A10
350
1C0C
  3
*A100
350
6291
  3
*A1000
350
4833
  3
*A1001
350
4975
  3
*A1002
350
6313
  3
*A1003
350
6382
  3
*A1004
350
637D
  3
*A1005
350
4978
  3
*A1006
350
62D4
  3
*A1007
350
63B5
  3
*A1008
350
49D4
  3
*A1009
350
495D
  3
*A101
350
1BA2
  3
*A1010
350
63E6
  3
*A1011
350
625C
  3
*A1012
350
1C61
  3
*A1013
350
4858
  3
*A1014
350
63B3
  3
*A1015
350
1BE4
  3
*A1016
350
49BE
  3
*A1017
350
493F
  3
*A1018
350
4913
  3
*A1019
350
6245
  3
*A102
350
1B3B
  3
*A1020
350
48C6
  3
*A1021
350
62D8
  3
*A1022
350
37C1
  3
*A1023
350
1BEF
  3
*A1024
350
49F1
  3
*A1025
350
37BC
  3
*A1026
350
489D
  3
*A1027
350
630A
  3
*A1028
350
1B7B
  3
*A1029
350
1457
  3
*A103
350
1B7E
  3
*A1030
350
1B19
  3
*A1031
350
6282
  3
*A1032
350
4898
  3
*A1033
350
6333
  3
*A1034
350
1C28
  3
*A1035
350
63BA
  3
*A1036
350
6398
  3
*A104
350
49AD
  3
*A105
350
48A5
  3
*A106
350
62C1
  3
*A107
350
6292
  3
*A108
350
492A
  3
*A109
350
1B60
  3
*A11
350
1AEF
  3
*A110
350
489B
  3
*A111
350
63FF
  3
*A112
350
4817
  3
*A113
350
4871
  3
*A114
350
49E2
  3
*A115
350
1465
  3
*A116
350
629F
  3
*A117
350
1BEE
  3
*A118
350
63EC
  3
*A119
350
1BEB
  3
*A12
350
4815
  3
*A120
350
4998
  3
*A121
350
480B
  3
*A122
350
625A
  3
*A123
350
493A
  3
*A124
350
1B42
  3
*A125
350
63B0
  3
*A126
350
48AF
  3
*A127
350
49D6
  3
*A128
350
62A3
  3
*A129
350
634B
  3
*A13
350
62A8
  3
*A130
350
490A
  3
*A131
350
4943
  3
*A132
350
6281
  3
*A133
350
62DC
  3
*A134
350
48B0
  3
*A135
350
379D
  3
*A136
350
6385
  3
*A137
350
1AFC
  3
*A138
350
6271
  3
*A139
350
4959
  3
*A14
350
6239
  3
*A140
350
49D9
  3
*A141
350
1C32
  3
*A142
350
491E
  3
*A143
350
1AE9
  3
*A144
350
1B2C
  3
*A145
350
1C36
  3
*A146
350
49C2
  3
*A147
350
6396
  3
*A148
350
6425
  3
*A149
350
49ED
  3
*A15
350
626D
  3
*A150
350
4843
  3
*A151
350
4A11
  3
*A152
350
494A
  3
*A153
350
62FF
  3
*A154
350
6352
  3
*A155
350
1BAE
  3
*A156
350
1AEB
  3
*A157
350
63CF
  3
*A158
350
622C
  3
*A159
350
1C1A
  3
*A16
350
63DE
  3
*A160
350
1B6C
  3
*A161
350
1469
  3
*A162
350
1B6F
  3
*A163
350
1BB5
  3
*A164
350
62DF
  3
*A165
350
6294
  3
*A166
350
62CD
  3
*A167
350
4A15
  3
*A168
350
628C
  3
*A169
350
49B3
  3
*A17
350
62AC
  3
*A170
350
1AFA
  3
*A171
350
48A9
  3
*A172
350
496A
  3
*A173
350
4891
  3
*A174
350
4A06
  3
*A175
350
37B3
  3
*A176
350
483D
  3
*A177
350
37B2
  3
*A178
350
1AD8
  3
*A179
350
37AB
  3
*A18
350
63E2
  3
*A180
350
495C
  3
*A181
350
62C4
  3
*A182
350
4834
  3
*A183
350
6365
  3
*A184
350
488D
  3
*A185
350
635F
  3
*A186
350
48B1
  3
*A187
350
1B1D
  3
*A188
350
1C5A
  3
*A189
350
63B2
  3
*A19
350
496B
  3
*A190
350
1B82
  3
*A191
350
48A2
  3
*A192
350
1B0A
  3
*A193
350
6229
  3
*A194
350
1C59
  3
*A195
350
1B88
  3
*A196
350
625B
  3
*A197
350
1B04
  3
*A198
350
487A
  3
*A199
350
1B2B
  3
*A2
350
6232
  3
*A20
350
487E
  3
*A200
350
63A2
  3
*A201
350
4844
  3
*A202
350
1B35
  3
*A203
350
6402
  3
*A204
350
63D6
  3
*A205
350
62A2
  3
*A206
350
6350
  3
*A207
350
6400
  3
*A208
350
6399
  3
*A209
350
1ACE
  3
*A21
350
1BA6
  3
*A210
350
1BB4
  3
*A211
350
1C03
  3
*A212
350
4995
  3
*A213
350
1C45
  3
*A214
350
49FC
  3
*A215
350
6283
  3
*A216
350
6284
  3
*A217
350
6341
  3
*A218
350
1BA8
  3
*A219
350
63F0
  3
*A22
350
482D
  3
*A220
350
49D8
  3
*A221
350
4990
  3
*A222
350
629B
  3
*A223
350
1C0E
  3
*A224
350
1460
  3
*A225
350
6381
  3
*A226
350
37B9
  3
*A227
350
1C51
  3
*A228
350
1AD1
  3
*A229
350
1AF3
  3
*A23
350
4886
  3
*A230
350
635B
  3
*A231
350
1BBD
  3
*A232
350
1B16
  3
*A233
350
1B62
  3
*A234
350
494D
  3
*A235
350
1AFD
  3
*A236
350
37C2
  3
*A237
350
49D5
  3
*A238
350
6298
  3
*A239
350
4A0F
  3
*A24
350
1BC2
  3
*A240
350
6392
  3
*A241
350
1BED
  3
*A242
350
1BF5
  3
*A243
350
62E9
  3
*A244
350
48B3
  3
*A245
350
62C8
  3
*A246
350
638B
  3
*A247
350
48E3
  3
*A248
350
4929
  3
*A249
350
4909
  3
*A25
350
1BFC
  3
*A250
350
6316
  3
*A251
350
37BF
  3
*A252
350
1BBB
  3
*A253
350
6304
  3
*A254
350
1BE1
  3
*A255
350
49F0
  3
*A256
350
1AEC
  3
*A257
350
498C
  3
*A258
350
1B0C
  3
*A259
350
1BB6
  3
*A26
350
487F
  3
*A260
350
48CC
  3
*A261
350
1B2F
  3
*A262
350
488F
  3
*A263
350
625E
  3
*A264
350
4989
  3
*A265
350
4899
  3
*A266
350
1BBF
  3
*A267
350
63C9
  3
*A268
350
6375
  3
*A269
350
4911
  3
*A27
350
4968
  3
*A270
350
635C
  3
*A271
350
487D
  3
*A272
350
493C
  3
*A273
350
1B5D
  3
*A274
350
63BB
  3
*A275
350
637A
  3
*A276
350
6261
  3
*A277
350
49CF
  3
*A278
350
6262
  3
*A279
350
1C02
  3
*A28
350
49C3
  3
*A280
350
6394
  3
*A281
350
1BB1
  3
*A282
350
48E8
  3
*A283
350
62A6
  3
*A284
350
37A3
  3
*A285
350
49AA
  3
*A286
350
63BC
  3
*A287
350
62AF
  3
*A288
350
48E1
  3
*A289
350
6311
  3
*A29
350
49EF
  3
*A290
350
6369
  3
*A291
350
1C53
  3
*A292
350
499A
  3
*A293
350
4874
  3
*A294
350
1C39
  3
*A295
350
4896
  3
*A296
350
481F
  3
*A297
350
1459
  3
*A298
350
49F8
  3
*A299
350
4974
  3
*A3
350
4895
  3
*A30
350
6322
  3
*A300
350
497E
  3
*A301
350
1AD0
  3
*A302
350
639E
  3
*A303
350
6220
  3
*A304
350
63E1
  3
*A305
350
6300
  3
*A306
350
48B4
  3
*A307
350
4A17
  3
*A308
350
1B92
  3
*A309
350
1B2A
  3
*A31
350
4991
  3
*A310
350
48D2
  3
*A311
350
1C15
  3
*A312
350
1C58
  3
*A313
350
49BD
  3
*A314
350
1B8B
  3
*A315
350
1C1B
  3
*A316
350
634C
  3
*A317
350
495E
  3
*A318
350
1C20
  3
*A319
350
1C3A
  3
*A32
350
48C8
  3
*A320
350
49E8
  3
*A321
350
37A6
  3
*A322
350
635A
  3
*A323
350
1BD4
  3
*A324
350
62A0
  3
*A325
350
4997
  3
*A326
350
6317
  3
*A327
350
1C47
  3
*A328
350
1C21
  3
*A329
350
1AEE
  3
*A33
350
62B2
  3
*A330
350
6248
  3
*A331
350
1AED
  3
*A332
350
497F
  3
*A333
350
1C48
  3
*A334
350
1BD3
  3
*A335
350
48BB
  3
*A336
350
1C37
  3
*A337
350
1C44
  3
*A338
350
633C
  3
*A339
350
49F6
  3
*A34
350
62CA
  3
*A340
350
496F
  3
*A341
350
62AA
  3
*A342
350
49D3
  3
*A343
350
4955
  3
*A344
350
1BE9
  3
*A345
350
49C7
  3
*A346
350
48AC
  3
*A347
350
6327
  3
*A348
350
4973
  3
*A349
350
1B4A
  3
*A35
350
1B3E
  3
*A350
350
1C08
  3
*A351
350
62F1
  3
*A352
350
1BBA
  3
*A353
350
484C
  3
*A354
350
1462
  3
*A355
350
1B13
  3
*A356
350
62C2
  3
*A357
350
1C46
  3
*A358
350
63AC
  3
*A359
350
62F5
  3
*A36
350
633A
  3
*A360
350
628F
  3
*A361
350
1BF9
  3
*A362
350
1466
  3
*A363
350
1B69
  3
*A364
350
48F2
  3
*A365
350
49DD
  3
*A366
350
4894
  3
*A367
350
1B75
  3
*A368
350
48E6
  3
*A369
350
1C2B
  3
*A37
350
1C27
  3
*A370
350
629C
  3
*A371
350
4937
  3
*A372
350
1458
  3
*A373
350
1BC4
  3
*A374
350
63D2
  3
*A375
350
1C4D
  3
*A376
350
48F5
  3
*A377
350
4813
  3
*A378
350
63B6
  3
*A379
350
49EB
  3
*A38
350
486C
  3
*A380
350
37C0
  3
*A381
350
1BCC
  3
*A382
350
4A03
  3
*A383
350
6242
  3
*A384
350
48B7
  3
*A385
350
497D
  3
*A386
350
4912
  3
*A387
350
48FF
  3
*A388
350
630E
  3
*A389
350
6370
  3
*A39
350
1C56
  3
*A390
350
622D
  3
*A391
350
4988
  3
*A392
350
62BE
  3
*A393
350
6241
  3
*A394
350
48FC
  3
*A395
350
4958
  3
*A396
350
63EA
  3
*A397
350
1BDF
  3
*A398
350
6307
  3
*A399
350
4824
  3
*A4
350
63DD
  3
*A40
350
489E
  3
*A400
350
49C9
  3
*A401
350
499B
  3
*A402
350
37A5
  3
*A403
350
6236
  3
*A404
350
6264
  3
*A405
350
1B70
  3
*A406
350
37B5
  3
*A407
350
63C2
  3
*A408
350
4952
  3
*A409
350
49B1
  3
*A41
350
48BD
  3
*A410
350
49A5
  3
*A411
350
1BD1
  3
*A412
350
1B99
  3
*A413
350
4993
  3
*A414
350
4948
  3
*A415
350
63FC
  3
*A416
350
62F9
  3
*A417
350
4981
  3
*A418
350
4962
  3
*A419
350
4931
  3
*A42
350
1B22
  3
*A420
350
4932
  3
*A421
350
1C23
  3
*A422
350
1BF6
  3
*A423
350
63A8
  3
*A424
350
63A5
  3
*A425
350
379B
  3
*A426
350
62A5
  3
*A427
350
6227
  3
*A428
350
1B79
  3
*A429
350
4880
  3
*A43
350
1AE0
  3
*A430
350
1B8C
  3
*A431
350
49AB
  3
*A432
350
1B72
  3
*A433
350
621A
  3
*A434
350
1BDE
  3
*A435
350
48EC
  3
*A436
350
638A
  3
*A437
350
4890
  3
*A438
350
6309
  3
*A439
350
1BFB
  3
*A44
350
4864
  3
*A440
350
497B
  3
*A441
350
62D3
  3
*A442
350
6233
  3
*A443
350
1BB7
  3
*A444
350
1C01
  3
*A445
350
62AE
  3
*A446
350
48E0
  3
*A447
350
633E
  3
*A448
350
63D9
  3
*A449
350
6424
  3
*A45
350
492D
  3
*A450
350
48B5
  3
*A451
350
4964
  3
*A452
350
4884
  3
*A453
350
1B41
  3
*A454
350
1BB2
  3
*A455
350
49CB
  3
*A456
350
145B
  3
*A457
350
1AE5
  3
*A458
350
4950
  3
*A459
350
1B5F
  3
*A46
350
6308
  3
*A460
350
4845
  3
*A461
350
1C05
  3
*A462
350
1C4E
  3
*A463
350
49B9
  3
*A464
350
63E3
  3
*A465
350
1BF3
  3
*A466
350
1C35
  3
*A467
350
4946
  3
*A468
350
62C3
  3
*A469
350
6219
  3
*A47
350
63F7
  3
*A470
350
631E
  3
*A471
350
49AE
  3
*A472
350
4A01
  3
*A473
350
4847
  3
*A474
350
37A9
  3
*A475
350
6395
  3
*A476
350
1B24
  3
*A477
350
49EA
  3
*A478
350
497C
  3
*A479
350
63B7
  3
*A48
350
63CA
  3
*A480
350
1B12
  3
*A481
350
37B7
  3
*A482
350
63D1
  3
*A483
350
1C22
  3
*A484
350
638C
  3
*A485
350
6362
  3
*A486
350
62C0
  3
*A487
350
1C3F
  3
*A488
350
1B07
  3
*A489
350
636B
  3
*A49
350
1BD5
  3
*A490
350
1B51
  3
*A491
350
4967
  3
*A492
350
482C
  3
*A493
350
634D
  3
*A494
350
49E4
  3
*A495
350
49BC
  3
*A496
350
49A9
  3
*A497
350
6359
  3
*A498
350
4926
  3
*A499
350
1ACF
  3
*A5
350
1B7F
  3
*A50
350
4A18
  3
*A500
350
1B09
  3
*A501
350
634E
  3
*A502
350
4872
  3
*A503
350
6404
  3
*A504
350
1B6A
  3
*A505
350
63D4
  3
*A506
350
63FA
  3
*A507
350
63F8
  3
*A508
350
1B8D
  3
*A509
350
6357
  3
*A51
350
49B2
  3
*A510
350
1B03
  3
*A511
350
6224
  3
*A512
350
1C24
  3
*A513
350
1C07
  3
*A514
350
6417
  3
*A515
350
1B53
  3
*A516
350
63FE
  3
*A517
350
486F
  3
*A518
350
1BBE
  3
*A519
350
62ED
  3
*A52
350
1BC0
  3
*A520
350
62B9
  3
*A521
350
49E6
  3
*A522
350
632B
  3
*A523
350
6406
  3
*A524
350
6240
  3
*A525
350
482E
  3
*A526
350
48E4
  3
*A527
350
1B98
  3
*A528
350
4811
  3
*A529
350
1C18
  3
*A53
350
37AD
  3
*A530
350
623F
  3
*A531
350
49D2
  3
*A532
350
4903
  3
*A533
350
63CB
  3
*A534
350
1BD8
  3
*A535
350
6393
  3
*A536
350
6383
  3
*A537
350
63E5
  3
*A538
350
639D
  3
*A539
350
6277
  3
*A54
350
1BD6
  3
*A540
350
1BB8
  3
*A541
350
489F
  3
*A542
350
49CA
  3
*A543
350
1B58
  3
*A544
350
62EE
  3
*A545
350
63E7
  3
*A546
350
48D3
  3
*A547
350
4905
  3
*A548
350
6415
  3
*A549
350
49CE
  3
*A55
350
1C1C
  3
*A550
350
48DC
  3
*A551
350
379A
  3
*A552
350
49FA
  3
*A553
350
37AC
  3
*A554
350
49A6
  3
*A555
350
636F
  3
*A556
350
1B7D
  3
*A557
350
4882
  3
*A558
350
637C
  3
*A559
350
4957
  3
*A56
350
1B52
  3
*A560
350
484D
  3
*A561
350
49B7
  3
*A562
350
49BA
  3
*A563
350
1BCD
  3
*A564
350
6223
  3
*A565
350
4A08
  3
*A566
350
1BEC
  3
*A567
350
488B
  3
*A568
350
1ACD
  3
*A569
350
4999
  3
*A57
350
48DA
  3
*A570
350
629A
  3
*A571
350
1B45
  3
*A572
350
6222
  3
*A573
350
6218
  3
*A574
350
4915
  3
*A575
350
491A
  3
*A576
350
48FE
  3
*A577
350
1C29
  3
*A578
350
1BF8
  3
*A579
350
624F
  3
*A58
350
1B1A
  3
*A580
350
1AF2
  3
*A581
350
48B2
  3
*A582
350
37AE
  3
*A583
350
63D7
  3
*A584
350
6216
  3
*A585
350
1B37
  3
*A586
350
4986
  3
*A587
350
1B54
  3
*A588
350
4821
  3
*A589
350
37A1
  3
*A59
350
1B80
  3
*A590
350
6378
  3
*A591
350
1B34
  3
*A592
350
1B8E
  3
*A593
350
1B9F
  3
*A594
350
63D3
  3
*A595
350
1B49
  3
*A596
350
1B9D
  3
*A597
350
4893
  3
*A598
350
63BF
  3
*A599
350
6364
  3
*A6
350
62E0
  3
*A60
350
6348
  3
*A600
350
623D
  3
*A601
350
627C
  3
*A602
350
4839
  3
*A603
350
1B36
  3
*A604
350
62A9
  3
*A605
350
494C
  3
*A606
350
1454
  3
*A607
350
62BF
  3
*A608
350
4830
  3
*A609
350
63C7
  3
*A61
350
1B28
  3
*A610
350
4944
  3
*A611
350
6263
  3
*A612
350
1B65
  3
*A613
350
1BD7
  3
*A614
350
49FF
  3
*A615
350
49F3
  3
*A616
350
62F3
  3
*A617
350
1AF6
  3
*A618
350
1C0D
  3
*A619
350
480C
  3
*A62
350
484E
  3
*A620
350
49E5
  3
*A621
350
4825
  3
*A622
350
1C10
  3
*A623
350
1BDC
  3
*A624
350
37B4
  3
*A625
350
1B57
  3
*A626
350
4A09
  3
*A627
350
4970
  3
*A628
350
1C3E
  3
*A629
350
1C4F
  3
*A63
350
1B87
  3
*A630
350
62FB
  3
*A631
350
627E
  3
*A632
350
6237
  3
*A633
350
1C1F
  3
*A634
350
6320
  3
*A635
350
631F
  3
*A636
350
379C
  3
*A637
350
1B46
  3
*A638
350
37A0
  3
*A639
350
1C04
  3
*A64
350
1BE5
  3
*A640
350
63AB
  3
*A641
350
49C5
  3
*A642
350
1B6B
  3
*A643
350
495F
  3
*A644
350
1AFB
  3
*A645
350
1ADC
  3
*A646
350
1B97
  3
*A647
350
624B
  3
*A648
350
4A19
  3
*A649
350
1B85
  3
*A65
350
1ADE
  3
*A650
350
4818
  3
*A651
350
63A6
  3
*A652
350
4910
  3
*A653
350
6389
  3
*A654
350
145C
  3
*A655
350
1B44
  3
*A656
350
490E
  3
*A657
350
1C40
  3
*A658
350
1C33
  3
*A659
350
1C0F
  3
*A66
350
1B23
  3
*A660
350
635D
  3
*A661
350
48CD
  3
*A662
350
6358
  3
*A663
350
1C2C
  3
*A664
350
49BF
  3
*A665
350
1BC3
  3
*A666
350
4838
  3
*A667
350
1B17
  3
*A668
350
1B71
  3
*A669
350
145D
  3
*A67
350
62E7
  3
*A670
350
4820
  3
*A671
350
638E
  3
*A672
350
1C31
  3
*A673
350
6416
  3
*A674
350
62D6
  3
*A675
350
640E
  3
*A676
350
1B5A
  3
*A677
350
631B
  3
*A678
350
48F7
  3
*A679
350
1B40
  3
*A68
350
1B66
  3
*A680
350
1C2E
  3
*A681
350
4885
  3
*A682
350
1B1C
  3
*A683
350
62D5
  3
*A684
350
6344
  3
*A685
350
486A
  3
*A686
350
1B3F
  3
*A687
350
628B
  3
*A688
350
494E
  3
*A689
350
6312
  3
*A69
350
49A8
  3
*A690
350
48C7
  3
*A691
350
1BAC
  3
*A692
350
493B
  3
*A693
350
4A13
  3
*A694
350
62A1
  3
*A695
350
1B11
  3
*A696
350
633F
  3
*A697
350
1464
  3
*A698
350
48EE
  3
*A699
350
4877
  3
*A7
350
6407
  3
*A70
350
1BD2
  3
*A700
350
49D0
  3
*A701
350
1B61
  3
*A702
350
63B8
  3
*A703
350
48DE
  3
*A704
350
62D9
  3
*A705
350
6310
  3
*A706
350
492F
  3
*A707
350
145F
  3
*A708
350
63AA
  3
*A709
350
48E2
  3
*A71
350
48CA
  3
*A710
350
48A1
  3
*A711
350
499F
  3
*A712
350
6388
  3
*A713
350
4860
  3
*A714
350
1BF1
  3
*A715
350
1468
  3
*A716
350
62B6
  3
*A717
350
4828
  3
*A718
350
4938
  3
*A719
350
4940
  3
*A72
350
1BFD
  3
*A720
350
48D8
  3
*A721
350
63F1
  3
*A722
350
48ED
  3
*A723
350
1B15
  3
*A724
350
62BD
  3
*A725
350
1C2F
  3
*A726
350
1B7C
  3
*A727
350
3798
  3
*A728
350
1AE3
  3
*A729
350
636C
  3
*A73
350
37B1
  3
*A730
350
4889
  3
*A731
350
63C4
  3
*A732
350
1B33
  3
*A733
350
629E
  3
*A734
350
623C
  3
*A735
350
484B
  3
*A736
350
1B76
  3
*A737
350
1BA1
  3
*A738
350
1B63
  3
*A739
350
63DB
  3
*A74
350
4816
  3
*A740
350
4851
  3
*A741
350
62E2
  3
*A742
350
1AE4
  3
*A743
350
628D
  3
*A744
350
641E
  3
*A745
350
639B
  3
*A746
350
6259
  3
*A747
350
62BC
  3
*A748
350
4985
  3
*A749
350
481C
  3
*A75
350
63B4
  3
*A750
350
495A
  3
*A751
350
48F3
  3
*A752
350
622E
  3
*A753
350
1B90
  3
*A754
350
4A0A
  3
*A755
350
632A
  3
*A756
350
1C06
  3
*A757
350
62EB
  3
*A758
350
1B21
  3
*A759
350
1BA4
  3
*A76
350
640F
  3
*A760
350
62FA
  3
*A761
350
6366
  3
*A762
350
1C0B
  3
*A763
350
49A3
  3
*A764
350
1B0F
  3
*A765
350
1ADB
  3
*A766
350
494F
  3
*A767
350
6235
  3
*A768
350
48FD
  3
*A769
350
1B9B
  3
*A77
350
4906
  3
*A770
350
6380
  3
*A771
350
49A4
  3
*A772
350
486D
  3
*A773
350
482A
  3
*A774
350
4835
  3
*A775
350
1C11
  3
*A776
350
483B
  3
*A777
350
4965
  3
*A778
350
4904
  3
*A779
350
1AEA
  3
*A78
350
1C0A
  3
*A780
350
1AD3
  3
*A781
350
6296
  3
*A782
350
48CF
  3
*A783
350
6257
  3
*A784
350
1ACB
  3
*A785
350
1B05
  3
*A786
350
48B6
  3
*A787
350
498E
  3
*A788
350
4876
  3
*A789
350
62FC
  3
*A79
350
48C0
  3
*A790
350
484F
  3
*A791
350
4976
  3
*A792
350
1BA0
  3
*A793
350
63A0
  3
*A794
350
1BA9
  3
*A795
350
48A6
  3
*A796
350
6411
  3
*A797
350
6374
  3
*A798
350
1C55
  3
*A799
350
1B81
  3
*A8
350
498B
  3
*A80
350
627A
  3
*A800
350
1B29
  3
*A801
350
48FB
  3
*A802
350
63A7
  3
*A803
350
4854
  3
*A804
350
1AFE
  3
*A805
350
6265
  3
*A806
350
37C3
  3
*A807
350
480D
  3
*A808
350
49C6
  3
*A809
350
6254
  3
*A81
350
1C5F
  3
*A810
350
1BC5
  3
*A811
350
1455
  3
*A812
350
48CE
  3
*A813
350
6345
  3
*A814
350
6287
  3
*A815
350
63F3
  3
*A816
350
63E0
  3
*A817
350
37A2
  3
*A818
350
1B32
  3
*A819
350
6367
  3
*A82
350
62E4
  3
*A820
350
494B
  3
*A821
350
1C49
  3
*A822
350
1B30
  3
*A823
350
49DF
  3
*A824
350
629D
  3
*A825
350
6419
  3
*A826
350
49F7
  3
*A827
350
641C
  3
*A828
350
6355
  3
*A829
350
63C0
  3
*A83
350
63CC
  3
*A830
350
62DB
  3
*A831
350
4826
  3
*A832
350
6305
  3
*A833
350
6293
  3
*A834
350
1AE7
  3
*A835
350
6426
  3
*A836
350
6410
  3
*A837
350
1B4E
  3
*A838
350
1C16
  3
*A839
350
48D7
  3
*A84
350
1C26
  3
*A840
350
1BE7
  3
*A841
350
6376
  3
*A842
350
49F9
  3
*A843
350
37B8
  3
*A844
350
1AF9
  3
*A845
350
4994
  3
*A846
350
1BA7
  3
*A847
350
1B67
  3
*A848
350
37AF
  3
*A849
350
4941
  3
*A85
350
624A
  3
*A850
350
1B31
  3
*A851
350
6336
  3
*A852
350
1B4D
  3
*A853
350
1AF8
  3
*A854
350
63DF
  3
*A855
350
63D8
  3
*A856
350
6251
  3
*A857
350
482F
  3
*A858
350
488E
  3
*A859
350
1BC6
  3
*A86
350
1C2A
  3
*A860
350
1B96
  3
*A861
350
49A7
  3
*A862
350
489A
  3
*A863
350
6246
  3
*A864
350
496D
  3
*A865
350
62DA
  3
*A866
350
499E
  3
*A867
350
640D
  3
*A868
350
1BAF
  3
*A869
350
6349
  3
*A87
350
48A7
  3
*A870
350
1C30
  3
*A871
350
1B2D
  3
*A872
350
49D1
  3
*A873
350
4969
  3
*A874
350
48EA
  3
*A875
350
493E
  3
*A876
350
49F2
  3
*A877
350
62E8
  3
*A878
350
6225
  3
*A879
350
62D7
  3
*A88
350
62F0
  3
*A880
350
1B01
  3
*A881
350
1C38
  3
*A882
350
4939
  3
*A883
350
623E
  3
*A884
350
48DB
  3
*A885
350
63A4
  3
*A886
350
49AF
  3
*A887
350
623A
  3
*A888
350
6403
  3
*A889
350
62B3
  3
*A89
350
4987
  3
*A890
350
1B9C
  3
*A891
350
1AF1
  3
*A892
350
6250
  3
*A893
350
6372
  3
*A894
350
4963
  3
*A895
350
4832
  3
*A896
350
6351
  3
*A897
350
6243
  3
*A898
350
48EF
  3
*A899
350
62D0
  3
*A9
350
1AE6
  3
*A90
350
6409
  3
*A900
350
48D5
  3
*A901
350
6422
  3
*A902
350
63FD
  3
*A903
350
628A
  3
*A904
350
4A00
  3
*A905
350
6258
  3
*A906
350
1BC8
  3
*A907
350
491D
  3
*A908
350
37BA
  3
*A909
350
1BE6
  3
*A91
350
4934
  3
*A910
350
4875
  3
*A911
350
4831
  3
*A912
350
630B
  3
*A913
350
6353
  3
*A914
350
62A7
  3
*A915
350
1B0D
  3
*A916
350
1B39
  3
*A917
350
1AD5
  3
*A918
350
489C
  3
*A919
350
1AF7
  3
*A92
350
623B
  3
*A920
350
1B4C
  3
*A921
350
627F
  3
*A922
350
6252
  3
*A923
350
48C3
  3
*A924
350
1BFF
  3
*A925
350
63D0
  3
*A926
350
621E
  3
*A927
350
6371
  3
*A928
350
49CC
  3
*A929
350
63A1
  3
*A93
350
62AB
  3
*A930
350
481A
  3
*A931
350
1BDB
  3
*A932
350
1B6D
  3
*A933
350
63F2
  3
*A934
350
4855
  3
*A935
350
1ADD
  3
*A936
350
1C12
  3
*A937
350
1C57
  3
*A938
350
484A
  3
*A939
350
4908
  3
*A94
350
6231
  3
*A940
350
4836
  3
*A941
350
4856
  3
*A942
350
48CB
  3
*A943
350
483E
  3
*A944
350
4809
  3
*A945
350
1BD9
  3
*A946
350
62E5
  3
*A947
350
63F5
  3
*A948
350
1AD6
  3
*A949
350
6420
  3
*A95
350
499D
  3
*A950
350
62B4
  3
*A951
350
49DA
  3
*A952
350
63BE
  3
*A953
350
1C5B
  3
*A954
350
6315
  3
*A955
350
4892
  3
*A956
350
630C
  3
*A957
350
4901
  3
*A958
350
1C60
  3
*A959
350
6413
  3
*A96
350
63C6
  3
*A960
350
1BA5
  3
*A961
350
4829
  3
*A962
350
48A3
  3
*A963
350
62EF
  3
*A964
350
6377
  3
*A965
350
4857
  3
*A966
350
4945
  3
*A967
350
1B94
  3
*A968
350
49B5
  3
*A969
350
1BFE
  3
*A97
350
63EF
  3
*A970
350
1BF0
  3
*A971
350
6405
  3
*A972
350
1C1D
  3
*A973
350
1BCF
  3
*A974
350
48C9
  3
*A975
350
1B6E
  3
*A976
350
6279
  3
*A977
350
63DC
  3
*A978
350
4842
  3
*A979
350
4A02
  3
*A98
350
1BEA
  3
*A980
350
1C5D
  3
*A981
350
631D
  3
*A982
350
1C25
  3
*A983
350
1B77
  3
*A984
350
49E3
  3
*A985
350
6337
  3
*A986
350
1B50
  3
*A987
350
48F8
  3
*A988
350
4A04
  3
*A989
350
636A
  3
*A99
350
6346
  3
*A990
350
6347
  3
*A991
350
4A0C
  3
*A992
350
640C
  3
*A993
350
49C4
  3
*A994
350
4887
  3
*A995
350
62B0
  3
*A996
350
48FA
  3
*A997
350
49F5
  3
*A998
350
6302
  3
*A999
350
62F7
  0
DICTIONARY
  5
EDC7
102
{ACAD_REACTORS
330
1A
102
}
330
1A
100
AcDbDictionary
  0
DICTIONARY
  5
19
102
{ACAD_REACTORS
330
1A
102
}
330
1A
100
AcDbDictionary
  3
STANDARD
350
1D
  0
DICTIONARY
  5
EDC8
102
{ACAD_REACTORS
330
1A
102
}
330
1A
100
AcDbDictionary
  0
ACDBDICTIONARYWDFLT
  5
EDC5
102
{ACAD_REACTORS
330
1A
102
}
330
1A
100
AcDbDictionary
281
     1
  3
Normal
350
EDC6
100
AcDbDictionaryWithDefault
340
EDC6
  0
DICTIONARY
  5
1FE46
102
{ACAD_REACTORS
330
1A
102
}
330
1A
100
AcDbDictionary
  3
CEPSNTYPE
350
1FE50
  3
DIMSTYLEDATA
350
1FE54
  3
FINGERPRINTGUID
350
1FE51
  3
HYPERLINKBASE
350
1FE49
  3
INSUNITS
350
1FE4F
  3
LAYOUTDICT
350
1FE4B
  3
LWETCUNION
350
1FE4E
  3
PLOTSETDICT
350
1FE4C
  3
PLOTSTYLNAMDICT
350
1FE4D
  3
PSVPSCALE
350
1FE53
  3
PUCSBASE
350
1FE57
  3
PUCSORGBACK
350
1FE5D
  3
PUCSORGBOTTOM
350
1FE59
  3
PUCSORGFRONT
350
1FE5C
  3
PUCSORGLEFT
350
1FE5A
  3
PUCSORGRIGHT
350
1FE5B
  3
PUCSORGTOP
350
1FE58
  3
PUCSORTHOREF
350
1FE55
  3
PUCSORTHOVIEW
350
1FE56
  3
STYLESHEET
350
1FE4A
  3
TSTACKALIGN
350
1FE47
  3
TSTACKSIZE
350
1FE48
  3
UCSBASE
350
1FE60
  3
UCSORGBACK
350
1FE66
  3
UCSORGBOTTOM
350
1FE62
  3
UCSORGFRONT
350
1FE65
  3
UCSORGLEFT
350
1FE63
  3
UCSORGRIGHT
350
1FE64
  3
UCSORGTOP
350
1FE61
  3
UCSORTHOREF
350
1FE5E
  3
UCSORTHOVIEW
350
1FE5F
  3
VERSIONGUID
350
1FE52
  0
DICTIONARY
  5
EDE7
102
{ACAD_REACTORS
330
1A
102
}
330
1A
100
AcDbDictionary
  3
DIMASSOC
350
EDE8
  0
DICTIONARY
  5
81A
102
{ACAD_REACTORS
330
1A
102
}
330
1A
100
AcDbDictionary
  0
XRECORD
  5
1FE68
102
{ACAD_REACTORS
330
1FE67
102
}
330
1FE67
100
AcDbXrecord
340
2
  0
XRECORD
  5
1FE6A
102
{ACAD_REACTORS
330
1FE69
102
}
330
1FE69
100
AcDbXrecord
340
7
  0
GROUP
  5
63B1
102
{ACAD_REACTORS
330
18
102
}
330
18
100
AcDbGroup
300

 70
     3
 71
     0
  0
GROUP
  5
1C0C
102
{ACAD_REACTORS
330
18
102
}
330
18
100
AcDbGroup
300

 70
     3
 71
     0
  0
GROUP
  5
6291
102
{ACAD_REACTORS
330
18
102
}
330
18
100
AcDbGroup
300

 70
     3
 71
     0
  0
GROUP
  5
4833
102
{ACAD_REACTORS
330
18
102
}
330
18
100
AcDbGroup
300

 70
     3
 71
     0
  0
GROUP
  5
4975
102
{ACAD_REACTORS
330
18
102
}
330
18
100
AcDbGroup
300

 70
     3
 71
     0
  0
GROUP
  5
6313
102
{ACAD_REACTORS
330
18
102
}
330
18
100
AcDbGroup
300

 70
     3
 71
     0
  0
GROUP
  5
6382
102
{ACAD_REACTORS
330
18
102
}
330
18
100
AcDbGroup
300

 70
     3
 71
     0
  0
GROUP
  5
637D
102
{ACAD_REACTORS
330
18
102
}
330
18
100
AcDbGroup
300

 70
     3
 71
     0
  0
GROUP
  5
4978
102
{ACAD_REACTORS
330
18
102
}
330
18
100
AcDbGroup
300

 70
     3
 71
     0
  0
GROUP
  5
62D4
102
{ACAD_REACTORS
330
18
102
}
330
18
100
AcDbGroup
300

 70
     3
 71
     1
  0
GROUP
  5
63B5
102
{ACAD_REACTORS
330
18
102
}
330
18
100
AcDbGroup
300

 70
     3
 71
     0
  0
GROUP
  5
49D4
102
{ACAD_REACTORS
330
18
102
}
330
18
100
AcDbGroup
300

 70
     3
 71
     0
  0
GROUP
  5
495D
102
{ACAD_REACTORS
330
18
102
}
330
18
100
AcDbGroup
300

 70
     3
 71
     0
  0
GROUP
  5
1BA2
102
{ACAD_REACTORS
330
18
102
}
330
18
100
AcDbGroup
300

 70
     3
 71
     0
  0
GROUP
  5
63E6
102
{ACAD_REACTORS
330
18
102
}
330
18
100
AcDbGroup
300

 70
     3
 71
     0
  0
GROUP
  5
625C
102
{ACAD_REACTORS
330
18
102
}
330
18
100
AcDbGroup
300

 70
     3
 71
     0
  0
GROUP
  5
1C61
102
{ACAD_REACTORS
330
18
102
}
330
18
100
AcDbGroup
300

 70
     3
 71
     0
  0
GROUP
  5
4858
102
{ACAD_REACTORS
330
18
102
}
330
18
100
AcDbGroup
300

 70
     3
 71
     0
  0
GROUP
  5
63B3
102
{ACAD_REACTORS
330
18
102
}
330
18
100
AcDbGroup
300

 70
     3
 71
     0
  0
GROUP
  5
1BE4
102
{ACAD_REACTORS
330
18
102
}
330
18
100
AcDbGroup
300

 70
     3
 71
     0
  0
GROUP
  5
49BE
102
{ACAD_REACTORS
330
18
102
}
330
18
100
AcDbGroup
300

 70
     3
 71
     0
  0
GROUP
  5
493F
102
{ACAD_REACTORS
330
18
102
}
330
18
100
AcDbGroup
300

 70
     3
 71
     0
  0
GROUP
  5
4913
102
{ACAD_REACTORS
330
18
102
}
330
18
100
AcDbGroup
300

 70
     3
 71
     0
  0
GROUP
  5
6245
102
{ACAD_REACTORS
330
18
102
}
330
18
100
AcDbGroup
300

 70
     3
 71
     0
  0
GROUP
  5
1B3B
102
{ACAD_REACTORS
330
18
102
}
330
18
100
AcDbGroup
300

 70
     3
 71
     0
  0
GROUP
  5
48C6
102
{ACAD_REACTORS
330
18
102
}
330
18
100
AcDbGroup
300

 70
     3
 71
     1
  0
GROUP
  5
62D8
102
{ACAD_REACTORS
330
18
102
}
330
18
100
AcDbGroup
300

 70
     3
 71
     0
  0
GROUP
  5
37C1
102
{ACAD_REACTORS
330
18
102
}
330
18
100
AcDbGroup
300

 70
     3
 71
     0
  0
GROUP
  5
1BEF
102
{ACAD_REACTORS
330
18
102
}
330
18
100
AcDbGroup
300

 70
     3
 71
     0
  0
GROUP
  5
49F1
102
{ACAD_REACTORS
330
18
102
}
330
18
100
AcDbGroup
300

 70
     3
 71
     0
  0
GROUP
  5
37BC
102
{ACAD_REACTORS
330
18
102
}
330
18
100
AcDbGroup
300

 70
     3
 71
     0
  0
GROUP
  5
489D
102
{ACAD_REACTORS
330
18
102
}
330
18
100
AcDbGroup
300

 70
     3
 71
     0
  0
GROUP
  5
630A
102
{ACAD_REACTORS
330
18
102
}
330
18
100
AcDbGroup
300

 70
     3
 71
     0
  0
GROUP
  5
1B7B
102
{ACAD_REACTORS
330
18
102
}
330
18
100
AcDbGroup
300

 70
     3
 71
     0
  0
GROUP
  5
1457
102
{ACAD_REACTORS
330
18
102
}
330
18
100
AcDbGroup
300

 70
     3
 71
     0
  0
GROUP
  5
1B7E
102
{ACAD_REACTORS
330
18
102
}
330
18
100
AcDbGroup
300

 70
     3
 71
     0
  0
GROUP
  5
1B19
102
{ACAD_REACTORS
330
18
102
}
330
18
100
AcDbGroup
300

 70
     3
 71
     0
  0
GROUP
  5
6282
102
{ACAD_REACTORS
330
18
102
}
330
18
100
AcDbGroup
300

 70
     3
 71
     0
  0
GROUP
  5
4898
102
{ACAD_REACTORS
330
18
102
}
330
18
100
AcDbGroup
300

 70
     3
 71
     0
  0
GROUP
  5
6333
102
{ACAD_REACTORS
330
18
102
}
330
18
100
AcDbGroup
300

 70
     3
 71
     0
  0
GROUP
  5
1C28
102
{ACAD_REACTORS
330
18
102
}
330
18
100
AcDbGroup
300

 70
     3
 71
     0
  0
GROUP
  5
63BA
102
{ACAD_REACTORS
330
18
102
}
330
18
100
AcDbGroup
300

 70
     3
 71
     0
  0
GROUP
  5
6398
102
{ACAD_REACTORS
330
18
102
}
330
18
100
AcDbGroup
300

 70
     3
 71
     0
  0
GROUP
  5
49AD
102
{ACAD_REACTORS
330
18
102
}
330
18
100
AcDbGroup
300

 70
     3
 71
     0
  0
GROUP
  5
48A5
102
{ACAD_REACTORS
330
18
102
}
330
18
100
AcDbGroup
300

 70
     3
 71
     0
  0
GROUP
  5
62C1
102
{ACAD_REACTORS
330
18
102
}
330
18
100
AcDbGroup
300

 70
     3
 71
     0
  0
GROUP
  5
6292
102
{ACAD_REACTORS
330
18
102
}
330
18
100
AcDbGroup
300

 70
     3
 71
     0
  0
GROUP
  5
492A
102
{ACAD_REACTORS
330
18
102
}
330
18
100
AcDbGroup
300

 70
     3
 71
     0
  0
GROUP
  5
1B60
102
{ACAD_REACTORS
330
18
102
}
330
18
100
AcDbGroup
300

 70
     3
 71
     0
  0
GROUP
  5
1AEF
102
{ACAD_REACTORS
330
18
102
}
330
18
100
AcDbGroup
300

 70
     3
 71
     0
  0
GROUP
  5
489B
102
{ACAD_REACTORS
330
18
102
}
330
18
100
AcDbGroup
300

 70
     3
 71
     0
  0
GROUP
  5
63FF
102
{ACAD_REACTORS
330
18
102
}
330
18
100
AcDbGroup
300

 70
     3
 71
     0
  0
GROUP
  5
4817
102
{ACAD_REACTORS
330
18
102
}
330
18
100
AcDbGroup
300

 70
     3
 71
     0
  0
GROUP
  5
4871
102
{ACAD_REACTORS
330
18
102
}
330
18
100
AcDbGroup
300

 70
     3
 71
     0
  0
GROUP
  5
49E2
102
{ACAD_REACTORS
330
18
102
}
330
18
100
AcDbGroup
300

 70
     3
 71
     0
  0
GROUP
  5
1465
102
{ACAD_REACTORS
330
18
102
}
330
18
100
AcDbGroup
300

 70
     3
 71
     0
  0
GROUP
  5
629F
102
{ACAD_REACTORS
330
18
102
}
330
18
100
AcDbGroup
300

 70
     3
 71
     0
  0
GROUP
  5
1BEE
102
{ACAD_REACTORS
330
18
102
}
330
18
100
AcDbGroup
300

 70
     3
 71
     0
  0
GROUP
  5
63EC
102
{ACAD_REACTORS
330
18
102
}
330
18
100
AcDbGroup
300

 70
     3
 71
     0
  0
GROUP
  5
1BEB
102
{ACAD_REACTORS
330
18
102
}
330
18
100
AcDbGroup
300

 70
     3
 71
     0
  0
GROUP
  5
4815
102
{ACAD_REACTORS
330
18
102
}
330
18
100
AcDbGroup
300

 70
     3
 71
     0
  0
GROUP
  5
4998
102
{ACAD_REACTORS
330
18
102
}
330
18
100
AcDbGroup
300

 70
     3
 71
     0
  0
GROUP
  5
480B
102
{ACAD_REACTORS
330
18
102
}
330
18
100
AcDbGroup
300

 70
     3
 71
     0
  0
GROUP
  5
625A
102
{ACAD_REACTORS
330
18
102
}
330
18
100
AcDbGroup
300

 70
     3
 71
     0
  0
GROUP
  5
493A
102
{ACAD_REACTORS
330
18
102
}
330
18
100
AcDbGroup
300

 70
     3
 71
     0
  0
GROUP
  5
1B42
102
{ACAD_REACTORS
330
18
102
}
330
18
100
AcDbGroup
300

 70
     3
 71
     0
  0
GROUP
  5
63B0
102
{ACAD_REACTORS
330
18
102
}
330
18
100
AcDbGroup
300

 70
     3
 71
     0
  0
GROUP
  5
48AF
102
{ACAD_REACTORS
330
18
102
}
330
18
100
AcDbGroup
300

 70
     3
 71
     0
  0
GROUP
  5
49D6
102
{ACAD_REACTORS
330
18
102
}
330
18
100
AcDbGroup
300

 70
     3
 71
     0
  0
GROUP
  5
62A3
102
{ACAD_REACTORS
330
18
102
}
330
18
100
AcDbGroup
300

 70
     3
 71
     0
  0
GROUP
  5
634B
102
{ACAD_REACTORS
330
18
102
}
330
18
100
AcDbGroup
300

 70
     3
 71
     0
  0
GROUP
  5
62A8
102
{ACAD_REACTORS
330
18
102
}
330
18
100
AcDbGroup
300

 70
     3
 71
     0
  0
GROUP
  5
490A
102
{ACAD_REACTORS
330
18
102
}
330
18
100
AcDbGroup
300

 70
     3
 71
     0
  0
GROUP
  5
4943
102
{ACAD_REACTORS
330
18
102
}
330
18
100
AcDbGroup
300

 70
     3
 71
     0
  0
GROUP
  5
6281
102
{ACAD_REACTORS
330
18
102
}
330
18
100
AcDbGroup
300

 70
     3
 71
     0
  0
GROUP
  5
62DC
102
{ACAD_REACTORS
330
18
102
}
330
18
100
AcDbGroup
300

 70
     3
 71
     0
  0
GROUP
  5
48B0
102
{ACAD_REACTORS
330
18
102
}
330
18
100
AcDbGroup
300

 70
     3
 71
     0
  0
GROUP
  5
379D
102
{ACAD_REACTORS
330
18
102
}
330
18
100
AcDbGroup
300

 70
     3
 71
     0
  0
GROUP
  5
6385
102
{ACAD_REACTORS
330
18
102
}
330
18
100
AcDbGroup
300

 70
     3
 71
     0
  0
GROUP
  5
1AFC
102
{ACAD_REACTORS
330
18
102
}
330
18
100
AcDbGroup
300

 70
     3
 71
     0
  0
GROUP
  5
6271
102
{ACAD_REACTORS
330
18
102
}
330
18
100
AcDbGroup
300

 70
     3
 71
     0
  0
GROUP
  5
4959
102
{ACAD_REACTORS
330
18
102
}
330
18
100
AcDbGroup
300

 70
     3
 71
     0
  0
GROUP
  5
6239
102
{ACAD_REACTORS
330
18
102
}
330
18
100
AcDbGroup
300

 70
     3
 71
     0
  0
GROUP
  5
49D9
102
{ACAD_REACTORS
330
18
102
}
330
18
100
AcDbGroup
300

 70
     3
 71
     0
  0
GROUP
  5
1C32
102
{ACAD_REACTORS
330
18
102
}
330
18
100
AcDbGroup
300

 70
     3
 71
     0
  0
GROUP
  5
491E
102
{ACAD_REACTORS
330
18
102
}
330
18
100
AcDbGroup
300

 70
     3
 71
     0
  0
GROUP
  5
1AE9
102
{ACAD_REACTORS
330
18
102
}
330
18
100
AcDbGroup
300

 70
     3
 71
     0
  0
GROUP
  5
1B2C
102
{ACAD_REACTORS
330
18
102
}
330
18
100
AcDbGroup
300

 70
     3
 71
     0
  0
GROUP
  5
1C36
102
{ACAD_REACTORS
330
18
102
}
330
18
100
AcDbGroup
300

 70
     3
 71
     0
  0
GROUP
  5
49C2
102
{ACAD_REACTORS
330
18
102
}
330
18
100
AcDbGroup
300

 70
     3
 71
     0
  0
GROUP
  5
6396
102
{ACAD_REACTORS
330
18
102
}
330
18
100
AcDbGroup
300

 70
     3
 71
     0
  0
GROUP
  5
6425
102
{ACAD_REACTORS
330
18
102
}
330
18
100
AcDbGroup
300

 70
     3
 71
     0
  0
GROUP
  5
49ED
102
{ACAD_REACTORS
330
18
102
}
330
18
100
AcDbGroup
300

 70
     3
 71
     0
  0
GROUP
  5
626D
102
{ACAD_REACTORS
330
18
102
}
330
18
100
AcDbGroup
300

 70
     3
 71
     0
  0
GROUP
  5
4843
102
{ACAD_REACTORS
330
18
102
}
330
18
100
AcDbGroup
300

 70
     3
 71
     0
  0
GROUP
  5
4A11
102
{ACAD_REACTORS
330
18
102
}
330
18
100
AcDbGroup
300

 70
     3
 71
     0
  0
GROUP
  5
494A
102
{ACAD_REACTORS
330
18
102
}
330
18
100
AcDbGroup
300

 70
     3
 71
     0
  0
GROUP
  5
62FF
102
{ACAD_REACTORS
330
18
102
}
330
18
100
AcDbGroup
300

 70
     3
 71
     0
  0
GROUP
  5
6352
102
{ACAD_REACTORS
330
18
102
}
330
18
100
AcDbGroup
300

 70
     3
 71
     0
  0
GROUP
  5
1BAE
102
{ACAD_REACTORS
330
18
102
}
330
18
100
AcDbGroup
300

 70
     3
 71
     0
  0
GROUP
  5
1AEB
102
{ACAD_REACTORS
330
18
102
}
330
18
100
AcDbGroup
300

 70
     3
 71
     0
  0
GROUP
  5
63CF
102
{ACAD_REACTORS
330
18
102
}
330
18
100
AcDbGroup
300

 70
     3
 71
     0
  0
GROUP
  5
622C
102
{ACAD_REACTORS
330
18
102
}
330
18
100
AcDbGroup
300

 70
     3
 71
     0
  0
GROUP
  5
1C1A
102
{ACAD_REACTORS
330
18
102
}
330
18
100
AcDbGroup
300

 70
     3
 71
     0
  0
GROUP
  5
63DE
102
{ACAD_REACTORS
330
18
102
}
330
18
100
AcDbGroup
300

 70
     3
 71
     0
  0
GROUP
  5
1B6C
102
{ACAD_REACTORS
330
18
102
}
330
18
100
AcDbGroup
300

 70
     3
 71
     0
  0
GROUP
  5
1469
102
{ACAD_REACTORS
330
18
102
}
330
18
100
AcDbGroup
300

 70
     3
 71
     0
  0
GROUP
  5
1B6F
102
{ACAD_REACTORS
330
18
102
}
330
18
100
AcDbGroup
300

 70
     3
 71
     0
  0
GROUP
  5
1BB5
102
{ACAD_REACTORS
330
18
102
}
330
18
100
AcDbGroup
300

 70
     3
 71
     0
  0
GROUP
  5
62DF
102
{ACAD_REACTORS
330
18
102
}
330
18
100
AcDbGroup
300

 70
     3
 71
     0
  0
GROUP
  5
6294
102
{ACAD_REACTORS
330
18
102
}
330
18
100
AcDbGroup
300

 70
     3
 71
     0
  0
GROUP
  5
62CD
102
{ACAD_REACTORS
330
18
102
}
330
18
100
AcDbGroup
300

 70
     3
 71
     0
  0
GROUP
  5
4A15
102
{ACAD_REACTORS
330
18
102
}
330
18
100
AcDbGroup
300

 70
     3
 71
     0
  0
GROUP
  5
628C
102
{ACAD_REACTORS
330
18
102
}
330
18
100
AcDbGroup
300

 70
     3
 71
     0
  0
GROUP
  5
49B3
102
{ACAD_REACTORS
330
18
102
}
330
18
100
AcDbGroup
300

 70
     3
 71
     0
  0
GROUP
  5
62AC
102
{ACAD_REACTORS
330
18
102
}
330
18
100
AcDbGroup
300

 70
     3
 71
     0
  0
GROUP
  5
1AFA
102
{ACAD_REACTORS
330
18
102
}
330
18
100
AcDbGroup
300

 70
     3
 71
     0
  0
GROUP
  5
48A9
102
{ACAD_REACTORS
330
18
102
}
330
18
100
AcDbGroup
300

 70
     3
 71
     0
  0
GROUP
  5
496A
102
{ACAD_REACTORS
330
18
102
}
330
18
100
AcDbGroup
300

 70
     3
 71
     0
  0
GROUP
  5
4891
102
{ACAD_REACTORS
330
18
102
}
330
18
100
AcDbGroup
300

 70
     3
 71
     0
  0
GROUP
  5
4A06
102
{ACAD_REACTORS
330
18
102
}
330
18
100
AcDbGroup
300

 70
     3
 71
     0
  0
GROUP
  5
37B3
102
{ACAD_REACTORS
330
18
102
}
330
18
100
AcDbGroup
300

 70
     3
 71
     0
  0
GROUP
  5
483D
102
{ACAD_REACTORS
330
18
102
}
330
18
100
AcDbGroup
300

 70
     3
 71
     0
  0
GROUP
  5
37B2
102
{ACAD_REACTORS
330
18
102
}
330
18
100
AcDbGroup
300

 70
     3
 71
     0
  0
GROUP
  5
1AD8
102
{ACAD_REACTORS
330
18
102
}
330
18
100
AcDbGroup
300

 70
     3
 71
     0
  0
GROUP
  5
37AB
102
{ACAD_REACTORS
330
18
102
}
330
18
100
AcDbGroup
300

 70
     3
 71
     0
  0
GROUP
  5
63E2
102
{ACAD_REACTORS
330
18
102
}
330
18
100
AcDbGroup
300

 70
     3
 71
     0
  0
GROUP
  5
495C
102
{ACAD_REACTORS
330
18
102
}
330
18
100
AcDbGroup
300

 70
     3
 71
     0
  0
GROUP
  5
62C4
102
{ACAD_REACTORS
330
18
102
}
330
18
100
AcDbGroup
300

 70
     3
 71
     0
  0
GROUP
  5
4834
102
{ACAD_REACTORS
330
18
102
}
330
18
100
AcDbGroup
300

 70
     3
 71
     0
  0
GROUP
  5
6365
102
{ACAD_REACTORS
330
18
102
}
330
18
100
AcDbGroup
300

 70
     3
 71
     0
  0
GROUP
  5
488D
102
{ACAD_REACTORS
330
18
102
}
330
18
100
AcDbGroup
300

 70
     3
 71
     0
  0
GROUP
  5
635F
102
{ACAD_REACTORS
330
18
102
}
330
18
100
AcDbGroup
300

 70
     3
 71
     0
  0
GROUP
  5
48B1
102
{ACAD_REACTORS
330
18
102
}
330
18
100
AcDbGroup
300

 70
     3
 71
     0
  0
GROUP
  5
1B1D
102
{ACAD_REACTORS
330
18
102
}
330
18
100
AcDbGroup
300

 70
     3
 71
     0
  0
GROUP
  5
1C5A
102
{ACAD_REACTORS
330
18
102
}
330
18
100
AcDbGroup
300

 70
     3
 71
     0
  0
GROUP
  5
63B2
102
{ACAD_REACTORS
330
18
102
}
330
18
100
AcDbGroup
300

 70
     3
 71
     0
  0
GROUP
  5
496B
102
{ACAD_REACTORS
330
18
102
}
330
18
100
AcDbGroup
300

 70
     3
 71
     0
  0
GROUP
  5
1B82
102
{ACAD_REACTORS
330
18
102
}
330
18
100
AcDbGroup
300

 70
     3
 71
     0
  0
GROUP
  5
48A2
102
{ACAD_REACTORS
330
18
102
}
330
18
100
AcDbGroup
300

 70
     3
 71
     0
  0
GROUP
  5
1B0A
102
{ACAD_REACTORS
330
18
102
}
330
18
100
AcDbGroup
300

 70
     3
 71
     0
  0
GROUP
  5
6229
102
{ACAD_REACTORS
330
18
102
}
330
18
100
AcDbGroup
300

 70
     3
 71
     0
  0
GROUP
  5
1C59
102
{ACAD_REACTORS
330
18
102
}
330
18
100
AcDbGroup
300

 70
     3
 71
     0
  0
GROUP
  5
1B88
102
{ACAD_REACTORS
330
18
102
}
330
18
100
AcDbGroup
300

 70
     3
 71
     0
  0
GROUP
  5
625B
102
{ACAD_REACTORS
330
18
102
}
330
18
100
AcDbGroup
300

 70
     3
 71
     0
  0
GROUP
  5
1B04
102
{ACAD_REACTORS
330
18
102
}
330
18
100
AcDbGroup
300

 70
     3
 71
     0
  0
GROUP
  5
487A
102
{ACAD_REACTORS
330
18
102
}
330
18
100
AcDbGroup
300

 70
     3
 71
     0
  0
GROUP
  5
1B2B
102
{ACAD_REACTORS
330
18
102
}
330
18
100
AcDbGroup
300

 70
     3
 71
     0
  0
GROUP
  5
6232
102
{ACAD_REACTORS
330
18
102
}
330
18
100
AcDbGroup
300

 70
     3
 71
     0
  0
GROUP
  5
487E
102
{ACAD_REACTORS
330
18
102
}
330
18
100
AcDbGroup
300

 70
     3
 71
     0
  0
GROUP
  5
63A2
102
{ACAD_REACTORS
330
18
102
}
330
18
100
AcDbGroup
300

 70
     3
 71
     0
  0
GROUP
  5
4844
102
{ACAD_REACTORS
330
18
102
}
330
18
100
AcDbGroup
300

 70
     3
 71
     0
  0
GROUP
  5
1B35
102
{ACAD_REACTORS
330
18
102
}
330
18
100
AcDbGroup
300

 70
     3
 71
     0
  0
GROUP
  5
6402
102
{ACAD_REACTORS
330
18
102
}
330
18
100
AcDbGroup
300

 70
     3
 71
     0
  0
GROUP
  5
63D6
102
{ACAD_REACTORS
330
18
102
}
330
18
100
AcDbGroup
300

 70
     3
 71
     0
  0
GROUP
  5
62A2
102
{ACAD_REACTORS
330
18
102
}
330
18
100
AcDbGroup
300

 70
     3
 71
     0
  0
GROUP
  5
6350
102
{ACAD_REACTORS
330
18
102
}
330
18
100
AcDbGroup
300

 70
     3
 71
     0
  0
GROUP
  5
6400
102
{ACAD_REACTORS
330
18
102
}
330
18
100
AcDbGroup
300

 70
     3
 71
     0
  0
GROUP
  5
6399
102
{ACAD_REACTORS
330
18
102
}
330
18
100
AcDbGroup
300

 70
     3
 71
     0
  0
GROUP
  5
1ACE
102
{ACAD_REACTORS
330
18
102
}
330
18
100
AcDbGroup
300

 70
     3
 71
     0
  0
GROUP
  5
1BA6
102
{ACAD_REACTORS
330
18
102
}
330
18
100
AcDbGroup
300

 70
     3
 71
     0
  0
GROUP
  5
1BB4
102
{ACAD_REACTORS
330
18
102
}
330
18
100
AcDbGroup
300

 70
     3
 71
     0
  0
GROUP
  5
1C03
102
{ACAD_REACTORS
330
18
102
}
330
18
100
AcDbGroup
300

 70
     3
 71
     0
  0
GROUP
  5
4995
102
{ACAD_REACTORS
330
18
102
}
330
18
100
AcDbGroup
300

 70
     3
 71
     0
  0
GROUP
  5
1C45
102
{ACAD_REACTORS
330
18
102
}
330
18
100
AcDbGroup
300

 70
     3
 71
     0
  0
GROUP
  5
49FC
102
{ACAD_REACTORS
330
18
102
}
330
18
100
AcDbGroup
300

 70
     3
 71
     0
  0
GROUP
  5
6283
102
{ACAD_REACTORS
330
18
102
}
330
18
100
AcDbGroup
300

 70
     3
 71
     0
  0
GROUP
  5
6284
102
{ACAD_REACTORS
330
18
102
}
330
18
100
AcDbGroup
300

 70
     3
 71
     0
  0
GROUP
  5
6341
102
{ACAD_REACTORS
330
18
102
}
330
18
100
AcDbGroup
300

 70
     3
 71
     0
  0
GROUP
  5
1BA8
102
{ACAD_REACTORS
330
18
102
}
330
18
100
AcDbGroup
300

 70
     3
 71
     0
  0
GROUP
  5
63F0
102
{ACAD_REACTORS
330
18
102
}
330
18
100
AcDbGroup
300

 70
     3
 71
     0
  0
GROUP
  5
482D
102
{ACAD_REACTORS
330
18
102
}
330
18
100
AcDbGroup
300

 70
     3
 71
     0
  0
GROUP
  5
49D8
102
{ACAD_REACTORS
330
18
102
}
330
18
100
AcDbGroup
300

 70
     3
 71
     0
  0
GROUP
  5
4990
102
{ACAD_REACTORS
330
18
102
}
330
18
100
AcDbGroup
300

 70
     3
 71
     0
  0
GROUP
  5
629B
102
{ACAD_REACTORS
330
18
102
}
330
18
100
AcDbGroup
300

 70
     3
 71
     0
  0
GROUP
  5
1C0E
102
{ACAD_REACTORS
330
18
102
}
330
18
100
AcDbGroup
300

 70
     3
 71
     0
  0
GROUP
  5
1460
102
{ACAD_REACTORS
330
18
102
}
330
18
100
AcDbGroup
300

 70
     3
 71
     0
  0
GROUP
  5
6381
102
{ACAD_REACTORS
330
18
102
}
330
18
100
AcDbGroup
300

 70
     3
 71
     0
  0
GROUP
  5
37B9
102
{ACAD_REACTORS
330
18
102
}
330
18
100
AcDbGroup
300

 70
     3
 71
     0
  0
GROUP
  5
1C51
102
{ACAD_REACTORS
330
18
102
}
330
18
100
AcDbGroup
300

 70
     3
 71
     0
  0
GROUP
  5
1AD1
102
{ACAD_REACTORS
330
18
102
}
330
18
100
AcDbGroup
300

 70
     3
 71
     0
  0
GROUP
  5
1AF3
102
{ACAD_REACTORS
330
18
102
}
330
18
100
AcDbGroup
300

 70
     3
 71
     0
  0
GROUP
  5
4886
102
{ACAD_REACTORS
330
18
102
}
330
18
100
AcDbGroup
300

 70
     3
 71
     0
  0
GROUP
  5
635B
102
{ACAD_REACTORS
330
18
102
}
330
18
100
AcDbGroup
300

 70
     3
 71
     0
  0
GROUP
  5
1BBD
102
{ACAD_REACTORS
330
18
102
}
330
18
100
AcDbGroup
300

 70
     3
 71
     0
  0
GROUP
  5
1B16
102
{ACAD_REACTORS
330
18
102
}
330
18
100
AcDbGroup
300

 70
     3
 71
     0
  0
GROUP
  5
1B62
102
{ACAD_REACTORS
330
18
102
}
330
18
100
AcDbGroup
300

 70
     3
 71
     0
  0
GROUP
  5
494D
102
{ACAD_REACTORS
330
18
102
}
330
18
100
AcDbGroup
300

 70
     3
 71
     0
  0
GROUP
  5
1AFD
102
{ACAD_REACTORS
330
18
102
}
330
18
100
AcDbGroup
300

 70
     3
 71
     0
  0
GROUP
  5
37C2
102
{ACAD_REACTORS
330
18
102
}
330
18
100
AcDbGroup
300

 70
     3
 71
     0
  0
GROUP
  5
49D5
102
{ACAD_REACTORS
330
18
102
}
330
18
100
AcDbGroup
300

 70
     3
 71
     0
  0
GROUP
  5
6298
102
{ACAD_REACTORS
330
18
102
}
330
18
100
AcDbGroup
300

 70
     3
 71
     0
  0
GROUP
  5
4A0F
102
{ACAD_REACTORS
330
18
102
}
330
18
100
AcDbGroup
300

 70
     3
 71
     0
  0
GROUP
  5
1BC2
102
{ACAD_REACTORS
330
18
102
}
330
18
100
AcDbGroup
300

 70
     3
 71
     0
  0
GROUP
  5
6392
102
{ACAD_REACTORS
330
18
102
}
330
18
100
AcDbGroup
300

 70
     3
 71
     0
  0
GROUP
  5
1BED
102
{ACAD_REACTORS
330
18
102
}
330
18
100
AcDbGroup
300

 70
     3
 71
     0
  0
GROUP
  5
1BF5
102
{ACAD_REACTORS
330
18
102
}
330
18
100
AcDbGroup
300

 70
     3
 71
     0
  0
GROUP
  5
62E9
102
{ACAD_REACTORS
330
18
102
}
330
18
100
AcDbGroup
300

 70
     3
 71
     0
  0
GROUP
  5
48B3
102
{ACAD_REACTORS
330
18
102
}
330
18
100
AcDbGroup
300

 70
     3
 71
     0
  0
GROUP
  5
62C8
102
{ACAD_REACTORS
330
18
102
}
330
18
100
AcDbGroup
300

 70
     3
 71
     0
  0
GROUP
  5
638B
102
{ACAD_REACTORS
330
18
102
}
330
18
100
AcDbGroup
300

 70
     3
 71
     0
  0
GROUP
  5
48E3
102
{ACAD_REACTORS
330
18
102
}
330
18
100
AcDbGroup
300

 70
     3
 71
     0
  0
GROUP
  5
4929
102
{ACAD_REACTORS
330
18
102
}
330
18
100
AcDbGroup
300

 70
     3
 71
     0
  0
GROUP
  5
4909
102
{ACAD_REACTORS
330
18
102
}
330
18
100
AcDbGroup
300

 70
     3
 71
     0
  0
GROUP
  5
1BFC
102
{ACAD_REACTORS
330
18
102
}
330
18
100
AcDbGroup
300

 70
     3
 71
     0
  0
GROUP
  5
6316
102
{ACAD_REACTORS
330
18
102
}
330
18
100
AcDbGroup
300

 70
     3
 71
     0
  0
GROUP
  5
37BF
102
{ACAD_REACTORS
330
18
102
}
330
18
100
AcDbGroup
300

 70
     3
 71
     0
  0
GROUP
  5
1BBB
102
{ACAD_REACTORS
330
18
102
}
330
18
100
AcDbGroup
300

 70
     3
 71
     0
  0
GROUP
  5
6304
102
{ACAD_REACTORS
330
18
102
}
330
18
100
AcDbGroup
300

 70
     3
 71
     0
  0
GROUP
  5
1BE1
102
{ACAD_REACTORS
330
18
102
}
330
18
100
AcDbGroup
300

 70
     3
 71
     0
  0
GROUP
  5
49F0
102
{ACAD_REACTORS
330
18
102
}
330
18
100
AcDbGroup
300

 70
     3
 71
     0
  0
GROUP
  5
1AEC
102
{ACAD_REACTORS
330
18
102
}
330
18
100
AcDbGroup
300

 70
     3
 71
     0
  0
GROUP
  5
498C
102
{ACAD_REACTORS
330
18
102
}
330
18
100
AcDbGroup
300

 70
     3
 71
     0
  0
GROUP
  5
1B0C
102
{ACAD_REACTORS
330
18
102
}
330
18
100
AcDbGroup
300

 70
     3
 71
     0
  0
GROUP
  5
1BB6
102
{ACAD_REACTORS
330
18
102
}
330
18
100
AcDbGroup
300

 70
     3
 71
     0
  0
GROUP
  5
487F
102
{ACAD_REACTORS
330
18
102
}
330
18
100
AcDbGroup
300

 70
     3
 71
     0
  0
GROUP
  5
48CC
102
{ACAD_REACTORS
330
18
102
}
330
18
100
AcDbGroup
300

 70
     3
 71
     0
  0
GROUP
  5
1B2F
102
{ACAD_REACTORS
330
18
102
}
330
18
100
AcDbGroup
300

 70
     3
 71
     0
  0
GROUP
  5
488F
102
{ACAD_REACTORS
330
18
102
}
330
18
100
AcDbGroup
300

 70
     3
 71
     0
  0
GROUP
  5
625E
102
{ACAD_REACTORS
330
18
102
}
330
18
100
AcDbGroup
300

 70
     3
 71
     0
  0
GROUP
  5
4989
102
{ACAD_REACTORS
330
18
102
}
330
18
100
AcDbGroup
300

 70
     3
 71
     0
  0
GROUP
  5
4899
102
{ACAD_REACTORS
330
18
102
}
330
18
100
AcDbGroup
300

 70
     3
 71
     0
  0
GROUP
  5
1BBF
102
{ACAD_REACTORS
330
18
102
}
330
18
100
AcDbGroup
300

 70
     3
 71
     0
  0
GROUP
  5
63C9
102
{ACAD_REACTORS
330
18
102
}
330
18
100
AcDbGroup
300

 70
     3
 71
     0
  0
GROUP
  5
6375
102
{ACAD_REACTORS
330
18
102
}
330
18
100
AcDbGroup
300

 70
     3
 71
     0
  0
GROUP
  5
4911
102
{ACAD_REACTORS
330
18
102
}
330
18
100
AcDbGroup
300

 70
     3
 71
     0
  0
GROUP
  5
4968
102
{ACAD_REACTORS
330
18
102
}
330
18
100
AcDbGroup
300

 70
     3
 71
     0
  0
GROUP
  5
635C
102
{ACAD_REACTORS
330
18
102
}
330
18
100
AcDbGroup
300

 70
     3
 71
     0
  0
GROUP
  5
487D
102
{ACAD_REACTORS
330
18
102
}
330
18
100
AcDbGroup
300

 70
     3
 71
     0
  0
GROUP
  5
493C
102
{ACAD_REACTORS
330
18
102
}
330
18
100
AcDbGroup
300

 70
     3
 71
     0
  0
GROUP
  5
1B5D
102
{ACAD_REACTORS
330
18
102
}
330
18
100
AcDbGroup
300

 70
     3
 71
     0
  0
GROUP
  5
63BB
102
{ACAD_REACTORS
330
18
102
}
330
18
100
AcDbGroup
300

 70
     3
 71
     0
  0
GROUP
  5
637A
102
{ACAD_REACTORS
330
18
102
}
330
18
100
AcDbGroup
300

 70
     3
 71
     0
  0
GROUP
  5
6261
102
{ACAD_REACTORS
330
18
102
}
330
18
100
AcDbGroup
300

 70
     3
 71
     0
  0
GROUP
  5
49CF
102
{ACAD_REACTORS
330
18
102
}
330
18
100
AcDbGroup
300

 70
     3
 71
     0
  0
GROUP
  5
6262
102
{ACAD_REACTORS
330
18
102
}
330
18
100
AcDbGroup
300

 70
     3
 71
     0
  0
GROUP
  5
1C02
102
{ACAD_REACTORS
330
18
102
}
330
18
100
AcDbGroup
300

 70
     3
 71
     0
  0
GROUP
  5
49C3
102
{ACAD_REACTORS
330
18
102
}
330
18
100
AcDbGroup
300

 70
     3
 71
     0
  0
GROUP
  5
6394
102
{ACAD_REACTORS
330
18
102
}
330
18
100
AcDbGroup
300

 70
     3
 71
     0
  0
GROUP
  5
1BB1
102
{ACAD_REACTORS
330
18
102
}
330
18
100
AcDbGroup
300

 70
     3
 71
     0
  0
GROUP
  5
48E8
102
{ACAD_REACTORS
330
18
102
}
330
18
100
AcDbGroup
300

 70
     3
 71
     0
  0
GROUP
  5
62A6
102
{ACAD_REACTORS
330
18
102
}
330
18
100
AcDbGroup
300

 70
     3
 71
     0
  0
GROUP
  5
37A3
102
{ACAD_REACTORS
330
18
102
}
330
18
100
AcDbGroup
300

 70
     3
 71
     0
  0
GROUP
  5
49AA
102
{ACAD_REACTORS
330
18
102
}
330
18
100
AcDbGroup
300

 70
     3
 71
     0
  0
GROUP
  5
63BC
102
{ACAD_REACTORS
330
18
102
}
330
18
100
AcDbGroup
300

 70
     3
 71
     0
  0
GROUP
  5
62AF
102
{ACAD_REACTORS
330
18
102
}
330
18
100
AcDbGroup
300

 70
     3
 71
     0
  0
GROUP
  5
48E1
102
{ACAD_REACTORS
330
18
102
}
330
18
100
AcDbGroup
300

 70
     3
 71
     0
  0
GROUP
  5
6311
102
{ACAD_REACTORS
330
18
102
}
330
18
100
AcDbGroup
300

 70
     3
 71
     0
  0
GROUP
  5
49EF
102
{ACAD_REACTORS
330
18
102
}
330
18
100
AcDbGroup
300

 70
     3
 71
     0
  0
GROUP
  5
6369
102
{ACAD_REACTORS
330
18
102
}
330
18
100
AcDbGroup
300

 70
     3
 71
     0
  0
GROUP
  5
1C53
102
{ACAD_REACTORS
330
18
102
}
330
18
100
AcDbGroup
300

 70
     3
 71
     0
  0
GROUP
  5
499A
102
{ACAD_REACTORS
330
18
102
}
330
18
100
AcDbGroup
300

 70
     3
 71
     0
  0
GROUP
  5
4874
102
{ACAD_REACTORS
330
18
102
}
330
18
100
AcDbGroup
300

 70
     3
 71
     0
  0
GROUP
  5
1C39
102
{ACAD_REACTORS
330
18
102
}
330
18
100
AcDbGroup
300

 70
     3
 71
     0
  0
GROUP
  5
4896
102
{ACAD_REACTORS
330
18
102
}
330
18
100
AcDbGroup
300

 70
     3
 71
     0
  0
GROUP
  5
481F
102
{ACAD_REACTORS
330
18
102
}
330
18
100
AcDbGroup
300

 70
     3
 71
     0
  0
GROUP
  5
1459
102
{ACAD_REACTORS
330
18
102
}
330
18
100
AcDbGroup
300

 70
     3
 71
     0
  0
GROUP
  5
49F8
102
{ACAD_REACTORS
330
18
102
}
330
18
100
AcDbGroup
300

 70
     3
 71
     0
  0
GROUP
  5
4974
102
{ACAD_REACTORS
330
18
102
}
330
18
100
AcDbGroup
300

 70
     3
 71
     0
  0
GROUP
  5
4895
102
{ACAD_REACTORS
330
18
102
}
330
18
100
AcDbGroup
300

 70
     3
 71
     0
  0
GROUP
  5
6322
102
{ACAD_REACTORS
330
18
102
}
330
18
100
AcDbGroup
300

 70
     3
 71
     0
  0
GROUP
  5
497E
102
{ACAD_REACTORS
330
18
102
}
330
18
100
AcDbGroup
300

 70
     3
 71
     0
  0
GROUP
  5
1AD0
102
{ACAD_REACTORS
330
18
102
}
330
18
100
AcDbGroup
300

 70
     3
 71
     0
  0
GROUP
  5
639E
102
{ACAD_REACTORS
330
18
102
}
330
18
100
AcDbGroup
300

 70
     3
 71
     0
  0
GROUP
  5
6220
102
{ACAD_REACTORS
330
18
102
}
330
18
100
AcDbGroup
300

 70
     3
 71
     0
  0
GROUP
  5
63E1
102
{ACAD_REACTORS
330
18
102
}
330
18
100
AcDbGroup
300

 70
     3
 71
     0
  0
GROUP
  5
6300
102
{ACAD_REACTORS
330
18
102
}
330
18
100
AcDbGroup
300

 70
     3
 71
     0
  0
GROUP
  5
48B4
102
{ACAD_REACTORS
330
18
102
}
330
18
100
AcDbGroup
300

 70
     3
 71
     0
  0
GROUP
  5
4A17
102
{ACAD_REACTORS
330
18
102
}
330
18
100
AcDbGroup
300

 70
     3
 71
     0
  0
GROUP
  5
1B92
102
{ACAD_REACTORS
330
18
102
}
330
18
100
AcDbGroup
300

 70
     3
 71
     0
  0
GROUP
  5
1B2A
102
{ACAD_REACTORS
330
18
102
}
330
18
100
AcDbGroup
300

 70
     3
 71
     0
  0
GROUP
  5
4991
102
{ACAD_REACTORS
330
18
102
}
330
18
100
AcDbGroup
300

 70
     3
 71
     0
  0
GROUP
  5
48D2
102
{ACAD_REACTORS
330
18
102
}
330
18
100
AcDbGroup
300

 70
     3
 71
     0
  0
GROUP
  5
1C15
102
{ACAD_REACTORS
330
18
102
}
330
18
100
AcDbGroup
300

 70
     3
 71
     0
  0
GROUP
  5
1C58
102
{ACAD_REACTORS
330
18
102
}
330
18
100
AcDbGroup
300

 70
     3
 71
     0
  0
GROUP
  5
49BD
102
{ACAD_REACTORS
330
18
102
}
330
18
100
AcDbGroup
300

 70
     3
 71
     0
  0
GROUP
  5
1B8B
102
{ACAD_REACTORS
330
18
102
}
330
18
100
AcDbGroup
300

 70
     3
 71
     0
  0
GROUP
  5
1C1B
102
{ACAD_REACTORS
330
18
102
}
330
18
100
AcDbGroup
300

 70
     3
 71
     0
  0
GROUP
  5
634C
102
{ACAD_REACTORS
330
18
102
}
330
18
100
AcDbGroup
300

 70
     3
 71
     0
  0
GROUP
  5
495E
102
{ACAD_REACTORS
330
18
102
}
330
18
100
AcDbGroup
300

 70
     3
 71
     0
  0
GROUP
  5
1C20
102
{ACAD_REACTORS
330
18
102
}
330
18
100
AcDbGroup
300

 70
     3
 71
     0
  0
GROUP
  5
1C3A
102
{ACAD_REACTORS
330
18
102
}
330
18
100
AcDbGroup
300

 70
     3
 71
     0
  0
GROUP
  5
48C8
102
{ACAD_REACTORS
330
18
102
}
330
18
100
AcDbGroup
300

 70
     3
 71
     0
  0
GROUP
  5
49E8
102
{ACAD_REACTORS
330
18
102
}
330
18
100
AcDbGroup
300

 70
     3
 71
     0
  0
GROUP
  5
37A6
102
{ACAD_REACTORS
330
18
102
}
330
18
100
AcDbGroup
300

 70
     3
 71
     0
  0
GROUP
  5
635A
102
{ACAD_REACTORS
330
18
102
}
330
18
100
AcDbGroup
300

 70
     3
 71
     0
  0
GROUP
  5
1BD4
102
{ACAD_REACTORS
330
18
102
}
330
18
100
AcDbGroup
300

 70
     3
 71
     0
  0
GROUP
  5
62A0
102
{ACAD_REACTORS
330
18
102
}
330
18
100
AcDbGroup
300

 70
     3
 71
     0
  0
GROUP
  5
4997
102
{ACAD_REACTORS
330
18
102
}
330
18
100
AcDbGroup
300

 70
     3
 71
     0
  0
GROUP
  5
6317
102
{ACAD_REACTORS
330
18
102
}
330
18
100
AcDbGroup
300

 70
     3
 71
     0
  0
GROUP
  5
1C47
102
{ACAD_REACTORS
330
18
102
}
330
18
100
AcDbGroup
300

 70
     3
 71
     0
  0
GROUP
  5
1C21
102
{ACAD_REACTORS
330
18
102
}
330
18
100
AcDbGroup
300

 70
     3
 71
     0
  0
GROUP
  5
1AEE
102
{ACAD_REACTORS
330
18
102
}
330
18
100
AcDbGroup
300

 70
     3
 71
     0
  0
GROUP
  5
62B2
102
{ACAD_REACTORS
330
18
102
}
330
18
100
AcDbGroup
300

 70
     3
 71
     0
  0
GROUP
  5
6248
102
{ACAD_REACTORS
330
18
102
}
330
18
100
AcDbGroup
300

 70
     3
 71
     0
  0
GROUP
  5
1AED
102
{ACAD_REACTORS
330
18
102
}
330
18
100
AcDbGroup
300

 70
     3
 71
     0
  0
GROUP
  5
497F
102
{ACAD_REACTORS
330
18
102
}
330
18
100
AcDbGroup
300

 70
     3
 71
     0
  0
GROUP
  5
1C48
102
{ACAD_REACTORS
330
18
102
}
330
18
100
AcDbGroup
300

 70
     3
 71
     0
  0
GROUP
  5
1BD3
102
{ACAD_REACTORS
330
18
102
}
330
18
100
AcDbGroup
300

 70
     3
 71
     0
  0
GROUP
  5
48BB
102
{ACAD_REACTORS
330
18
102
}
330
18
100
AcDbGroup
300

 70
     3
 71
     0
  0
GROUP
  5
1C37
102
{ACAD_REACTORS
330
18
102
}
330
18
100
AcDbGroup
300

 70
     3
 71
     0
  0
GROUP
  5
1C44
102
{ACAD_REACTORS
330
18
102
}
330
18
100
AcDbGroup
300

 70
     3
 71
     0
  0
GROUP
  5
633C
102
{ACAD_REACTORS
330
18
102
}
330
18
100
AcDbGroup
300

 70
     3
 71
     0
  0
GROUP
  5
49F6
102
{ACAD_REACTORS
330
18
102
}
330
18
100
AcDbGroup
300

 70
     3
 71
     0
  0
GROUP
  5
62CA
102
{ACAD_REACTORS
330
18
102
}
330
18
100
AcDbGroup
300

 70
     3
 71
     0
  0
GROUP
  5
496F
102
{ACAD_REACTORS
330
18
102
}
330
18
100
AcDbGroup
300

 70
     3
 71
     0
  0
GROUP
  5
62AA
102
{ACAD_REACTORS
330
18
102
}
330
18
100
AcDbGroup
300

 70
     3
 71
     0
  0
GROUP
  5
49D3
102
{ACAD_REACTORS
330
18
102
}
330
18
100
AcDbGroup
300

 70
     3
 71
     0
  0
GROUP
  5
4955
102
{ACAD_REACTORS
330
18
102
}
330
18
100
AcDbGroup
300

 70
     3
 71
     0
  0
GROUP
  5
1BE9
102
{ACAD_REACTORS
330
18
102
}
330
18
100
AcDbGroup
300

 70
     3
 71
     0
  0
GROUP
  5
49C7
102
{ACAD_REACTORS
330
18
102
}
330
18
100
AcDbGroup
300

 70
     3
 71
     0
  0
GROUP
  5
48AC
102
{ACAD_REACTORS
330
18
102
}
330
18
100
AcDbGroup
300

 70
     3
 71
     0
  0
GROUP
  5
6327
102
{ACAD_REACTORS
330
18
102
}
330
18
100
AcDbGroup
300

 70
     3
 71
     0
  0
GROUP
  5
4973
102
{ACAD_REACTORS
330
18
102
}
330
18
100
AcDbGroup
300

 70
     3
 71
     0
  0
GROUP
  5
1B4A
102
{ACAD_REACTORS
330
18
102
}
330
18
100
AcDbGroup
300

 70
     3
 71
     0
  0
GROUP
  5
1B3E
102
{ACAD_REACTORS
330
18
102
}
330
18
100
AcDbGroup
300

 70
     3
 71
     0
  0
GROUP
  5
1C08
102
{ACAD_REACTORS
330
18
102
}
330
18
100
AcDbGroup
300

 70
     3
 71
     0
  0
GROUP
  5
62F1
102
{ACAD_REACTORS
330
18
102
}
330
18
100
AcDbGroup
300

 70
     3
 71
     0
  0
GROUP
  5
1BBA
102
{ACAD_REACTORS
330
18
102
}
330
18
100
AcDbGroup
300

 70
     3
 71
     0
  0
GROUP
  5
484C
102
{ACAD_REACTORS
330
18
102
}
330
18
100
AcDbGroup
300

 70
     3
 71
     0
  0
GROUP
  5
1462
102
{ACAD_REACTORS
330
18
102
}
330
18
100
AcDbGroup
300

 70
     3
 71
     0
  0
GROUP
  5
1B13
102
{ACAD_REACTORS
330
18
102
}
330
18
100
AcDbGroup
300

 70
     3
 71
     0
  0
GROUP
  5
62C2
102
{ACAD_REACTORS
330
18
102
}
330
18
100
AcDbGroup
300

 70
     3
 71
     0
  0
GROUP
  5
1C46
102
{ACAD_REACTORS
330
18
102
}
330
18
100
AcDbGroup
300

 70
     3
 71
     0
  0
GROUP
  5
63AC
102
{ACAD_REACTORS
330
18
102
}
330
18
100
AcDbGroup
300

 70
     3
 71
     0
  0
GROUP
  5
62F5
102
{ACAD_REACTORS
330
18
102
}
330
18
100
AcDbGroup
300

 70
     3
 71
     0
  0
GROUP
  5
633A
102
{ACAD_REACTORS
330
18
102
}
330
18
100
AcDbGroup
300

 70
     3
 71
     0
  0
GROUP
  5
628F
102
{ACAD_REACTORS
330
18
102
}
330
18
100
AcDbGroup
300

 70
     3
 71
     0
  0
GROUP
  5
1BF9
102
{ACAD_REACTORS
330
18
102
}
330
18
100
AcDbGroup
300

 70
     3
 71
     0
  0
GROUP
  5
1466
102
{ACAD_REACTORS
330
18
102
}
330
18
100
AcDbGroup
300

 70
     3
 71
     0
  0
GROUP
  5
1B69
102
{ACAD_REACTORS
330
18
102
}
330
18
100
AcDbGroup
300

 70
     3
 71
     0
  0
GROUP
  5
48F2
102
{ACAD_REACTORS
330
18
102
}
330
18
100
AcDbGroup
300

 70
     3
 71
     0
  0
GROUP
  5
49DD
102
{ACAD_REACTORS
330
18
102
}
330
18
100
AcDbGroup
300

 70
     3
 71
     0
  0
GROUP
  5
4894
102
{ACAD_REACTORS
330
18
102
}
330
18
100
AcDbGroup
300

 70
     3
 71
     0
  0
GROUP
  5
1B75
102
{ACAD_REACTORS
330
18
102
}
330
18
100
AcDbGroup
300

 70
     3
 71
     0
  0
GROUP
  5
48E6
102
{ACAD_REACTORS
330
18
102
}
330
18
100
AcDbGroup
300

 70
     3
 71
     0
  0
GROUP
  5
1C2B
102
{ACAD_REACTORS
330
18
102
}
330
18
100
AcDbGroup
300

 70
     3
 71
     0
  0
GROUP
  5
1C27
102
{ACAD_REACTORS
330
18
102
}
330
18
100
AcDbGroup
300

 70
     3
 71
     0
  0
GROUP
  5
629C
102
{ACAD_REACTORS
330
18
102
}
330
18
100
AcDbGroup
300

 70
     3
 71
     0
  0
GROUP
  5
4937
102
{ACAD_REACTORS
330
18
102
}
330
18
100
AcDbGroup
300

 70
     3
 71
     0
  0
GROUP
  5
1458
102
{ACAD_REACTORS
330
18
102
}
330
18
100
AcDbGroup
300

 70
     3
 71
     0
  0
GROUP
  5
1BC4
102
{ACAD_REACTORS
330
18
102
}
330
18
100
AcDbGroup
300

 70
     3
 71
     0
  0
GROUP
  5
63D2
102
{ACAD_REACTORS
330
18
102
}
330
18
100
AcDbGroup
300

 70
     3
 71
     0
  0
GROUP
  5
1C4D
102
{ACAD_REACTORS
330
18
102
}
330
18
100
AcDbGroup
300

 70
     3
 71
     0
  0
GROUP
  5
48F5
102
{ACAD_REACTORS
330
18
102
}
330
18
100
AcDbGroup
300

 70
     3
 71
     0
  0
GROUP
  5
4813
102
{ACAD_REACTORS
330
18
102
}
330
18
100
AcDbGroup
300

 70
     3
 71
     0
  0
GROUP
  5
63B6
102
{ACAD_REACTORS
330
18
102
}
330
18
100
AcDbGroup
300

 70
     3
 71
     0
  0
GROUP
  5
49EB
102
{ACAD_REACTORS
330
18
102
}
330
18
100
AcDbGroup
300

 70
     3
 71
     0
  0
GROUP
  5
486C
102
{ACAD_REACTORS
330
18
102
}
330
18
100
AcDbGroup
300

 70
     3
 71
     0
  0
GROUP
  5
37C0
102
{ACAD_REACTORS
330
18
102
}
330
18
100
AcDbGroup
300

 70
     3
 71
     0
  0
GROUP
  5
1BCC
102
{ACAD_REACTORS
330
18
102
}
330
18
100
AcDbGroup
300

 70
     3
 71
     0
  0
GROUP
  5
4A03
102
{ACAD_REACTORS
330
18
102
}
330
18
100
AcDbGroup
300

 70
     3
 71
     0
  0
GROUP
  5
6242
102
{ACAD_REACTORS
330
18
102
}
330
18
100
AcDbGroup
300

 70
     3
 71
     0
  0
GROUP
  5
48B7
102
{ACAD_REACTORS
330
18
102
}
330
18
100
AcDbGroup
300

 70
     3
 71
     0
  0
GROUP
  5
497D
102
{ACAD_REACTORS
330
18
102
}
330
18
100
AcDbGroup
300

 70
     3
 71
     0
  0
GROUP
  5
4912
102
{ACAD_REACTORS
330
18
102
}
330
18
100
AcDbGroup
300

 70
     3
 71
     0
  0
GROUP
  5
48FF
102
{ACAD_REACTORS
330
18
102
}
330
18
100
AcDbGroup
300

 70
     3
 71
     0
  0
GROUP
  5
630E
102
{ACAD_REACTORS
330
18
102
}
330
18
100
AcDbGroup
300

 70
     3
 71
     0
  0
GROUP
  5
6370
102
{ACAD_REACTORS
330
18
102
}
330
18
100
AcDbGroup
300

 70
     3
 71
     0
  0
GROUP
  5
1C56
102
{ACAD_REACTORS
330
18
102
}
330
18
100
AcDbGroup
300

 70
     3
 71
     0
  0
GROUP
  5
622D
102
{ACAD_REACTORS
330
18
102
}
330
18
100
AcDbGroup
300

 70
     3
 71
     0
  0
GROUP
  5
4988
102
{ACAD_REACTORS
330
18
102
}
330
18
100
AcDbGroup
300

 70
     3
 71
     0
  0
GROUP
  5
62BE
102
{ACAD_REACTORS
330
18
102
}
330
18
100
AcDbGroup
300

 70
     3
 71
     0
  0
GROUP
  5
6241
102
{ACAD_REACTORS
330
18
102
}
330
18
100
AcDbGroup
300

 70
     3
 71
     0
  0
GROUP
  5
48FC
102
{ACAD_REACTORS
330
18
102
}
330
18
100
AcDbGroup
300

 70
     3
 71
     0
  0
GROUP
  5
4958
102
{ACAD_REACTORS
330
18
102
}
330
18
100
AcDbGroup
300

 70
     3
 71
     0
  0
GROUP
  5
63EA
102
{ACAD_REACTORS
330
18
102
}
330
18
100
AcDbGroup
300

 70
     3
 71
     0
  0
GROUP
  5
1BDF
102
{ACAD_REACTORS
330
18
102
}
330
18
100
AcDbGroup
300

 70
     3
 71
     0
  0
GROUP
  5
6307
102
{ACAD_REACTORS
330
18
102
}
330
18
100
AcDbGroup
300

 70
     3
 71
     0
  0
GROUP
  5
4824
102
{ACAD_REACTORS
330
18
102
}
330
18
100
AcDbGroup
300

 70
     3
 71
     0
  0
GROUP
  5
63DD
102
{ACAD_REACTORS
330
18
102
}
330
18
100
AcDbGroup
300

 70
     3
 71
     0
  0
GROUP
  5
489E
102
{ACAD_REACTORS
330
18
102
}
330
18
100
AcDbGroup
300

 70
     3
 71
     0
  0
GROUP
  5
49C9
102
{ACAD_REACTORS
330
18
102
}
330
18
100
AcDbGroup
300

 70
     3
 71
     0
  0
GROUP
  5
499B
102
{ACAD_REACTORS
330
18
102
}
330
18
100
AcDbGroup
300

 70
     3
 71
     0
  0
GROUP
  5
37A5
102
{ACAD_REACTORS
330
18
102
}
330
18
100
AcDbGroup
300

 70
     3
 71
     0
  0
GROUP
  5
6236
102
{ACAD_REACTORS
330
18
102
}
330
18
100
AcDbGroup
300

 70
     3
 71
     0
  0
GROUP
  5
6264
102
{ACAD_REACTORS
330
18
102
}
330
18
100
AcDbGroup
300

 70
     3
 71
     0
  0
GROUP
  5
1B70
102
{ACAD_REACTORS
330
18
102
}
330
18
100
AcDbGroup
300

 70
     3
 71
     0
  0
GROUP
  5
37B5
102
{ACAD_REACTORS
330
18
102
}
330
18
100
AcDbGroup
300

 70
     3
 71
     0
  0
GROUP
  5
63C2
102
{ACAD_REACTORS
330
18
102
}
330
18
100
AcDbGroup
300

 70
     3
 71
     0
  0
GROUP
  5
4952
102
{ACAD_REACTORS
330
18
102
}
330
18
100
AcDbGroup
300

 70
     3
 71
     0
  0
GROUP
  5
49B1
102
{ACAD_REACTORS
330
18
102
}
330
18
100
AcDbGroup
300

 70
     3
 71
     0
  0
GROUP
  5
48BD
102
{ACAD_REACTORS
330
18
102
}
330
18
100
AcDbGroup
300

 70
     3
 71
     0
  0
GROUP
  5
49A5
102
{ACAD_REACTORS
330
18
102
}
330
18
100
AcDbGroup
300

 70
     3
 71
     0
  0
GROUP
  5
1BD1
102
{ACAD_REACTORS
330
18
102
}
330
18
100
AcDbGroup
300

 70
     3
 71
     0
  0
GROUP
  5
1B99
102
{ACAD_REACTORS
330
18
102
}
330
18
100
AcDbGroup
300

 70
     3
 71
     0
  0
GROUP
  5
4993
102
{ACAD_REACTORS
330
18
102
}
330
18
100
AcDbGroup
300

 70
     3
 71
     0
  0
GROUP
  5
4948
102
{ACAD_REACTORS
330
18
102
}
330
18
100
AcDbGroup
300

 70
     3
 71
     0
  0
GROUP
  5
63FC
102
{ACAD_REACTORS
330
18
102
}
330
18
100
AcDbGroup
300

 70
     3
 71
     0
  0
GROUP
  5
62F9
102
{ACAD_REACTORS
330
18
102
}
330
18
100
AcDbGroup
300

 70
     3
 71
     0
  0
GROUP
  5
4981
102
{ACAD_REACTORS
330
18
102
}
330
18
100
AcDbGroup
300

 70
     3
 71
     0
  0
GROUP
  5
4962
102
{ACAD_REACTORS
330
18
102
}
330
18
100
AcDbGroup
300

 70
     3
 71
     0
  0
GROUP
  5
4931
102
{ACAD_REACTORS
330
18
102
}
330
18
100
AcDbGroup
300

 70
     3
 71
     0
  0
GROUP
  5
1B22
102
{ACAD_REACTORS
330
18
102
}
330
18
100
AcDbGroup
300

 70
     3
 71
     0
  0
GROUP
  5
4932
102
{ACAD_REACTORS
330
18
102
}
330
18
100
AcDbGroup
300

 70
     3
 71
     0
  0
GROUP
  5
1C23
102
{ACAD_REACTORS
330
18
102
}
330
18
100
AcDbGroup
300

 70
     3
 71
     0
  0
GROUP
  5
1BF6
102
{ACAD_REACTORS
330
18
102
}
330
18
100
AcDbGroup
300

 70
     3
 71
     0
  0
GROUP
  5
63A8
102
{ACAD_REACTORS
330
18
102
}
330
18
100
AcDbGroup
300

 70
     3
 71
     0
  0
GROUP
  5
63A5
102
{ACAD_REACTORS
330
18
102
}
330
18
100
AcDbGroup
300

 70
     3
 71
     0
  0
GROUP
  5
379B
102
{ACAD_REACTORS
330
18
102
}
330
18
100
AcDbGroup
300

 70
     3
 71
     0
  0
GROUP
  5
62A5
102
{ACAD_REACTORS
330
18
102
}
330
18
100
AcDbGroup
300

 70
     3
 71
     0
  0
GROUP
  5
6227
102
{ACAD_REACTORS
330
18
102
}
330
18
100
AcDbGroup
300

 70
     3
 71
     0
  0
GROUP
  5
1B79
102
{ACAD_REACTORS
330
18
102
}
330
18
100
AcDbGroup
300

 70
     3
 71
     0
  0
GROUP
  5
4880
102
{ACAD_REACTORS
330
18
102
}
330
18
100
AcDbGroup
300

 70
     3
 71
     0
  0
GROUP
  5
1AE0
102
{ACAD_REACTORS
330
18
102
}
330
18
100
AcDbGroup
300

 70
     3
 71
     0
  0
GROUP
  5
1B8C
102
{ACAD_REACTORS
330
18
102
}
330
18
100
AcDbGroup
300

 70
     3
 71
     0
  0
GROUP
  5
49AB
102
{ACAD_REACTORS
330
18
102
}
330
18
100
AcDbGroup
300

 70
     3
 71
     0
  0
GROUP
  5
1B72
102
{ACAD_REACTORS
330
18
102
}
330
18
100
AcDbGroup
300

 70
     3
 71
     0
  0
GROUP
  5
621A
102
{ACAD_REACTORS
330
18
102
}
330
18
100
AcDbGroup
300

 70
     3
 71
     0
  0
GROUP
  5
1BDE
102
{ACAD_REACTORS
330
18
102
}
330
18
100
AcDbGroup
300

 70
     3
 71
     0
  0
GROUP
  5
48EC
102
{ACAD_REACTORS
330
18
102
}
330
18
100
AcDbGroup
300

 70
     3
 71
     0
  0
GROUP
  5
638A
102
{ACAD_REACTORS
330
18
102
}
330
18
100
AcDbGroup
300

 70
     3
 71
     0
  0
GROUP
  5
4890
102
{ACAD_REACTORS
330
18
102
}
330
18
100
AcDbGroup
300

 70
     3
 71
     0
  0
GROUP
  5
6309
102
{ACAD_REACTORS
330
18
102
}
330
18
100
AcDbGroup
300

 70
     3
 71
     0
  0
GROUP
  5
1BFB
102
{ACAD_REACTORS
330
18
102
}
330
18
100
AcDbGroup
300

 70
     3
 71
     0
  0
GROUP
  5
4864
102
{ACAD_REACTORS
330
18
102
}
330
18
100
AcDbGroup
300

 70
     3
 71
     0
  0
GROUP
  5
497B
102
{ACAD_REACTORS
330
18
102
}
330
18
100
AcDbGroup
300

 70
     3
 71
     0
  0
GROUP
  5
62D3
102
{ACAD_REACTORS
330
18
102
}
330
18
100
AcDbGroup
300

 70
     3
 71
     1
  0
GROUP
  5
6233
102
{ACAD_REACTORS
330
18
102
}
330
18
100
AcDbGroup
300

 70
     3
 71
     0
  0
GROUP
  5
1BB7
102
{ACAD_REACTORS
330
18
102
}
330
18
100
AcDbGroup
300

 70
     3
 71
     0
  0
GROUP
  5
1C01
102
{ACAD_REACTORS
330
18
102
}
330
18
100
AcDbGroup
300

 70
     3
 71
     0
  0
GROUP
  5
62AE
102
{ACAD_REACTORS
330
18
102
}
330
18
100
AcDbGroup
300

 70
     3
 71
     0
  0
GROUP
  5
48E0
102
{ACAD_REACTORS
330
18
102
}
330
18
100
AcDbGroup
300

 70
     3
 71
     0
  0
GROUP
  5
633E
102
{ACAD_REACTORS
330
18
102
}
330
18
100
AcDbGroup
300

 70
     3
 71
     0
  0
GROUP
  5
63D9
102
{ACAD_REACTORS
330
18
102
}
330
18
100
AcDbGroup
300

 70
     3
 71
     0
  0
GROUP
  5
6424
102
{ACAD_REACTORS
330
18
102
}
330
18
100
AcDbGroup
300

 70
     3
 71
     0
  0
GROUP
  5
492D
102
{ACAD_REACTORS
330
18
102
}
330
18
100
AcDbGroup
300

 70
     3
 71
     0
  0
GROUP
  5
48B5
102
{ACAD_REACTORS
330
18
102
}
330
18
100
AcDbGroup
300

 70
     3
 71
     0
  0
GROUP
  5
4964
102
{ACAD_REACTORS
330
18
102
}
330
18
100
AcDbGroup
300

 70
     3
 71
     0
  0
GROUP
  5
4884
102
{ACAD_REACTORS
330
18
102
}
330
18
100
AcDbGroup
300

 70
     3
 71
     0
  0
GROUP
  5
1B41
102
{ACAD_REACTORS
330
18
102
}
330
18
100
AcDbGroup
300

 70
     3
 71
     0
  0
GROUP
  5
1BB2
102
{ACAD_REACTORS
330
18
102
}
330
18
100
AcDbGroup
300

 70
     3
 71
     0
  0
GROUP
  5
49CB
102
{ACAD_REACTORS
330
18
102
}
330
18
100
AcDbGroup
300

 70
     3
 71
     0
  0
GROUP
  5
145B
102
{ACAD_REACTORS
330
18
102
}
330
18
100
AcDbGroup
300

 70
     3
 71
     0
  0
GROUP
  5
1AE5
102
{ACAD_REACTORS
330
18
102
}
330
18
100
AcDbGroup
300

 70
     3
 71
     0
  0
GROUP
  5
4950
102
{ACAD_REACTORS
330
18
102
}
330
18
100
AcDbGroup
300

 70
     3
 71
     0
  0
GROUP
  5
1B5F
102
{ACAD_REACTORS
330
18
102
}
330
18
100
AcDbGroup
300

 70
     3
 71
     0
  0
GROUP
  5
6308
102
{ACAD_REACTORS
330
18
102
}
330
18
100
AcDbGroup
300

 70
     3
 71
     0
  0
GROUP
  5
4845
102
{ACAD_REACTORS
330
18
102
}
330
18
100
AcDbGroup
300

 70
     3
 71
     0
  0
GROUP
  5
1C05
102
{ACAD_REACTORS
330
18
102
}
330
18
100
AcDbGroup
300

 70
     3
 71
     0
  0
GROUP
  5
1C4E
102
{ACAD_REACTORS
330
18
102
}
330
18
100
AcDbGroup
300

 70
     3
 71
     0
  0
GROUP
  5
49B9
102
{ACAD_REACTORS
330
18
102
}
330
18
100
AcDbGroup
300

 70
     3
 71
     0
  0
GROUP
  5
63E3
102
{ACAD_REACTORS
330
18
102
}
330
18
100
AcDbGroup
300

 70
     3
 71
     0
  0
GROUP
  5
1BF3
102
{ACAD_REACTORS
330
18
102
}
330
18
100
AcDbGroup
300

 70
     3
 71
     0
  0
GROUP
  5
1C35
102
{ACAD_REACTORS
330
18
102
}
330
18
100
AcDbGroup
300

 70
     3
 71
     0
  0
GROUP
  5
4946
102
{ACAD_REACTORS
330
18
102
}
330
18
100
AcDbGroup
300

 70
     3
 71
     0
  0
GROUP
  5
62C3
102
{ACAD_REACTORS
330
18
102
}
330
18
100
AcDbGroup
300

 70
     3
 71
     0
  0
GROUP
  5
6219
102
{ACAD_REACTORS
330
18
102
}
330
18
100
AcDbGroup
300

 70
     3
 71
     0
  0
GROUP
  5
63F7
102
{ACAD_REACTORS
330
18
102
}
330
18
100
AcDbGroup
300

 70
     3
 71
     0
  0
GROUP
  5
631E
102
{ACAD_REACTORS
330
18
102
}
330
18
100
AcDbGroup
300

 70
     3
 71
     0
  0
GROUP
  5
49AE
102
{ACAD_REACTORS
330
18
102
}
330
18
100
AcDbGroup
300

 70
     3
 71
     0
  0
GROUP
  5
4A01
102
{ACAD_REACTORS
330
18
102
}
330
18
100
AcDbGroup
300

 70
     3
 71
     0
  0
GROUP
  5
4847
102
{ACAD_REACTORS
330
18
102
}
330
18
100
AcDbGroup
300

 70
     3
 71
     0
  0
GROUP
  5
37A9
102
{ACAD_REACTORS
330
18
102
}
330
18
100
AcDbGroup
300

 70
     3
 71
     0
  0
GROUP
  5
6395
102
{ACAD_REACTORS
330
18
102
}
330
18
100
AcDbGroup
300

 70
     3
 71
     0
  0
GROUP
  5
1B24
102
{ACAD_REACTORS
330
18
102
}
330
18
100
AcDbGroup
300

 70
     3
 71
     0
  0
GROUP
  5
49EA
102
{ACAD_REACTORS
330
18
102
}
330
18
100
AcDbGroup
300

 70
     3
 71
     0
  0
GROUP
  5
497C
102
{ACAD_REACTORS
330
18
102
}
330
18
100
AcDbGroup
300

 70
     3
 71
     0
  0
GROUP
  5
63B7
102
{ACAD_REACTORS
330
18
102
}
330
18
100
AcDbGroup
300

 70
     3
 71
     0
  0
GROUP
  5
63CA
102
{ACAD_REACTORS
330
18
102
}
330
18
100
AcDbGroup
300

 70
     3
 71
     0
  0
GROUP
  5
1B12
102
{ACAD_REACTORS
330
18
102
}
330
18
100
AcDbGroup
300

 70
     3
 71
     0
  0
GROUP
  5
37B7
102
{ACAD_REACTORS
330
18
102
}
330
18
100
AcDbGroup
300

 70
     3
 71
     0
  0
GROUP
  5
63D1
102
{ACAD_REACTORS
330
18
102
}
330
18
100
AcDbGroup
300

 70
     3
 71
     0
  0
GROUP
  5
1C22
102
{ACAD_REACTORS
330
18
102
}
330
18
100
AcDbGroup
300

 70
     3
 71
     0
  0
GROUP
  5
638C
102
{ACAD_REACTORS
330
18
102
}
330
18
100
AcDbGroup
300

 70
     3
 71
     0
  0
GROUP
  5
6362
102
{ACAD_REACTORS
330
18
102
}
330
18
100
AcDbGroup
300

 70
     3
 71
     0
  0
GROUP
  5
62C0
102
{ACAD_REACTORS
330
18
102
}
330
18
100
AcDbGroup
300

 70
     3
 71
     0
  0
GROUP
  5
1C3F
102
{ACAD_REACTORS
330
18
102
}
330
18
100
AcDbGroup
300

 70
     3
 71
     0
  0
GROUP
  5
1B07
102
{ACAD_REACTORS
330
18
102
}
330
18
100
AcDbGroup
300

 70
     3
 71
     0
  0
GROUP
  5
636B
102
{ACAD_REACTORS
330
18
102
}
330
18
100
AcDbGroup
300

 70
     3
 71
     0
  0
GROUP
  5
1BD5
102
{ACAD_REACTORS
330
18
102
}
330
18
100
AcDbGroup
300

 70
     3
 71
     0
  0
GROUP
  5
1B51
102
{ACAD_REACTORS
330
18
102
}
330
18
100
AcDbGroup
300

 70
     3
 71
     0
  0
GROUP
  5
4967
102
{ACAD_REACTORS
330
18
102
}
330
18
100
AcDbGroup
300

 70
     3
 71
     0
  0
GROUP
  5
482C
102
{ACAD_REACTORS
330
18
102
}
330
18
100
AcDbGroup
300

 70
     3
 71
     0
  0
GROUP
  5
634D
102
{ACAD_REACTORS
330
18
102
}
330
18
100
AcDbGroup
300

 70
     3
 71
     0
  0
GROUP
  5
49E4
102
{ACAD_REACTORS
330
18
102
}
330
18
100
AcDbGroup
300

 70
     3
 71
     0
  0
GROUP
  5
49BC
102
{ACAD_REACTORS
330
18
102
}
330
18
100
AcDbGroup
300

 70
     3
 71
     0
  0
GROUP
  5
49A9
102
{ACAD_REACTORS
330
18
102
}
330
18
100
AcDbGroup
300

 70
     3
 71
     0
  0
GROUP
  5
6359
102
{ACAD_REACTORS
330
18
102
}
330
18
100
AcDbGroup
300

 70
     3
 71
     0
  0
GROUP
  5
4926
102
{ACAD_REACTORS
330
18
102
}
330
18
100
AcDbGroup
300

 70
     3
 71
     0
  0
GROUP
  5
1ACF
102
{ACAD_REACTORS
330
18
102
}
330
18
100
AcDbGroup
300

 70
     3
 71
     0
  0
GROUP
  5
1B7F
102
{ACAD_REACTORS
330
18
102
}
330
18
100
AcDbGroup
300

 70
     3
 71
     0
  0
GROUP
  5
4A18
102
{ACAD_REACTORS
330
18
102
}
330
18
100
AcDbGroup
300

 70
     3
 71
     0
  0
GROUP
  5
1B09
102
{ACAD_REACTORS
330
18
102
}
330
18
100
AcDbGroup
300

 70
     3
 71
     0
  0
GROUP
  5
634E
102
{ACAD_REACTORS
330
18
102
}
330
18
100
AcDbGroup
300

 70
     3
 71
     0
  0
GROUP
  5
4872
102
{ACAD_REACTORS
330
18
102
}
330
18
100
AcDbGroup
300

 70
     3
 71
     0
  0
GROUP
  5
6404
102
{ACAD_REACTORS
330
18
102
}
330
18
100
AcDbGroup
300

 70
     3
 71
     0
  0
GROUP
  5
1B6A
102
{ACAD_REACTORS
330
18
102
}
330
18
100
AcDbGroup
300

 70
     3
 71
     0
  0
GROUP
  5
63D4
102
{ACAD_REACTORS
330
18
102
}
330
18
100
AcDbGroup
300

 70
     3
 71
     0
  0
GROUP
  5
63FA
102
{ACAD_REACTORS
330
18
102
}
330
18
100
AcDbGroup
300

 70
     3
 71
     0
  0
GROUP
  5
63F8
102
{ACAD_REACTORS
330
18
102
}
330
18
100
AcDbGroup
300

 70
     3
 71
     0
  0
GROUP
  5
1B8D
102
{ACAD_REACTORS
330
18
102
}
330
18
100
AcDbGroup
300

 70
     3
 71
     0
  0
GROUP
  5
6357
102
{ACAD_REACTORS
330
18
102
}
330
18
100
AcDbGroup
300

 70
     3
 71
     0
  0
GROUP
  5
49B2
102
{ACAD_REACTORS
330
18
102
}
330
18
100
AcDbGroup
300

 70
     3
 71
     0
  0
GROUP
  5
1B03
102
{ACAD_REACTORS
330
18
102
}
330
18
100
AcDbGroup
300

 70
     3
 71
     0
  0
GROUP
  5
6224
102
{ACAD_REACTORS
330
18
102
}
330
18
100
AcDbGroup
300

 70
     3
 71
     0
  0
GROUP
  5
1C24
102
{ACAD_REACTORS
330
18
102
}
330
18
100
AcDbGroup
300

 70
     3
 71
     0
  0
GROUP
  5
1C07
102
{ACAD_REACTORS
330
18
102
}
330
18
100
AcDbGroup
300

 70
     3
 71
     0
  0
GROUP
  5
6417
102
{ACAD_REACTORS
330
18
102
}
330
18
100
AcDbGroup
300

 70
     3
 71
     0
  0
GROUP
  5
1B53
102
{ACAD_REACTORS
330
18
102
}
330
18
100
AcDbGroup
300

 70
     3
 71
     0
  0
GROUP
  5
63FE
102
{ACAD_REACTORS
330
18
102
}
330
18
100
AcDbGroup
300

 70
     3
 71
     0
  0
GROUP
  5
486F
102
{ACAD_REACTORS
330
18
102
}
330
18
100
AcDbGroup
300

 70
     3
 71
     0
  0
GROUP
  5
1BBE
102
{ACAD_REACTORS
330
18
102
}
330
18
100
AcDbGroup
300

 70
     3
 71
     0
  0
GROUP
  5
62ED
102
{ACAD_REACTORS
330
18
102
}
330
18
100
AcDbGroup
300

 70
     3
 71
     0
  0
GROUP
  5
1BC0
102
{ACAD_REACTORS
330
18
102
}
330
18
100
AcDbGroup
300

 70
     3
 71
     0
  0
GROUP
  5
62B9
102
{ACAD_REACTORS
330
18
102
}
330
18
100
AcDbGroup
300

 70
     3
 71
     0
  0
GROUP
  5
49E6
102
{ACAD_REACTORS
330
18
102
}
330
18
100
AcDbGroup
300

 70
     3
 71
     0
  0
GROUP
  5
632B
102
{ACAD_REACTORS
330
18
102
}
330
18
100
AcDbGroup
300

 70
     3
 71
     0
  0
GROUP
  5
6406
102
{ACAD_REACTORS
330
18
102
}
330
18
100
AcDbGroup
300

 70
     3
 71
     0
  0
GROUP
  5
6240
102
{ACAD_REACTORS
330
18
102
}
330
18
100
AcDbGroup
300

 70
     3
 71
     0
  0
GROUP
  5
482E
102
{ACAD_REACTORS
330
18
102
}
330
18
100
AcDbGroup
300

 70
     3
 71
     0
  0
GROUP
  5
48E4
102
{ACAD_REACTORS
330
18
102
}
330
18
100
AcDbGroup
300

 70
     3
 71
     0
  0
GROUP
  5
1B98
102
{ACAD_REACTORS
330
18
102
}
330
18
100
AcDbGroup
300

 70
     3
 71
     0
  0
GROUP
  5
4811
102
{ACAD_REACTORS
330
18
102
}
330
18
100
AcDbGroup
300

 70
     3
 71
     0
  0
GROUP
  5
1C18
102
{ACAD_REACTORS
330
18
102
}
330
18
100
AcDbGroup
300

 70
     3
 71
     0
  0
GROUP
  5
37AD
102
{ACAD_REACTORS
330
18
102
}
330
18
100
AcDbGroup
300

 70
     3
 71
     0
  0
GROUP
  5
623F
102
{ACAD_REACTORS
330
18
102
}
330
18
100
AcDbGroup
300

 70
     3
 71
     0
  0
GROUP
  5
49D2
102
{ACAD_REACTORS
330
18
102
}
330
18
100
AcDbGroup
300

 70
     3
 71
     0
  0
GROUP
  5
4903
102
{ACAD_REACTORS
330
18
102
}
330
18
100
AcDbGroup
300

 70
     3
 71
     0
  0
GROUP
  5
63CB
102
{ACAD_REACTORS
330
18
102
}
330
18
100
AcDbGroup
300

 70
     3
 71
     0
  0
GROUP
  5
1BD8
102
{ACAD_REACTORS
330
18
102
}
330
18
100
AcDbGroup
300

 70
     3
 71
     0
  0
GROUP
  5
6393
102
{ACAD_REACTORS
330
18
102
}
330
18
100
AcDbGroup
300

 70
     3
 71
     0
  0
GROUP
  5
6383
102
{ACAD_REACTORS
330
18
102
}
330
18
100
AcDbGroup
300

 70
     3
 71
     0
  0
GROUP
  5
63E5
102
{ACAD_REACTORS
330
18
102
}
330
18
100
AcDbGroup
300

 70
     3
 71
     0
  0
GROUP
  5
639D
102
{ACAD_REACTORS
330
18
102
}
330
18
100
AcDbGroup
300

 70
     3
 71
     0
  0
GROUP
  5
6277
102
{ACAD_REACTORS
330
18
102
}
330
18
100
AcDbGroup
300

 70
     3
 71
     0
  0
GROUP
  5
1BD6
102
{ACAD_REACTORS
330
18
102
}
330
18
100
AcDbGroup
300

 70
     3
 71
     0
  0
GROUP
  5
1BB8
102
{ACAD_REACTORS
330
18
102
}
330
18
100
AcDbGroup
300

 70
     3
 71
     0
  0
GROUP
  5
489F
102
{ACAD_REACTORS
330
18
102
}
330
18
100
AcDbGroup
300

 70
     3
 71
     0
  0
GROUP
  5
49CA
102
{ACAD_REACTORS
330
18
102
}
330
18
100
AcDbGroup
300

 70
     3
 71
     0
  0
GROUP
  5
1B58
102
{ACAD_REACTORS
330
18
102
}
330
18
100
AcDbGroup
300

 70
     3
 71
     0
  0
GROUP
  5
62EE
102
{ACAD_REACTORS
330
18
102
}
330
18
100
AcDbGroup
300

 70
     3
 71
     0
  0
GROUP
  5
63E7
102
{ACAD_REACTORS
330
18
102
}
330
18
100
AcDbGroup
300

 70
     3
 71
     0
  0
GROUP
  5
48D3
102
{ACAD_REACTORS
330
18
102
}
330
18
100
AcDbGroup
300

 70
     3
 71
     0
  0
GROUP
  5
4905
102
{ACAD_REACTORS
330
18
102
}
330
18
100
AcDbGroup
300

 70
     3
 71
     0
  0
GROUP
  5
6415
102
{ACAD_REACTORS
330
18
102
}
330
18
100
AcDbGroup
300

 70
     3
 71
     0
  0
GROUP
  5
49CE
102
{ACAD_REACTORS
330
18
102
}
330
18
100
AcDbGroup
300

 70
     3
 71
     0
  0
GROUP
  5
1C1C
102
{ACAD_REACTORS
330
18
102
}
330
18
100
AcDbGroup
300

 70
     3
 71
     0
  0
GROUP
  5
48DC
102
{ACAD_REACTORS
330
18
102
}
330
18
100
AcDbGroup
300

 70
     3
 71
     0
  0
GROUP
  5
379A
102
{ACAD_REACTORS
330
18
102
}
330
18
100
AcDbGroup
300

 70
     3
 71
     0
  0
GROUP
  5
49FA
102
{ACAD_REACTORS
330
18
102
}
330
18
100
AcDbGroup
300

 70
     3
 71
     0
  0
GROUP
  5
37AC
102
{ACAD_REACTORS
330
18
102
}
330
18
100
AcDbGroup
300

 70
     3
 71
     0
  0
GROUP
  5
49A6
102
{ACAD_REACTORS
330
18
102
}
330
18
100
AcDbGroup
300

 70
     3
 71
     0
  0
GROUP
  5
636F
102
{ACAD_REACTORS
330
18
102
}
330
18
100
AcDbGroup
300

 70
     3
 71
     0
  0
GROUP
  5
1B7D
102
{ACAD_REACTORS
330
18
102
}
330
18
100
AcDbGroup
300

 70
     3
 71
     0
  0
GROUP
  5
4882
102
{ACAD_REACTORS
330
18
102
}
330
18
100
AcDbGroup
300

 70
     3
 71
     0
  0
GROUP
  5
637C
102
{ACAD_REACTORS
330
18
102
}
330
18
100
AcDbGroup
300

 70
     3
 71
     0
  0
GROUP
  5
4957
102
{ACAD_REACTORS
330
18
102
}
330
18
100
AcDbGroup
300

 70
     3
 71
     0
  0
GROUP
  5
1B52
102
{ACAD_REACTORS
330
18
102
}
330
18
100
AcDbGroup
300

 70
     3
 71
     0
  0
GROUP
  5
484D
102
{ACAD_REACTORS
330
18
102
}
330
18
100
AcDbGroup
300

 70
     3
 71
     0
  0
GROUP
  5
49B7
102
{ACAD_REACTORS
330
18
102
}
330
18
100
AcDbGroup
300

 70
     3
 71
     0
  0
GROUP
  5
49BA
102
{ACAD_REACTORS
330
18
102
}
330
18
100
AcDbGroup
300

 70
     3
 71
     0
  0
GROUP
  5
1BCD
102
{ACAD_REACTORS
330
18
102
}
330
18
100
AcDbGroup
300

 70
     3
 71
     0
  0
GROUP
  5
6223
102
{ACAD_REACTORS
330
18
102
}
330
18
100
AcDbGroup
300

 70
     3
 71
     0
  0
GROUP
  5
4A08
102
{ACAD_REACTORS
330
18
102
}
330
18
100
AcDbGroup
300

 70
     3
 71
     0
  0
GROUP
  5
1BEC
102
{ACAD_REACTORS
330
18
102
}
330
18
100
AcDbGroup
300

 70
     3
 71
     0
  0
GROUP
  5
488B
102
{ACAD_REACTORS
330
18
102
}
330
18
100
AcDbGroup
300

 70
     3
 71
     0
  0
GROUP
  5
1ACD
102
{ACAD_REACTORS
330
18
102
}
330
18
100
AcDbGroup
300

 70
     3
 71
     0
  0
GROUP
  5
4999
102
{ACAD_REACTORS
330
18
102
}
330
18
100
AcDbGroup
300

 70
     3
 71
     0
  0
GROUP
  5
48DA
102
{ACAD_REACTORS
330
18
102
}
330
18
100
AcDbGroup
300

 70
     3
 71
     0
  0
GROUP
  5
629A
102
{ACAD_REACTORS
330
18
102
}
330
18
100
AcDbGroup
300

 70
     3
 71
     0
  0
GROUP
  5
1B45
102
{ACAD_REACTORS
330
18
102
}
330
18
100
AcDbGroup
300

 70
     3
 71
     0
  0
GROUP
  5
6222
102
{ACAD_REACTORS
330
18
102
}
330
18
100
AcDbGroup
300

 70
     3
 71
     0
  0
GROUP
  5
6218
102
{ACAD_REACTORS
330
18
102
}
330
18
100
AcDbGroup
300

 70
     3
 71
     0
  0
GROUP
  5
4915
102
{ACAD_REACTORS
330
18
102
}
330
18
100
AcDbGroup
300

 70
     3
 71
     0
  0
GROUP
  5
491A
102
{ACAD_REACTORS
330
18
102
}
330
18
100
AcDbGroup
300

 70
     3
 71
     0
  0
GROUP
  5
48FE
102
{ACAD_REACTORS
330
18
102
}
330
18
100
AcDbGroup
300

 70
     3
 71
     0
  0
GROUP
  5
1C29
102
{ACAD_REACTORS
330
18
102
}
330
18
100
AcDbGroup
300

 70
     3
 71
     0
  0
GROUP
  5
1BF8
102
{ACAD_REACTORS
330
18
102
}
330
18
100
AcDbGroup
300

 70
     3
 71
     0
  0
GROUP
  5
624F
102
{ACAD_REACTORS
330
18
102
}
330
18
100
AcDbGroup
300

 70
     3
 71
     0
  0
GROUP
  5
1B1A
102
{ACAD_REACTORS
330
18
102
}
330
18
100
AcDbGroup
300

 70
     3
 71
     0
  0
GROUP
  5
1AF2
102
{ACAD_REACTORS
330
18
102
}
330
18
100
AcDbGroup
300

 70
     3
 71
     0
  0
GROUP
  5
48B2
102
{ACAD_REACTORS
330
18
102
}
330
18
100
AcDbGroup
300

 70
     3
 71
     0
  0
GROUP
  5
37AE
102
{ACAD_REACTORS
330
18
102
}
330
18
100
AcDbGroup
300

 70
     3
 71
     0
  0
GROUP
  5
63D7
102
{ACAD_REACTORS
330
18
102
}
330
18
100
AcDbGroup
300

 70
     3
 71
     0
  0
GROUP
  5
6216
102
{ACAD_REACTORS
330
18
102
}
330
18
100
AcDbGroup
300

 70
     3
 71
     0
  0
GROUP
  5
1B37
102
{ACAD_REACTORS
330
18
102
}
330
18
100
AcDbGroup
300

 70
     3
 71
     0
  0
GROUP
  5
4986
102
{ACAD_REACTORS
330
18
102
}
330
18
100
AcDbGroup
300

 70
     3
 71
     0
  0
GROUP
  5
1B54
102
{ACAD_REACTORS
330
18
102
}
330
18
100
AcDbGroup
300

 70
     3
 71
     0
  0
GROUP
  5
4821
102
{ACAD_REACTORS
330
18
102
}
330
18
100
AcDbGroup
300

 70
     3
 71
     0
  0
GROUP
  5
37A1
102
{ACAD_REACTORS
330
18
102
}
330
18
100
AcDbGroup
300

 70
     3
 71
     0
  0
GROUP
  5
1B80
102
{ACAD_REACTORS
330
18
102
}
330
18
100
AcDbGroup
300

 70
     3
 71
     0
  0
GROUP
  5
6378
102
{ACAD_REACTORS
330
18
102
}
330
18
100
AcDbGroup
300

 70
     3
 71
     0
  0
GROUP
  5
1B34
102
{ACAD_REACTORS
330
18
102
}
330
18
100
AcDbGroup
300

 70
     3
 71
     0
  0
GROUP
  5
1B8E
102
{ACAD_REACTORS
330
18
102
}
330
18
100
AcDbGroup
300

 70
     3
 71
     0
  0
GROUP
  5
1B9F
102
{ACAD_REACTORS
330
18
102
}
330
18
100
AcDbGroup
300

 70
     3
 71
     0
  0
GROUP
  5
63D3
102
{ACAD_REACTORS
330
18
102
}
330
18
100
AcDbGroup
300

 70
     3
 71
     0
  0
GROUP
  5
1B49
102
{ACAD_REACTORS
330
18
102
}
330
18
100
AcDbGroup
300

 70
     3
 71
     0
  0
GROUP
  5
1B9D
102
{ACAD_REACTORS
330
18
102
}
330
18
100
AcDbGroup
300

 70
     3
 71
     0
  0
GROUP
  5
4893
102
{ACAD_REACTORS
330
18
102
}
330
18
100
AcDbGroup
300

 70
     3
 71
     0
  0
GROUP
  5
63BF
102
{ACAD_REACTORS
330
18
102
}
330
18
100
AcDbGroup
300

 70
     3
 71
     0
  0
GROUP
  5
6364
102
{ACAD_REACTORS
330
18
102
}
330
18
100
AcDbGroup
300

 70
     3
 71
     0
  0
GROUP
  5
62E0
102
{ACAD_REACTORS
330
18
102
}
330
18
100
AcDbGroup
300

 70
     3
 71
     0
  0
GROUP
  5
6348
102
{ACAD_REACTORS
330
18
102
}
330
18
100
AcDbGroup
300

 70
     3
 71
     0
  0
GROUP
  5
623D
102
{ACAD_REACTORS
330
18
102
}
330
18
100
AcDbGroup
300

 70
     3
 71
     0
  0
GROUP
  5
627C
102
{ACAD_REACTORS
330
18
102
}
330
18
100
AcDbGroup
300

 70
     3
 71
     0
  0
GROUP
  5
4839
102
{ACAD_REACTORS
330
18
102
}
330
18
100
AcDbGroup
300

 70
     3
 71
     0
  0
GROUP
  5
1B36
102
{ACAD_REACTORS
330
18
102
}
330
18
100
AcDbGroup
300

 70
     3
 71
     0
  0
GROUP
  5
62A9
102
{ACAD_REACTORS
330
18
102
}
330
18
100
AcDbGroup
300

 70
     3
 71
     0
  0
GROUP
  5
494C
102
{ACAD_REACTORS
330
18
102
}
330
18
100
AcDbGroup
300

 70
     3
 71
     0
  0
GROUP
  5
1454
102
{ACAD_REACTORS
330
18
102
}
330
18
100
AcDbGroup
300

 70
     3
 71
     0
  0
GROUP
  5
62BF
102
{ACAD_REACTORS
330
18
102
}
330
18
100
AcDbGroup
300

 70
     3
 71
     0
  0
GROUP
  5
4830
102
{ACAD_REACTORS
330
18
102
}
330
18
100
AcDbGroup
300

 70
     3
 71
     0
  0
GROUP
  5
63C7
102
{ACAD_REACTORS
330
18
102
}
330
18
100
AcDbGroup
300

 70
     3
 71
     0
  0
GROUP
  5
1B28
102
{ACAD_REACTORS
330
18
102
}
330
18
100
AcDbGroup
300

 70
     3
 71
     0
  0
GROUP
  5
4944
102
{ACAD_REACTORS
330
18
102
}
330
18
100
AcDbGroup
300

 70
     3
 71
     0
  0
GROUP
  5
6263
102
{ACAD_REACTORS
330
18
102
}
330
18
100
AcDbGroup
300

 70
     3
 71
     0
  0
GROUP
  5
1B65
102
{ACAD_REACTORS
330
18
102
}
330
18
100
AcDbGroup
300

 70
     3
 71
     0
  0
GROUP
  5
1BD7
102
{ACAD_REACTORS
330
18
102
}
330
18
100
AcDbGroup
300

 70
     3
 71
     0
  0
GROUP
  5
49FF
102
{ACAD_REACTORS
330
18
102
}
330
18
100
AcDbGroup
300

 70
     3
 71
     0
  0
GROUP
  5
49F3
102
{ACAD_REACTORS
330
18
102
}
330
18
100
AcDbGroup
300

 70
     3
 71
     0
  0
GROUP
  5
62F3
102
{ACAD_REACTORS
330
18
102
}
330
18
100
AcDbGroup
300

 70
     3
 71
     0
  0
GROUP
  5
1AF6
102
{ACAD_REACTORS
330
18
102
}
330
18
100
AcDbGroup
300

 70
     3
 71
     0
  0
GROUP
  5
1C0D
102
{ACAD_REACTORS
330
18
102
}
330
18
100
AcDbGroup
300

 70
     3
 71
     0
  0
GROUP
  5
480C
102
{ACAD_REACTORS
330
18
102
}
330
18
100
AcDbGroup
300

 70
     3
 71
     0
  0
GROUP
  5
484E
102
{ACAD_REACTORS
330
18
102
}
330
18
100
AcDbGroup
300

 70
     3
 71
     0
  0
GROUP
  5
49E5
102
{ACAD_REACTORS
330
18
102
}
330
18
100
AcDbGroup
300

 70
     3
 71
     0
  0
GROUP
  5
4825
102
{ACAD_REACTORS
330
18
102
}
330
18
100
AcDbGroup
300

 70
     3
 71
     0
  0
GROUP
  5
1C10
102
{ACAD_REACTORS
330
18
102
}
330
18
100
AcDbGroup
300

 70
     3
 71
     0
  0
GROUP
  5
1BDC
102
{ACAD_REACTORS
330
18
102
}
330
18
100
AcDbGroup
300

 70
     3
 71
     0
  0
GROUP
  5
37B4
102
{ACAD_REACTORS
330
18
102
}
330
18
100
AcDbGroup
300

 70
     3
 71
     0
  0
GROUP
  5
1B57
102
{ACAD_REACTORS
330
18
102
}
330
18
100
AcDbGroup
300

 70
     3
 71
     0
  0
GROUP
  5
4A09
102
{ACAD_REACTORS
330
18
102
}
330
18
100
AcDbGroup
300

 70
     3
 71
     0
  0
GROUP
  5
4970
102
{ACAD_REACTORS
330
18
102
}
330
18
100
AcDbGroup
300

 70
     3
 71
     0
  0
GROUP
  5
1C3E
102
{ACAD_REACTORS
330
18
102
}
330
18
100
AcDbGroup
300

 70
     3
 71
     0
  0
GROUP
  5
1C4F
102
{ACAD_REACTORS
330
18
102
}
330
18
100
AcDbGroup
300

 70
     3
 71
     0
  0
GROUP
  5
1B87
102
{ACAD_REACTORS
330
18
102
}
330
18
100
AcDbGroup
300

 70
     3
 71
     0
  0
GROUP
  5
62FB
102
{ACAD_REACTORS
330
18
102
}
330
18
100
AcDbGroup
300

 70
     3
 71
     0
  0
GROUP
  5
627E
102
{ACAD_REACTORS
330
18
102
}
330
18
100
AcDbGroup
300

 70
     3
 71
     0
  0
GROUP
  5
6237
102
{ACAD_REACTORS
330
18
102
}
330
18
100
AcDbGroup
300

 70
     3
 71
     0
  0
GROUP
  5
1C1F
102
{ACAD_REACTORS
330
18
102
}
330
18
100
AcDbGroup
300

 70
     3
 71
     0
  0
GROUP
  5
6320
102
{ACAD_REACTORS
330
18
102
}
330
18
100
AcDbGroup
300

 70
     3
 71
     0
  0
GROUP
  5
631F
102
{ACAD_REACTORS
330
18
102
}
330
18
100
AcDbGroup
300

 70
     3
 71
     0
  0
GROUP
  5
379C
102
{ACAD_REACTORS
330
18
102
}
330
18
100
AcDbGroup
300

 70
     3
 71
     0
  0
GROUP
  5
1B46
102
{ACAD_REACTORS
330
18
102
}
330
18
100
AcDbGroup
300

 70
     3
 71
     0
  0
GROUP
  5
37A0
102
{ACAD_REACTORS
330
18
102
}
330
18
100
AcDbGroup
300

 70
     3
 71
     0
  0
GROUP
  5
1C04
102
{ACAD_REACTORS
330
18
102
}
330
18
100
AcDbGroup
300

 70
     3
 71
     0
  0
GROUP
  5
1BE5
102
{ACAD_REACTORS
330
18
102
}
330
18
100
AcDbGroup
300

 70
     3
 71
     0
  0
GROUP
  5
63AB
102
{ACAD_REACTORS
330
18
102
}
330
18
100
AcDbGroup
300

 70
     3
 71
     0
  0
GROUP
  5
49C5
102
{ACAD_REACTORS
330
18
102
}
330
18
100
AcDbGroup
300

 70
     3
 71
     0
  0
GROUP
  5
1B6B
102
{ACAD_REACTORS
330
18
102
}
330
18
100
AcDbGroup
300

 70
     3
 71
     0
  0
GROUP
  5
495F
102
{ACAD_REACTORS
330
18
102
}
330
18
100
AcDbGroup
300

 70
     3
 71
     0
  0
GROUP
  5
1AFB
102
{ACAD_REACTORS
330
18
102
}
330
18
100
AcDbGroup
300

 70
     3
 71
     0
  0
GROUP
  5
1ADC
102
{ACAD_REACTORS
330
18
102
}
330
18
100
AcDbGroup
300

 70
     3
 71
     0
  0
GROUP
  5
1B97
102
{ACAD_REACTORS
330
18
102
}
330
18
100
AcDbGroup
300

 70
     3
 71
     0
  0
GROUP
  5
624B
102
{ACAD_REACTORS
330
18
102
}
330
18
100
AcDbGroup
300

 70
     3
 71
     0
  0
GROUP
  5
4A19
102
{ACAD_REACTORS
330
18
102
}
330
18
100
AcDbGroup
300

 70
     3
 71
     0
  0
GROUP
  5
1B85
102
{ACAD_REACTORS
330
18
102
}
330
18
100
AcDbGroup
300

 70
     3
 71
     0
  0
GROUP
  5
1ADE
102
{ACAD_REACTORS
330
18
102
}
330
18
100
AcDbGroup
300

 70
     3
 71
     0
  0
GROUP
  5
4818
102
{ACAD_REACTORS
330
18
102
}
330
18
100
AcDbGroup
300

 70
     3
 71
     0
  0
GROUP
  5
63A6
102
{ACAD_REACTORS
330
18
102
}
330
18
100
AcDbGroup
300

 70
     3
 71
     0
  0
GROUP
  5
4910
102
{ACAD_REACTORS
330
18
102
}
330
18
100
AcDbGroup
300

 70
     3
 71
     0
  0
GROUP
  5
6389
102
{ACAD_REACTORS
330
18
102
}
330
18
100
AcDbGroup
300

 70
     3
 71
     0
  0
GROUP
  5
145C
102
{ACAD_REACTORS
330
18
102
}
330
18
100
AcDbGroup
300

 70
     3
 71
     0
  0
GROUP
  5
1B44
102
{ACAD_REACTORS
330
18
102
}
330
18
100
AcDbGroup
300

 70
     3
 71
     0
  0
GROUP
  5
490E
102
{ACAD_REACTORS
330
18
102
}
330
18
100
AcDbGroup
300

 70
     3
 71
     0
  0
GROUP
  5
1C40
102
{ACAD_REACTORS
330
18
102
}
330
18
100
AcDbGroup
300

 70
     3
 71
     0
  0
GROUP
  5
1C33
102
{ACAD_REACTORS
330
18
102
}
330
18
100
AcDbGroup
300

 70
     3
 71
     0
  0
GROUP
  5
1C0F
102
{ACAD_REACTORS
330
18
102
}
330
18
100
AcDbGroup
300

 70
     3
 71
     0
  0
GROUP
  5
1B23
102
{ACAD_REACTORS
330
18
102
}
330
18
100
AcDbGroup
300

 70
     3
 71
     0
  0
GROUP
  5
635D
102
{ACAD_REACTORS
330
18
102
}
330
18
100
AcDbGroup
300

 70
     3
 71
     0
  0
GROUP
  5
48CD
102
{ACAD_REACTORS
330
18
102
}
330
18
100
AcDbGroup
300

 70
     3
 71
     0
  0
GROUP
  5
6358
102
{ACAD_REACTORS
330
18
102
}
330
18
100
AcDbGroup
300

 70
     3
 71
     0
  0
GROUP
  5
1C2C
102
{ACAD_REACTORS
330
18
102
}
330
18
100
AcDbGroup
300

 70
     3
 71
     0
  0
GROUP
  5
49BF
102
{ACAD_REACTORS
330
18
102
}
330
18
100
AcDbGroup
300

 70
     3
 71
     0
  0
GROUP
  5
1BC3
102
{ACAD_REACTORS
330
18
102
}
330
18
100
AcDbGroup
300

 70
     3
 71
     0
  0
GROUP
  5
4838
102
{ACAD_REACTORS
330
18
102
}
330
18
100
AcDbGroup
300

 70
     3
 71
     0
  0
GROUP
  5
1B17
102
{ACAD_REACTORS
330
18
102
}
330
18
100
AcDbGroup
300

 70
     3
 71
     0
  0
GROUP
  5
1B71
102
{ACAD_REACTORS
330
18
102
}
330
18
100
AcDbGroup
300

 70
     3
 71
     0
  0
GROUP
  5
145D
102
{ACAD_REACTORS
330
18
102
}
330
18
100
AcDbGroup
300

 70
     3
 71
     0
  0
GROUP
  5
62E7
102
{ACAD_REACTORS
330
18
102
}
330
18
100
AcDbGroup
300

 70
     3
 71
     0
  0
GROUP
  5
4820
102
{ACAD_REACTORS
330
18
102
}
330
18
100
AcDbGroup
300

 70
     3
 71
     0
  0
GROUP
  5
638E
102
{ACAD_REACTORS
330
18
102
}
330
18
100
AcDbGroup
300

 70
     3
 71
     0
  0
GROUP
  5
1C31
102
{ACAD_REACTORS
330
18
102
}
330
18
100
AcDbGroup
300

 70
     3
 71
     0
  0
GROUP
  5
6416
102
{ACAD_REACTORS
330
18
102
}
330
18
100
AcDbGroup
300

 70
     3
 71
     0
  0
GROUP
  5
62D6
102
{ACAD_REACTORS
330
18
102
}
330
18
100
AcDbGroup
300

 70
     3
 71
     0
  0
GROUP
  5
640E
102
{ACAD_REACTORS
330
18
102
}
330
18
100
AcDbGroup
300

 70
     3
 71
     0
  0
GROUP
  5
1B5A
102
{ACAD_REACTORS
330
18
102
}
330
18
100
AcDbGroup
300

 70
     3
 71
     0
  0
GROUP
  5
631B
102
{ACAD_REACTORS
330
18
102
}
330
18
100
AcDbGroup
300

 70
     3
 71
     0
  0
GROUP
  5
48F7
102
{ACAD_REACTORS
330
18
102
}
330
18
100
AcDbGroup
300

 70
     3
 71
     0
  0
GROUP
  5
1B40
102
{ACAD_REACTORS
330
18
102
}
330
18
100
AcDbGroup
300

 70
     3
 71
     0
  0
GROUP
  5
1B66
102
{ACAD_REACTORS
330
18
102
}
330
18
100
AcDbGroup
300

 70
     3
 71
     0
  0
GROUP
  5
1C2E
102
{ACAD_REACTORS
330
18
102
}
330
18
100
AcDbGroup
300

 70
     3
 71
     0
  0
GROUP
  5
4885
102
{ACAD_REACTORS
330
18
102
}
330
18
100
AcDbGroup
300

 70
     3
 71
     0
  0
GROUP
  5
1B1C
102
{ACAD_REACTORS
330
18
102
}
330
18
100
AcDbGroup
300

 70
     3
 71
     0
  0
GROUP
  5
62D5
102
{ACAD_REACTORS
330
18
102
}
330
18
100
AcDbGroup
300

 70
     3
 71
     0
  0
GROUP
  5
6344
102
{ACAD_REACTORS
330
18
102
}
330
18
100
AcDbGroup
300

 70
     3
 71
     0
  0
GROUP
  5
486A
102
{ACAD_REACTORS
330
18
102
}
330
18
100
AcDbGroup
300

 70
     3
 71
     0
  0
GROUP
  5
1B3F
102
{ACAD_REACTORS
330
18
102
}
330
18
100
AcDbGroup
300

 70
     3
 71
     0
  0
GROUP
  5
628B
102
{ACAD_REACTORS
330
18
102
}
330
18
100
AcDbGroup
300

 70
     3
 71
     0
  0
GROUP
  5
494E
102
{ACAD_REACTORS
330
18
102
}
330
18
100
AcDbGroup
300

 70
     3
 71
     0
  0
GROUP
  5
6312
102
{ACAD_REACTORS
330
18
102
}
330
18
100
AcDbGroup
300

 70
     3
 71
     0
  0
GROUP
  5
49A8
102
{ACAD_REACTORS
330
18
102
}
330
18
100
AcDbGroup
300

 70
     3
 71
     0
  0
GROUP
  5
48C7
102
{ACAD_REACTORS
330
18
102
}
330
18
100
AcDbGroup
300

 70
     3
 71
     1
  0
GROUP
  5
1BAC
102
{ACAD_REACTORS
330
18
102
}
330
18
100
AcDbGroup
300

 70
     3
 71
     0
  0
GROUP
  5
493B
102
{ACAD_REACTORS
330
18
102
}
330
18
100
AcDbGroup
300

 70
     3
 71
     0
  0
GROUP
  5
4A13
102
{ACAD_REACTORS
330
18
102
}
330
18
100
AcDbGroup
300

 70
     3
 71
     0
  0
GROUP
  5
62A1
102
{ACAD_REACTORS
330
18
102
}
330
18
100
AcDbGroup
300

 70
     3
 71
     0
  0
GROUP
  5
1B11
102
{ACAD_REACTORS
330
18
102
}
330
18
100
AcDbGroup
300

 70
     3
 71
     0
  0
GROUP
  5
633F
102
{ACAD_REACTORS
330
18
102
}
330
18
100
AcDbGroup
300

 70
     3
 71
     0
  0
GROUP
  5
1464
102
{ACAD_REACTORS
330
18
102
}
330
18
100
AcDbGroup
300

 70
     3
 71
     0
  0
GROUP
  5
48EE
102
{ACAD_REACTORS
330
18
102
}
330
18
100
AcDbGroup
300

 70
     3
 71
     0
  0
GROUP
  5
4877
102
{ACAD_REACTORS
330
18
102
}
330
18
100
AcDbGroup
300

 70
     3
 71
     0
  0
GROUP
  5
6407
102
{ACAD_REACTORS
330
18
102
}
330
18
100
AcDbGroup
300

 70
     3
 71
     0
  0
GROUP
  5
1BD2
102
{ACAD_REACTORS
330
18
102
}
330
18
100
AcDbGroup
300

 70
     3
 71
     0
  0
GROUP
  5
49D0
102
{ACAD_REACTORS
330
18
102
}
330
18
100
AcDbGroup
300

 70
     3
 71
     0
  0
GROUP
  5
1B61
102
{ACAD_REACTORS
330
18
102
}
330
18
100
AcDbGroup
300

 70
     3
 71
     0
  0
GROUP
  5
63B8
102
{ACAD_REACTORS
330
18
102
}
330
18
100
AcDbGroup
300

 70
     3
 71
     0
  0
GROUP
  5
48DE
102
{ACAD_REACTORS
330
18
102
}
330
18
100
AcDbGroup
300

 70
     3
 71
     0
  0
GROUP
  5
62D9
102
{ACAD_REACTORS
330
18
102
}
330
18
100
AcDbGroup
300

 70
     3
 71
     0
  0
GROUP
  5
6310
102
{ACAD_REACTORS
330
18
102
}
330
18
100
AcDbGroup
300

 70
     3
 71
     0
  0
GROUP
  5
492F
102
{ACAD_REACTORS
330
18
102
}
330
18
100
AcDbGroup
300

 70
     3
 71
     0
  0
GROUP
  5
145F
102
{ACAD_REACTORS
330
18
102
}
330
18
100
AcDbGroup
300

 70
     3
 71
     0
  0
GROUP
  5
63AA
102
{ACAD_REACTORS
330
18
102
}
330
18
100
AcDbGroup
300

 70
     3
 71
     0
  0
GROUP
  5
48E2
102
{ACAD_REACTORS
330
18
102
}
330
18
100
AcDbGroup
300

 70
     3
 71
     0
  0
GROUP
  5
48CA
102
{ACAD_REACTORS
330
18
102
}
330
18
100
AcDbGroup
300

 70
     3
 71
     0
  0
GROUP
  5
48A1
102
{ACAD_REACTORS
330
18
102
}
330
18
100
AcDbGroup
300

 70
     3
 71
     0
  0
GROUP
  5
499F
102
{ACAD_REACTORS
330
18
102
}
330
18
100
AcDbGroup
300

 70
     3
 71
     0
  0
GROUP
  5
6388
102
{ACAD_REACTORS
330
18
102
}
330
18
100
AcDbGroup
300

 70
     3
 71
     0
  0
GROUP
  5
4860
102
{ACAD_REACTORS
330
18
102
}
330
18
100
AcDbGroup
300

 70
     3
 71
     0
  0
GROUP
  5
1BF1
102
{ACAD_REACTORS
330
18
102
}
330
18
100
AcDbGroup
300

 70
     3
 71
     0
  0
GROUP
  5
1468
102
{ACAD_REACTORS
330
18
102
}
330
18
100
AcDbGroup
300

 70
     3
 71
     0
  0
GROUP
  5
62B6
102
{ACAD_REACTORS
330
18
102
}
330
18
100
AcDbGroup
300

 70
     3
 71
     0
  0
GROUP
  5
4828
102
{ACAD_REACTORS
330
18
102
}
330
18
100
AcDbGroup
300

 70
     3
 71
     0
  0
GROUP
  5
4938
102
{ACAD_REACTORS
330
18
102
}
330
18
100
AcDbGroup
300

 70
     3
 71
     0
  0
GROUP
  5
4940
102
{ACAD_REACTORS
330
18
102
}
330
18
100
AcDbGroup
300

 70
     3
 71
     0
  0
GROUP
  5
1BFD
102
{ACAD_REACTORS
330
18
102
}
330
18
100
AcDbGroup
300

 70
     3
 71
     0
  0
GROUP
  5
48D8
102
{ACAD_REACTORS
330
18
102
}
330
18
100
AcDbGroup
300

 70
     3
 71
     0
  0
GROUP
  5
63F1
102
{ACAD_REACTORS
330
18
102
}
330
18
100
AcDbGroup
300

 70
     3
 71
     0
  0
GROUP
  5
48ED
102
{ACAD_REACTORS
330
18
102
}
330
18
100
AcDbGroup
300

 70
     3
 71
     0
  0
GROUP
  5
1B15
102
{ACAD_REACTORS
330
18
102
}
330
18
100
AcDbGroup
300

 70
     3
 71
     0
  0
GROUP
  5
62BD
102
{ACAD_REACTORS
330
18
102
}
330
18
100
AcDbGroup
300

 70
     3
 71
     0
  0
GROUP
  5
1C2F
102
{ACAD_REACTORS
330
18
102
}
330
18
100
AcDbGroup
300

 70
     3
 71
     0
  0
GROUP
  5
1B7C
102
{ACAD_REACTORS
330
18
102
}
330
18
100
AcDbGroup
300

 70
     3
 71
     0
  0
GROUP
  5
3798
102
{ACAD_REACTORS
330
18
102
}
330
18
100
AcDbGroup
300

 70
     3
 71
     0
  0
GROUP
  5
1AE3
102
{ACAD_REACTORS
330
18
102
}
330
18
100
AcDbGroup
300

 70
     3
 71
     0
  0
GROUP
  5
636C
102
{ACAD_REACTORS
330
18
102
}
330
18
100
AcDbGroup
300

 70
     3
 71
     0
  0
GROUP
  5
37B1
102
{ACAD_REACTORS
330
18
102
}
330
18
100
AcDbGroup
300

 70
     3
 71
     0
  0
GROUP
  5
4889
102
{ACAD_REACTORS
330
18
102
}
330
18
100
AcDbGroup
300

 70
     3
 71
     0
  0
GROUP
  5
63C4
102
{ACAD_REACTORS
330
18
102
}
330
18
100
AcDbGroup
300

 70
     3
 71
     0
  0
GROUP
  5
1B33
102
{ACAD_REACTORS
330
18
102
}
330
18
100
AcDbGroup
300

 70
     3
 71
     0
  0
GROUP
  5
629E
102
{ACAD_REACTORS
330
18
102
}
330
18
100
AcDbGroup
300

 70
     3
 71
     0
  0
GROUP
  5
623C
102
{ACAD_REACTORS
330
18
102
}
330
18
100
AcDbGroup
300

 70
     3
 71
     0
  0
GROUP
  5
484B
102
{ACAD_REACTORS
330
18
102
}
330
18
100
AcDbGroup
300

 70
     3
 71
     0
  0
GROUP
  5
1B76
102
{ACAD_REACTORS
330
18
102
}
330
18
100
AcDbGroup
300

 70
     3
 71
     0
  0
GROUP
  5
1BA1
102
{ACAD_REACTORS
330
18
102
}
330
18
100
AcDbGroup
300

 70
     3
 71
     0
  0
GROUP
  5
1B63
102
{ACAD_REACTORS
330
18
102
}
330
18
100
AcDbGroup
300

 70
     3
 71
     0
  0
GROUP
  5
63DB
102
{ACAD_REACTORS
330
18
102
}
330
18
100
AcDbGroup
300

 70
     3
 71
     0
  0
GROUP
  5
4816
102
{ACAD_REACTORS
330
18
102
}
330
18
100
AcDbGroup
300

 70
     3
 71
     0
  0
GROUP
  5
4851
102
{ACAD_REACTORS
330
18
102
}
330
18
100
AcDbGroup
300

 70
     3
 71
     0
  0
GROUP
  5
62E2
102
{ACAD_REACTORS
330
18
102
}
330
18
100
AcDbGroup
300

 70
     3
 71
     0
  0
GROUP
  5
1AE4
102
{ACAD_REACTORS
330
18
102
}
330
18
100
AcDbGroup
300

 70
     3
 71
     0
  0
GROUP
  5
628D
102
{ACAD_REACTORS
330
18
102
}
330
18
100
AcDbGroup
300

 70
     3
 71
     0
  0
GROUP
  5
641E
102
{ACAD_REACTORS
330
18
102
}
330
18
100
AcDbGroup
300

 70
     3
 71
     0
  0
GROUP
  5
639B
102
{ACAD_REACTORS
330
18
102
}
330
18
100
AcDbGroup
300

 70
     3
 71
     0
  0
GROUP
  5
6259
102
{ACAD_REACTORS
330
18
102
}
330
18
100
AcDbGroup
300

 70
     3
 71
     0
  0
GROUP
  5
62BC
102
{ACAD_REACTORS
330
18
102
}
330
18
100
AcDbGroup
300

 70
     3
 71
     0
  0
GROUP
  5
4985
102
{ACAD_REACTORS
330
18
102
}
330
18
100
AcDbGroup
300

 70
     3
 71
     0
  0
GROUP
  5
481C
102
{ACAD_REACTORS
330
18
102
}
330
18
100
AcDbGroup
300

 70
     3
 71
     0
  0
GROUP
  5
63B4
102
{ACAD_REACTORS
330
18
102
}
330
18
100
AcDbGroup
300

 70
     3
 71
     0
  0
GROUP
  5
495A
102
{ACAD_REACTORS
330
18
102
}
330
18
100
AcDbGroup
300

 70
     3
 71
     0
  0
GROUP
  5
48F3
102
{ACAD_REACTORS
330
18
102
}
330
18
100
AcDbGroup
300

 70
     3
 71
     0
  0
GROUP
  5
622E
102
{ACAD_REACTORS
330
18
102
}
330
18
100
AcDbGroup
300

 70
     3
 71
     0
  0
GROUP
  5
1B90
102
{ACAD_REACTORS
330
18
102
}
330
18
100
AcDbGroup
300

 70
     3
 71
     0
  0
GROUP
  5
4A0A
102
{ACAD_REACTORS
330
18
102
}
330
18
100
AcDbGroup
300

 70
     3
 71
     0
  0
GROUP
  5
632A
102
{ACAD_REACTORS
330
18
102
}
330
18
100
AcDbGroup
300

 70
     3
 71
     0
  0
GROUP
  5
1C06
102
{ACAD_REACTORS
330
18
102
}
330
18
100
AcDbGroup
300

 70
     3
 71
     0
  0
GROUP
  5
62EB
102
{ACAD_REACTORS
330
18
102
}
330
18
100
AcDbGroup
300

 70
     3
 71
     0
  0
GROUP
  5
1B21
102
{ACAD_REACTORS
330
18
102
}
330
18
100
AcDbGroup
300

 70
     3
 71
     0
  0
GROUP
  5
1BA4
102
{ACAD_REACTORS
330
18
102
}
330
18
100
AcDbGroup
300

 70
     3
 71
     0
  0
GROUP
  5
640F
102
{ACAD_REACTORS
330
18
102
}
330
18
100
AcDbGroup
300

 70
     3
 71
     0
  0
GROUP
  5
62FA
102
{ACAD_REACTORS
330
18
102
}
330
18
100
AcDbGroup
300

 70
     3
 71
     0
  0
GROUP
  5
6366
102
{ACAD_REACTORS
330
18
102
}
330
18
100
AcDbGroup
300

 70
     3
 71
     0
  0
GROUP
  5
1C0B
102
{ACAD_REACTORS
330
18
102
}
330
18
100
AcDbGroup
300

 70
     3
 71
     0
  0
GROUP
  5
49A3
102
{ACAD_REACTORS
330
18
102
}
330
18
100
AcDbGroup
300

 70
     3
 71
     0
  0
GROUP
  5
1B0F
102
{ACAD_REACTORS
330
18
102
}
330
18
100
AcDbGroup
300

 70
     3
 71
     0
  0
GROUP
  5
1ADB
102
{ACAD_REACTORS
330
18
102
}
330
18
100
AcDbGroup
300

 70
     3
 71
     0
  0
GROUP
  5
494F
102
{ACAD_REACTORS
330
18
102
}
330
18
100
AcDbGroup
300

 70
     3
 71
     0
  0
GROUP
  5
6235
102
{ACAD_REACTORS
330
18
102
}
330
18
100
AcDbGroup
300

 70
     3
 71
     0
  0
GROUP
  5
48FD
102
{ACAD_REACTORS
330
18
102
}
330
18
100
AcDbGroup
300

 70
     3
 71
     0
  0
GROUP
  5
1B9B
102
{ACAD_REACTORS
330
18
102
}
330
18
100
AcDbGroup
300

 70
     3
 71
     0
  0
GROUP
  5
4906
102
{ACAD_REACTORS
330
18
102
}
330
18
100
AcDbGroup
300

 70
     3
 71
     0
  0
GROUP
  5
6380
102
{ACAD_REACTORS
330
18
102
}
330
18
100
AcDbGroup
300

 70
     3
 71
     0
  0
GROUP
  5
49A4
102
{ACAD_REACTORS
330
18
102
}
330
18
100
AcDbGroup
300

 70
     3
 71
     0
  0
GROUP
  5
486D
102
{ACAD_REACTORS
330
18
102
}
330
18
100
AcDbGroup
300

 70
     3
 71
     0
  0
GROUP
  5
482A
102
{ACAD_REACTORS
330
18
102
}
330
18
100
AcDbGroup
300

 70
     3
 71
     0
  0
GROUP
  5
4835
102
{ACAD_REACTORS
330
18
102
}
330
18
100
AcDbGroup
300

 70
     3
 71
     0
  0
GROUP
  5
1C11
102
{ACAD_REACTORS
330
18
102
}
330
18
100
AcDbGroup
300

 70
     3
 71
     0
  0
GROUP
  5
483B
102
{ACAD_REACTORS
330
18
102
}
330
18
100
AcDbGroup
300

 70
     3
 71
     0
  0
GROUP
  5
4965
102
{ACAD_REACTORS
330
18
102
}
330
18
100
AcDbGroup
300

 70
     3
 71
     0
  0
GROUP
  5
4904
102
{ACAD_REACTORS
330
18
102
}
330
18
100
AcDbGroup
300

 70
     3
 71
     0
  0
GROUP
  5
1AEA
102
{ACAD_REACTORS
330
18
102
}
330
18
100
AcDbGroup
300

 70
     3
 71
     0
  0
GROUP
  5
1C0A
102
{ACAD_REACTORS
330
18
102
}
330
18
100
AcDbGroup
300

 70
     3
 71
     0
  0
GROUP
  5
1AD3
102
{ACAD_REACTORS
330
18
102
}
330
18
100
AcDbGroup
300

 70
     3
 71
     0
  0
GROUP
  5
6296
102
{ACAD_REACTORS
330
18
102
}
330
18
100
AcDbGroup
300

 70
     3
 71
     0
  0
GROUP
  5
48CF
102
{ACAD_REACTORS
330
18
102
}
330
18
100
AcDbGroup
300

 70
     3
 71
     0
  0
GROUP
  5
6257
102
{ACAD_REACTORS
330
18
102
}
330
18
100
AcDbGroup
300

 70
     3
 71
     0
  0
GROUP
  5
1ACB
102
{ACAD_REACTORS
330
18
102
}
330
18
100
AcDbGroup
300

 70
     3
 71
     0
  0
GROUP
  5
1B05
102
{ACAD_REACTORS
330
18
102
}
330
18
100
AcDbGroup
300

 70
     3
 71
     0
  0
GROUP
  5
48B6
102
{ACAD_REACTORS
330
18
102
}
330
18
100
AcDbGroup
300

 70
     3
 71
     0
  0
GROUP
  5
498E
102
{ACAD_REACTORS
330
18
102
}
330
18
100
AcDbGroup
300

 70
     3
 71
     0
  0
GROUP
  5
4876
102
{ACAD_REACTORS
330
18
102
}
330
18
100
AcDbGroup
300

 70
     3
 71
     0
  0
GROUP
  5
62FC
102
{ACAD_REACTORS
330
18
102
}
330
18
100
AcDbGroup
300

 70
     3
 71
     0
  0
GROUP
  5
48C0
102
{ACAD_REACTORS
330
18
102
}
330
18
100
AcDbGroup
300

 70
     3
 71
     0
  0
GROUP
  5
484F
102
{ACAD_REACTORS
330
18
102
}
330
18
100
AcDbGroup
300

 70
     3
 71
     0
  0
GROUP
  5
4976
102
{ACAD_REACTORS
330
18
102
}
330
18
100
AcDbGroup
300

 70
     3
 71
     0
  0
GROUP
  5
1BA0
102
{ACAD_REACTORS
330
18
102
}
330
18
100
AcDbGroup
300

 70
     3
 71
     0
  0
GROUP
  5
63A0
102
{ACAD_REACTORS
330
18
102
}
330
18
100
AcDbGroup
300

 70
     3
 71
     0
  0
GROUP
  5
1BA9
102
{ACAD_REACTORS
330
18
102
}
330
18
100
AcDbGroup
300

 70
     3
 71
     0
  0
GROUP
  5
48A6
102
{ACAD_REACTORS
330
18
102
}
330
18
100
AcDbGroup
300

 70
     3
 71
     0
  0
GROUP
  5
6411
102
{ACAD_REACTORS
330
18
102
}
330
18
100
AcDbGroup
300

 70
     3
 71
     0
  0
GROUP
  5
6374
102
{ACAD_REACTORS
330
18
102
}
330
18
100
AcDbGroup
300

 70
     3
 71
     0
  0
GROUP
  5
1C55
102
{ACAD_REACTORS
330
18
102
}
330
18
100
AcDbGroup
300

 70
     3
 71
     0
  0
GROUP
  5
1B81
102
{ACAD_REACTORS
330
18
102
}
330
18
100
AcDbGroup
300

 70
     3
 71
     0
  0
GROUP
  5
498B
102
{ACAD_REACTORS
330
18
102
}
330
18
100
AcDbGroup
300

 70
     3
 71
     0
  0
GROUP
  5
627A
102
{ACAD_REACTORS
330
18
102
}
330
18
100
AcDbGroup
300

 70
     3
 71
     0
  0
GROUP
  5
1B29
102
{ACAD_REACTORS
330
18
102
}
330
18
100
AcDbGroup
300

 70
     3
 71
     0
  0
GROUP
  5
48FB
102
{ACAD_REACTORS
330
18
102
}
330
18
100
AcDbGroup
300

 70
     3
 71
     0
  0
GROUP
  5
63A7
102
{ACAD_REACTORS
330
18
102
}
330
18
100
AcDbGroup
300

 70
     3
 71
     0
  0
GROUP
  5
4854
102
{ACAD_REACTORS
330
18
102
}
330
18
100
AcDbGroup
300

 70
     3
 71
     0
  0
GROUP
  5
1AFE
102
{ACAD_REACTORS
330
18
102
}
330
18
100
AcDbGroup
300

 70
     3
 71
     0
  0
GROUP
  5
6265
102
{ACAD_REACTORS
330
18
102
}
330
18
100
AcDbGroup
300

 70
     3
 71
     0
  0
GROUP
  5
37C3
102
{ACAD_REACTORS
330
18
102
}
330
18
100
AcDbGroup
300

 70
     3
 71
     0
  0
GROUP
  5
480D
102
{ACAD_REACTORS
330
18
102
}
330
18
100
AcDbGroup
300

 70
     3
 71
     0
  0
GROUP
  5
49C6
102
{ACAD_REACTORS
330
18
102
}
330
18
100
AcDbGroup
300

 70
     3
 71
     0
  0
GROUP
  5
6254
102
{ACAD_REACTORS
330
18
102
}
330
18
100
AcDbGroup
300

 70
     3
 71
     0
  0
GROUP
  5
1C5F
102
{ACAD_REACTORS
330
18
102
}
330
18
100
AcDbGroup
300

 70
     3
 71
     0
  0
GROUP
  5
1BC5
102
{ACAD_REACTORS
330
18
102
}
330
18
100
AcDbGroup
300

 70
     3
 71
     0
  0
GROUP
  5
1455
102
{ACAD_REACTORS
330
18
102
}
330
18
100
AcDbGroup
300

 70
     3
 71
     0
  0
GROUP
  5
48CE
102
{ACAD_REACTORS
330
18
102
}
330
18
100
AcDbGroup
300

 70
     3
 71
     0
  0
GROUP
  5
6345
102
{ACAD_REACTORS
330
18
102
}
330
18
100
AcDbGroup
300

 70
     3
 71
     0
  0
GROUP
  5
6287
102
{ACAD_REACTORS
330
18
102
}
330
18
100
AcDbGroup
300

 70
     3
 71
     0
  0
GROUP
  5
63F3
102
{ACAD_REACTORS
330
18
102
}
330
18
100
AcDbGroup
300

 70
     3
 71
     0
  0
GROUP
  5
63E0
102
{ACAD_REACTORS
330
18
102
}
330
18
100
AcDbGroup
300

 70
     3
 71
     0
  0
GROUP
  5
37A2
102
{ACAD_REACTORS
330
18
102
}
330
18
100
AcDbGroup
300

 70
     3
 71
     0
  0
GROUP
  5
1B32
102
{ACAD_REACTORS
330
18
102
}
330
18
100
AcDbGroup
300

 70
     3
 71
     0
  0
GROUP
  5
6367
102
{ACAD_REACTORS
330
18
102
}
330
18
100
AcDbGroup
300

 70
     3
 71
     0
  0
GROUP
  5
62E4
102
{ACAD_REACTORS
330
18
102
}
330
18
100
AcDbGroup
300

 70
     3
 71
     0
  0
GROUP
  5
494B
102
{ACAD_REACTORS
330
18
102
}
330
18
100
AcDbGroup
300

 70
     3
 71
     0
  0
GROUP
  5
1C49
102
{ACAD_REACTORS
330
18
102
}
330
18
100
AcDbGroup
300

 70
     3
 71
     0
  0
GROUP
  5
1B30
102
{ACAD_REACTORS
330
18
102
}
330
18
100
AcDbGroup
300

 70
     3
 71
     0
  0
GROUP
  5
49DF
102
{ACAD_REACTORS
330
18
102
}
330
18
100
AcDbGroup
300

 70
     3
 71
     0
  0
GROUP
  5
629D
102
{ACAD_REACTORS
330
18
102
}
330
18
100
AcDbGroup
300

 70
     3
 71
     0
  0
GROUP
  5
6419
102
{ACAD_REACTORS
330
18
102
}
330
18
100
AcDbGroup
300

 70
     3
 71
     0
  0
GROUP
  5
49F7
102
{ACAD_REACTORS
330
18
102
}
330
18
100
AcDbGroup
300

 70
     3
 71
     0
  0
GROUP
  5
641C
102
{ACAD_REACTORS
330
18
102
}
330
18
100
AcDbGroup
300

 70
     3
 71
     0
  0
GROUP
  5
6355
102
{ACAD_REACTORS
330
18
102
}
330
18
100
AcDbGroup
300

 70
     3
 71
     0
  0
GROUP
  5
63C0
102
{ACAD_REACTORS
330
18
102
}
330
18
100
AcDbGroup
300

 70
     3
 71
     0
  0
GROUP
  5
63CC
102
{ACAD_REACTORS
330
18
102
}
330
18
100
AcDbGroup
300

 70
     3
 71
     0
  0
GROUP
  5
62DB
102
{ACAD_REACTORS
330
18
102
}
330
18
100
AcDbGroup
300

 70
     3
 71
     0
  0
GROUP
  5
4826
102
{ACAD_REACTORS
330
18
102
}
330
18
100
AcDbGroup
300

 70
     3
 71
     0
  0
GROUP
  5
6305
102
{ACAD_REACTORS
330
18
102
}
330
18
100
AcDbGroup
300

 70
     3
 71
     0
  0
GROUP
  5
6293
102
{ACAD_REACTORS
330
18
102
}
330
18
100
AcDbGroup
300

 70
     3
 71
     0
  0
GROUP
  5
1AE7
102
{ACAD_REACTORS
330
18
102
}
330
18
100
AcDbGroup
300

 70
     3
 71
     0
  0
GROUP
  5
6426
102
{ACAD_REACTORS
330
18
102
}
330
18
100
AcDbGroup
300

 70
     3
 71
     0
  0
GROUP
  5
6410
102
{ACAD_REACTORS
330
18
102
}
330
18
100
AcDbGroup
300

 70
     3
 71
     0
  0
GROUP
  5
1B4E
102
{ACAD_REACTORS
330
18
102
}
330
18
100
AcDbGroup
300

 70
     3
 71
     0
  0
GROUP
  5
1C16
102
{ACAD_REACTORS
330
18
102
}
330
18
100
AcDbGroup
300

 70
     3
 71
     0
  0
GROUP
  5
48D7
102
{ACAD_REACTORS
330
18
102
}
330
18
100
AcDbGroup
300

 70
     3
 71
     0
  0
GROUP
  5
1C26
102
{ACAD_REACTORS
330
18
102
}
330
18
100
AcDbGroup
300

 70
     3
 71
     0
  0
GROUP
  5
1BE7
102
{ACAD_REACTORS
330
18
102
}
330
18
100
AcDbGroup
300

 70
     3
 71
     0
  0
GROUP
  5
6376
102
{ACAD_REACTORS
330
18
102
}
330
18
100
AcDbGroup
300

 70
     3
 71
     0
  0
GROUP
  5
49F9
102
{ACAD_REACTORS
330
18
102
}
330
18
100
AcDbGroup
300

 70
     3
 71
     0
  0
GROUP
  5
37B8
102
{ACAD_REACTORS
330
18
102
}
330
18
100
AcDbGroup
300

 70
     3
 71
     0
  0
GROUP
  5
1AF9
102
{ACAD_REACTORS
330
18
102
}
330
18
100
AcDbGroup
300

 70
     3
 71
     0
  0
GROUP
  5
4994
102
{ACAD_REACTORS
330
18
102
}
330
18
100
AcDbGroup
300

 70
     3
 71
     0
  0
GROUP
  5
1BA7
102
{ACAD_REACTORS
330
18
102
}
330
18
100
AcDbGroup
300

 70
     3
 71
     0
  0
GROUP
  5
1B67
102
{ACAD_REACTORS
330
18
102
}
330
18
100
AcDbGroup
300

 70
     3
 71
     0
  0
GROUP
  5
37AF
102
{ACAD_REACTORS
330
18
102
}
330
18
100
AcDbGroup
300

 70
     3
 71
     0
  0
GROUP
  5
4941
102
{ACAD_REACTORS
330
18
102
}
330
18
100
AcDbGroup
300

 70
     3
 71
     0
  0
GROUP
  5
624A
102
{ACAD_REACTORS
330
18
102
}
330
18
100
AcDbGroup
300

 70
     3
 71
     0
  0
GROUP
  5
1B31
102
{ACAD_REACTORS
330
18
102
}
330
18
100
AcDbGroup
300

 70
     3
 71
     0
  0
GROUP
  5
6336
102
{ACAD_REACTORS
330
18
102
}
330
18
100
AcDbGroup
300

 70
     3
 71
     0
  0
GROUP
  5
1B4D
102
{ACAD_REACTORS
330
18
102
}
330
18
100
AcDbGroup
300

 70
     3
 71
     0
  0
GROUP
  5
1AF8
102
{ACAD_REACTORS
330
18
102
}
330
18
100
AcDbGroup
300

 70
     3
 71
     0
  0
GROUP
  5
63DF
102
{ACAD_REACTORS
330
18
102
}
330
18
100
AcDbGroup
300

 70
     3
 71
     0
  0
GROUP
  5
63D8
102
{ACAD_REACTORS
330
18
102
}
330
18
100
AcDbGroup
300

 70
     3
 71
     0
  0
GROUP
  5
6251
102
{ACAD_REACTORS
330
18
102
}
330
18
100
AcDbGroup
300

 70
     3
 71
     0
  0
GROUP
  5
482F
102
{ACAD_REACTORS
330
18
102
}
330
18
100
AcDbGroup
300

 70
     3
 71
     0
  0
GROUP
  5
488E
102
{ACAD_REACTORS
330
18
102
}
330
18
100
AcDbGroup
300

 70
     3
 71
     0
  0
GROUP
  5
1BC6
102
{ACAD_REACTORS
330
18
102
}
330
18
100
AcDbGroup
300

 70
     3
 71
     0
  0
GROUP
  5
1C2A
102
{ACAD_REACTORS
330
18
102
}
330
18
100
AcDbGroup
300

 70
     3
 71
     0
  0
GROUP
  5
1B96
102
{ACAD_REACTORS
330
18
102
}
330
18
100
AcDbGroup
300

 70
     3
 71
     0
  0
GROUP
  5
49A7
102
{ACAD_REACTORS
330
18
102
}
330
18
100
AcDbGroup
300

 70
     3
 71
     0
  0
GROUP
  5
489A
102
{ACAD_REACTORS
330
18
102
}
330
18
100
AcDbGroup
300

 70
     3
 71
     0
  0
GROUP
  5
6246
102
{ACAD_REACTORS
330
18
102
}
330
18
100
AcDbGroup
300

 70
     3
 71
     0
  0
GROUP
  5
496D
102
{ACAD_REACTORS
330
18
102
}
330
18
100
AcDbGroup
300

 70
     3
 71
     0
  0
GROUP
  5
62DA
102
{ACAD_REACTORS
330
18
102
}
330
18
100
AcDbGroup
300

 70
     3
 71
     0
  0
GROUP
  5
499E
102
{ACAD_REACTORS
330
18
102
}
330
18
100
AcDbGroup
300

 70
     3
 71
     0
  0
GROUP
  5
640D
102
{ACAD_REACTORS
330
18
102
}
330
18
100
AcDbGroup
300

 70
     3
 71
     0
  0
GROUP
  5
1BAF
102
{ACAD_REACTORS
330
18
102
}
330
18
100
AcDbGroup
300

 70
     3
 71
     0
  0
GROUP
  5
6349
102
{ACAD_REACTORS
330
18
102
}
330
18
100
AcDbGroup
300

 70
     3
 71
     0
  0
GROUP
  5
48A7
102
{ACAD_REACTORS
330
18
102
}
330
18
100
AcDbGroup
300

 70
     3
 71
     0
  0
GROUP
  5
1C30
102
{ACAD_REACTORS
330
18
102
}
330
18
100
AcDbGroup
300

 70
     3
 71
     0
  0
GROUP
  5
1B2D
102
{ACAD_REACTORS
330
18
102
}
330
18
100
AcDbGroup
300

 70
     3
 71
     0
  0
GROUP
  5
49D1
102
{ACAD_REACTORS
330
18
102
}
330
18
100
AcDbGroup
300

 70
     3
 71
     0
  0
GROUP
  5
4969
102
{ACAD_REACTORS
330
18
102
}
330
18
100
AcDbGroup
300

 70
     3
 71
     0
  0
GROUP
  5
48EA
102
{ACAD_REACTORS
330
18
102
}
330
18
100
AcDbGroup
300

 70
     3
 71
     0
  0
GROUP
  5
493E
102
{ACAD_REACTORS
330
18
102
}
330
18
100
AcDbGroup
300

 70
     3
 71
     0
  0
GROUP
  5
49F2
102
{ACAD_REACTORS
330
18
102
}
330
18
100
AcDbGroup
300

 70
     3
 71
     0
  0
GROUP
  5
62E8
102
{ACAD_REACTORS
330
18
102
}
330
18
100
AcDbGroup
300

 70
     3
 71
     0
  0
GROUP
  5
6225
102
{ACAD_REACTORS
330
18
102
}
330
18
100
AcDbGroup
300

 70
     3
 71
     0
  0
GROUP
  5
62D7
102
{ACAD_REACTORS
330
18
102
}
330
18
100
AcDbGroup
300

 70
     3
 71
     0
  0
GROUP
  5
62F0
102
{ACAD_REACTORS
330
18
102
}
330
18
100
AcDbGroup
300

 70
     3
 71
     0
  0
GROUP
  5
1B01
102
{ACAD_REACTORS
330
18
102
}
330
18
100
AcDbGroup
300

 70
     3
 71
     0
  0
GROUP
  5
1C38
102
{ACAD_REACTORS
330
18
102
}
330
18
100
AcDbGroup
300

 70
     3
 71
     0
  0
GROUP
  5
4939
102
{ACAD_REACTORS
330
18
102
}
330
18
100
AcDbGroup
300

 70
     3
 71
     0
  0
GROUP
  5
623E
102
{ACAD_REACTORS
330
18
102
}
330
18
100
AcDbGroup
300

 70
     3
 71
     0
  0
GROUP
  5
48DB
102
{ACAD_REACTORS
330
18
102
}
330
18
100
AcDbGroup
300

 70
     3
 71
     0
  0
GROUP
  5
63A4
102
{ACAD_REACTORS
330
18
102
}
330
18
100
AcDbGroup
300

 70
     3
 71
     0
  0
GROUP
  5
49AF
102
{ACAD_REACTORS
330
18
102
}
330
18
100
AcDbGroup
300

 70
     3
 71
     0
  0
GROUP
  5
623A
102
{ACAD_REACTORS
330
18
102
}
330
18
100
AcDbGroup
300

 70
     3
 71
     0
  0
GROUP
  5
6403
102
{ACAD_REACTORS
330
18
102
}
330
18
100
AcDbGroup
300

 70
     3
 71
     0
  0
GROUP
  5
62B3
102
{ACAD_REACTORS
330
18
102
}
330
18
100
AcDbGroup
300

 70
     3
 71
     0
  0
GROUP
  5
4987
102
{ACAD_REACTORS
330
18
102
}
330
18
100
AcDbGroup
300

 70
     3
 71
     0
  0
GROUP
  5
1B9C
102
{ACAD_REACTORS
330
18
102
}
330
18
100
AcDbGroup
300

 70
     3
 71
     0
  0
GROUP
  5
1AF1
102
{ACAD_REACTORS
330
18
102
}
330
18
100
AcDbGroup
300

 70
     3
 71
     0
  0
GROUP
  5
6250
102
{ACAD_REACTORS
330
18
102
}
330
18
100
AcDbGroup
300

 70
     3
 71
     0
  0
GROUP
  5
6372
102
{ACAD_REACTORS
330
18
102
}
330
18
100
AcDbGroup
300

 70
     3
 71
     0
  0
GROUP
  5
4963
102
{ACAD_REACTORS
330
18
102
}
330
18
100
AcDbGroup
300

 70
     3
 71
     0
  0
GROUP
  5
4832
102
{ACAD_REACTORS
330
18
102
}
330
18
100
AcDbGroup
300

 70
     3
 71
     0
  0
GROUP
  5
6351
102
{ACAD_REACTORS
330
18
102
}
330
18
100
AcDbGroup
300

 70
     3
 71
     0
  0
GROUP
  5
6243
102
{ACAD_REACTORS
330
18
102
}
330
18
100
AcDbGroup
300

 70
     3
 71
     0
  0
GROUP
  5
48EF
102
{ACAD_REACTORS
330
18
102
}
330
18
100
AcDbGroup
300

 70
     3
 71
     0
  0
GROUP
  5
62D0
102
{ACAD_REACTORS
330
18
102
}
330
18
100
AcDbGroup
300

 70
     3
 71
     0
  0
GROUP
  5
1AE6
102
{ACAD_REACTORS
330
18
102
}
330
18
100
AcDbGroup
300

 70
     3
 71
     0
  0
GROUP
  5
6409
102
{ACAD_REACTORS
330
18
102
}
330
18
100
AcDbGroup
300

 70
     3
 71
     0
  0
GROUP
  5
48D5
102
{ACAD_REACTORS
330
18
102
}
330
18
100
AcDbGroup
300

 70
     3
 71
     0
  0
GROUP
  5
6422
102
{ACAD_REACTORS
330
18
102
}
330
18
100
AcDbGroup
300

 70
     3
 71
     0
  0
GROUP
  5
63FD
102
{ACAD_REACTORS
330
18
102
}
330
18
100
AcDbGroup
300

 70
     3
 71
     0
  0
GROUP
  5
628A
102
{ACAD_REACTORS
330
18
102
}
330
18
100
AcDbGroup
300

 70
     3
 71
     0
  0
GROUP
  5
4A00
102
{ACAD_REACTORS
330
18
102
}
330
18
100
AcDbGroup
300

 70
     3
 71
     0
  0
GROUP
  5
6258
102
{ACAD_REACTORS
330
18
102
}
330
18
100
AcDbGroup
300

 70
     3
 71
     0
  0
GROUP
  5
1BC8
102
{ACAD_REACTORS
330
18
102
}
330
18
100
AcDbGroup
300

 70
     3
 71
     0
  0
GROUP
  5
491D
102
{ACAD_REACTORS
330
18
102
}
330
18
100
AcDbGroup
300

 70
     3
 71
     0
  0
GROUP
  5
37BA
102
{ACAD_REACTORS
330
18
102
}
330
18
100
AcDbGroup
300

 70
     3
 71
     0
  0
GROUP
  5
1BE6
102
{ACAD_REACTORS
330
18
102
}
330
18
100
AcDbGroup
300

 70
     3
 71
     0
  0
GROUP
  5
4934
102
{ACAD_REACTORS
330
18
102
}
330
18
100
AcDbGroup
300

 70
     3
 71
     0
  0
GROUP
  5
4875
102
{ACAD_REACTORS
330
18
102
}
330
18
100
AcDbGroup
300

 70
     3
 71
     0
  0
GROUP
  5
4831
102
{ACAD_REACTORS
330
18
102
}
330
18
100
AcDbGroup
300

 70
     3
 71
     0
  0
GROUP
  5
630B
102
{ACAD_REACTORS
330
18
102
}
330
18
100
AcDbGroup
300

 70
     3
 71
     0
  0
GROUP
  5
6353
102
{ACAD_REACTORS
330
18
102
}
330
18
100
AcDbGroup
300

 70
     3
 71
     0
  0
GROUP
  5
62A7
102
{ACAD_REACTORS
330
18
102
}
330
18
100
AcDbGroup
300

 70
     3
 71
     0
  0
GROUP
  5
1B0D
102
{ACAD_REACTORS
330
18
102
}
330
18
100
AcDbGroup
300

 70
     3
 71
     0
  0
GROUP
  5
1B39
102
{ACAD_REACTORS
330
18
102
}
330
18
100
AcDbGroup
300

 70
     3
 71
     0
  0
GROUP
  5
1AD5
102
{ACAD_REACTORS
330
18
102
}
330
18
100
AcDbGroup
300

 70
     3
 71
     0
  0
GROUP
  5
489C
102
{ACAD_REACTORS
330
18
102
}
330
18
100
AcDbGroup
300

 70
     3
 71
     0
  0
GROUP
  5
1AF7
102
{ACAD_REACTORS
330
18
102
}
330
18
100
AcDbGroup
300

 70
     3
 71
     0
  0
GROUP
  5
623B
102
{ACAD_REACTORS
330
18
102
}
330
18
100
AcDbGroup
300

 70
     3
 71
     0
  0
GROUP
  5
1B4C
102
{ACAD_REACTORS
330
18
102
}
330
18
100
AcDbGroup
300

 70
     3
 71
     0
  0
GROUP
  5
627F
102
{ACAD_REACTORS
330
18
102
}
330
18
100
AcDbGroup
300

 70
     3
 71
     0
  0
GROUP
  5
6252
102
{ACAD_REACTORS
330
18
102
}
330
18
100
AcDbGroup
300

 70
     3
 71
     0
  0
GROUP
  5
48C3
102
{ACAD_REACTORS
330
18
102
}
330
18
100
AcDbGroup
300

 70
     3
 71
     0
  0
GROUP
  5
1BFF
102
{ACAD_REACTORS
330
18
102
}
330
18
100
AcDbGroup
300

 70
     3
 71
     0
  0
GROUP
  5
63D0
102
{ACAD_REACTORS
330
18
102
}
330
18
100
AcDbGroup
300

 70
     3
 71
     0
  0
GROUP
  5
621E
102
{ACAD_REACTORS
330
18
102
}
330
18
100
AcDbGroup
300

 70
     3
 71
     0
  0
GROUP
  5
6371
102
{ACAD_REACTORS
330
18
102
}
330
18
100
AcDbGroup
300

 70
     3
 71
     0
  0
GROUP
  5
49CC
102
{ACAD_REACTORS
330
18
102
}
330
18
100
AcDbGroup
300

 70
     3
 71
     0
  0
GROUP
  5
63A1
102
{ACAD_REACTORS
330
18
102
}
330
18
100
AcDbGroup
300

 70
     3
 71
     0
  0
GROUP
  5
62AB
102
{ACAD_REACTORS
330
18
102
}
330
18
100
AcDbGroup
300

 70
     3
 71
     0
  0
GROUP
  5
481A
102
{ACAD_REACTORS
330
18
102
}
330
18
100
AcDbGroup
300

 70
     3
 71
     0
  0
GROUP
  5
1BDB
102
{ACAD_REACTORS
330
18
102
}
330
18
100
AcDbGroup
300

 70
     3
 71
     0
  0
GROUP
  5
1B6D
102
{ACAD_REACTORS
330
18
102
}
330
18
100
AcDbGroup
300

 70
     3
 71
     0
  0
GROUP
  5
63F2
102
{ACAD_REACTORS
330
18
102
}
330
18
100
AcDbGroup
300

 70
     3
 71
     0
  0
GROUP
  5
4855
102
{ACAD_REACTORS
330
18
102
}
330
18
100
AcDbGroup
300

 70
     3
 71
     0
  0
GROUP
  5
1ADD
102
{ACAD_REACTORS
330
18
102
}
330
18
100
AcDbGroup
300

 70
     3
 71
     0
  0
GROUP
  5
1C12
102
{ACAD_REACTORS
330
18
102
}
330
18
100
AcDbGroup
300

 70
     3
 71
     0
  0
GROUP
  5
1C57
102
{ACAD_REACTORS
330
18
102
}
330
18
100
AcDbGroup
300

 70
     3
 71
     0
  0
GROUP
  5
484A
102
{ACAD_REACTORS
330
18
102
}
330
18
100
AcDbGroup
300

 70
     3
 71
     0
  0
GROUP
  5
4908
102
{ACAD_REACTORS
330
18
102
}
330
18
100
AcDbGroup
300

 70
     3
 71
     0
  0
GROUP
  5
6231
102
{ACAD_REACTORS
330
18
102
}
330
18
100
AcDbGroup
300

 70
     3
 71
     0
  0
GROUP
  5
4836
102
{ACAD_REACTORS
330
18
102
}
330
18
100
AcDbGroup
300

 70
     3
 71
     0
  0
GROUP
  5
4856
102
{ACAD_REACTORS
330
18
102
}
330
18
100
AcDbGroup
300

 70
     3
 71
     0
  0
GROUP
  5
48CB
102
{ACAD_REACTORS
330
18
102
}
330
18
100
AcDbGroup
300

 70
     3
 71
     0
  0
GROUP
  5
483E
102
{ACAD_REACTORS
330
18
102
}
330
18
100
AcDbGroup
300

 70
     3
 71
     0
  0
GROUP
  5
4809
102
{ACAD_REACTORS
330
18
102
}
330
18
100
AcDbGroup
300

 70
     3
 71
     0
  0
GROUP
  5
1BD9
102
{ACAD_REACTORS
330
18
102
}
330
18
100
AcDbGroup
300

 70
     3
 71
     0
  0
GROUP
  5
62E5
102
{ACAD_REACTORS
330
18
102
}
330
18
100
AcDbGroup
300

 70
     3
 71
     0
  0
GROUP
  5
63F5
102
{ACAD_REACTORS
330
18
102
}
330
18
100
AcDbGroup
300

 70
     3
 71
     0
  0
GROUP
  5
1AD6
102
{ACAD_REACTORS
330
18
102
}
330
18
100
AcDbGroup
300

 70
     3
 71
     0
  0
GROUP
  5
6420
102
{ACAD_REACTORS
330
18
102
}
330
18
100
AcDbGroup
300

 70
     3
 71
     0
  0
GROUP
  5
499D
102
{ACAD_REACTORS
330
18
102
}
330
18
100
AcDbGroup
300

 70
     3
 71
     0
  0
GROUP
  5
62B4
102
{ACAD_REACTORS
330
18
102
}
330
18
100
AcDbGroup
300

 70
     3
 71
     0
  0
GROUP
  5
49DA
102
{ACAD_REACTORS
330
18
102
}
330
18
100
AcDbGroup
300

 70
     3
 71
     0
  0
GROUP
  5
63BE
102
{ACAD_REACTORS
330
18
102
}
330
18
100
AcDbGroup
300

 70
     3
 71
     0
  0
GROUP
  5
1C5B
102
{ACAD_REACTORS
330
18
102
}
330
18
100
AcDbGroup
300

 70
     3
 71
     0
  0
GROUP
  5
6315
102
{ACAD_REACTORS
330
18
102
}
330
18
100
AcDbGroup
300

 70
     3
 71
     0
  0
GROUP
  5
4892
102
{ACAD_REACTORS
330
18
102
}
330
18
100
AcDbGroup
300

 70
     3
 71
     0
  0
GROUP
  5
630C
102
{ACAD_REACTORS
330
18
102
}
330
18
100
AcDbGroup
300

 70
     3
 71
     0
  0
GROUP
  5
4901
102
{ACAD_REACTORS
330
18
102
}
330
18
100
AcDbGroup
300

 70
     3
 71
     0
  0
GROUP
  5
1C60
102
{ACAD_REACTORS
330
18
102
}
330
18
100
AcDbGroup
300

 70
     3
 71
     0
  0
GROUP
  5
6413
102
{ACAD_REACTORS
330
18
102
}
330
18
100
AcDbGroup
300

 70
     3
 71
     0
  0
GROUP
  5
63C6
102
{ACAD_REACTORS
330
18
102
}
330
18
100
AcDbGroup
300

 70
     3
 71
     0
  0
GROUP
  5
1BA5
102
{ACAD_REACTORS
330
18
102
}
330
18
100
AcDbGroup
300

 70
     3
 71
     0
  0
GROUP
  5
4829
102
{ACAD_REACTORS
330
18
102
}
330
18
100
AcDbGroup
300

 70
     3
 71
     0
  0
GROUP
  5
48A3
102
{ACAD_REACTORS
330
18
102
}
330
18
100
AcDbGroup
300

 70
     3
 71
     0
  0
GROUP
  5
62EF
102
{ACAD_REACTORS
330
18
102
}
330
18
100
AcDbGroup
300

 70
     3
 71
     0
  0
GROUP
  5
6377
102
{ACAD_REACTORS
330
18
102
}
330
18
100
AcDbGroup
300

 70
     3
 71
     0
  0
GROUP
  5
4857
102
{ACAD_REACTORS
330
18
102
}
330
18
100
AcDbGroup
300

 70
     3
 71
     0
  0
GROUP
  5
4945
102
{ACAD_REACTORS
330
18
102
}
330
18
100
AcDbGroup
300

 70
     3
 71
     0
  0
GROUP
  5
1B94
102
{ACAD_REACTORS
330
18
102
}
330
18
100
AcDbGroup
300

 70
     3
 71
     0
  0
GROUP
  5
49B5
102
{ACAD_REACTORS
330
18
102
}
330
18
100
AcDbGroup
300

 70
     3
 71
     0
  0
GROUP
  5
1BFE
102
{ACAD_REACTORS
330
18
102
}
330
18
100
AcDbGroup
300

 70
     3
 71
     0
  0
GROUP
  5
63EF
102
{ACAD_REACTORS
330
18
102
}
330
18
100
AcDbGroup
300

 70
     3
 71
     0
  0
GROUP
  5
1BF0
102
{ACAD_REACTORS
330
18
102
}
330
18
100
AcDbGroup
300

 70
     3
 71
     0
  0
GROUP
  5
6405
102
{ACAD_REACTORS
330
18
102
}
330
18
100
AcDbGroup
300

 70
     3
 71
     0
  0
GROUP
  5
1C1D
102
{ACAD_REACTORS
330
18
102
}
330
18
100
AcDbGroup
300

 70
     3
 71
     0
  0
GROUP
  5
1BCF
102
{ACAD_REACTORS
330
18
102
}
330
18
100
AcDbGroup
300

 70
     3
 71
     0
  0
GROUP
  5
48C9
102
{ACAD_REACTORS
330
18
102
}
330
18
100
AcDbGroup
300

 70
     3
 71
     0
  0
GROUP
  5
1B6E
102
{ACAD_REACTORS
330
18
102
}
330
18
100
AcDbGroup
300

 70
     3
 71
     0
  0
GROUP
  5
6279
102
{ACAD_REACTORS
330
18
102
}
330
18
100
AcDbGroup
300

 70
     3
 71
     0
  0
GROUP
  5
63DC
102
{ACAD_REACTORS
330
18
102
}
330
18
100
AcDbGroup
300

 70
     3
 71
     0
  0
GROUP
  5
4842
102
{ACAD_REACTORS
330
18
102
}
330
18
100
AcDbGroup
300

 70
     3
 71
     0
  0
GROUP
  5
4A02
102
{ACAD_REACTORS
330
18
102
}
330
18
100
AcDbGroup
300

 70
     3
 71
     0
  0
GROUP
  5
1BEA
102
{ACAD_REACTORS
330
18
102
}
330
18
100
AcDbGroup
300

 70
     3
 71
     0
  0
GROUP
  5
1C5D
102
{ACAD_REACTORS
330
18
102
}
330
18
100
AcDbGroup
300

 70
     3
 71
     0
  0
GROUP
  5
631D
102
{ACAD_REACTORS
330
18
102
}
330
18
100
AcDbGroup
300

 70
     3
 71
     0
  0
GROUP
  5
1C25
102
{ACAD_REACTORS
330
18
102
}
330
18
100
AcDbGroup
300

 70
     3
 71
     0
  0
GROUP
  5
1B77
102
{ACAD_REACTORS
330
18
102
}
330
18
100
AcDbGroup
300

 70
     3
 71
     0
  0
GROUP
  5
49E3
102
{ACAD_REACTORS
330
18
102
}
330
18
100
AcDbGroup
300

 70
     3
 71
     0
  0
GROUP
  5
6337
102
{ACAD_REACTORS
330
18
102
}
330
18
100
AcDbGroup
300

 70
     3
 71
     0
  0
GROUP
  5
1B50
102
{ACAD_REACTORS
330
18
102
}
330
18
100
AcDbGroup
300

 70
     3
 71
     0
  0
GROUP
  5
48F8
102
{ACAD_REACTORS
330
18
102
}
330
18
100
AcDbGroup
300

 70
     3
 71
     0
  0
GROUP
  5
4A04
102
{ACAD_REACTORS
330
18
102
}
330
18
100
AcDbGroup
300

 70
     3
 71
     0
  0
GROUP
  5
636A
102
{ACAD_REACTORS
330
18
102
}
330
18
100
AcDbGroup
300

 70
     3
 71
     0
  0
GROUP
  5
6346
102
{ACAD_REACTORS
330
18
102
}
330
18
100
AcDbGroup
300

 70
     3
 71
     0
  0
GROUP
  5
6347
102
{ACAD_REACTORS
330
18
102
}
330
18
100
AcDbGroup
300

 70
     3
 71
     0
  0
GROUP
  5
4A0C
102
{ACAD_REACTORS
330
18
102
}
330
18
100
AcDbGroup
300

 70
     3
 71
     0
  0
GROUP
  5
640C
102
{ACAD_REACTORS
330
18
102
}
330
18
100
AcDbGroup
300

 70
     3
 71
     0
  0
GROUP
  5
49C4
102
{ACAD_REACTORS
330
18
102
}
330
18
100
AcDbGroup
300

 70
     3
 71
     0
  0
GROUP
  5
4887
102
{ACAD_REACTORS
330
18
102
}
330
18
100
AcDbGroup
300

 70
     3
 71
     0
  0
GROUP
  5
62B0
102
{ACAD_REACTORS
330
18
102
}
330
18
100
AcDbGroup
300

 70
     3
 71
     0
  0
GROUP
  5
48FA
102
{ACAD_REACTORS
330
18
102
}
330
18
100
AcDbGroup
300

 70
     3
 71
     0
  0
GROUP
  5
49F5
102
{ACAD_REACTORS
330
18
102
}
330
18
100
AcDbGroup
300

 70
     3
 71
     0
  0
GROUP
  5
6302
102
{ACAD_REACTORS
330
18
102
}
330
18
100
AcDbGroup
300

 70
     3
 71
     0
  0
GROUP
  5
62F7
102
{ACAD_REACTORS
330
18
102
}
330
18
100
AcDbGroup
300

 70
     3
 71
     0
  0
MLINESTYLE
  5
1D
102
{ACAD_REACTORS
330
19
102
}
330
19
100
AcDbMlineStyle
  2
STANDARD
 70
     0
  3

 62
     0
 51
90.0
 52
90.0
 71
     2
 49
0.5
 62
   256
  6
BYLAYER
 49
-0.5
 62
   256
  6
BYLAYER
  0
ACDBPLACEHOLDER
  5
EDC6
102
{ACAD_REACTORS
330
EDC5
102
}
330
EDC5
100
AcDbPlaceHolder
280
     0
  0
XRECORD
  5
1FE50
102
{ACAD_REACTORS
330
1FE46
102
}
330
1FE46
100
AcDbXrecord
 90
        0
  0
XRECORD
  5
1FE54
102
{ACAD_REACTORS
330
1FE46
102
}
330
1FE46
100
AcDbXrecord
1000
DSTYLE
1002
{
1070
    79
 70
     2
1070
   179
 70
     1
1002
}
  0
XRECORD
  5
1FE51
102
{ACAD_REACTORS
330
1FE46
102
}
330
1FE46
100
AcDbXrecord
  1
{5EB6113A-69ED-450E-876F-E97B1CCBD74B}
  0
XRECORD
  5
1FE49
102
{ACAD_REACTORS
330
1FE46
102
}
330
1FE46
100
AcDbXrecord
  1

  0
XRECORD
  5
1FE4F
102
{ACAD_REACTORS
330
1FE46
102
}
330
1FE46
100
AcDbXrecord
 90
        0
  0
XRECORD
  5
1FE4B
102
{ACAD_REACTORS
330
1FE46
102
}
330
1FE46
100
AcDbXrecord
340
EDC7
  0
XRECORD
  5
1FE4E
102
{ACAD_REACTORS
330
1FE46
102
}
330
1FE46
100
AcDbXrecord
 90
    14877
  0
XRECORD
  5
1FE4C
102
{ACAD_REACTORS
330
1FE46
102
}
330
1FE46
100
AcDbXrecord
340
EDC8
  0
XRECORD
  5
1FE4D
102
{ACAD_REACTORS
330
1FE46
102
}
330
1FE46
100
AcDbXrecord
340
EDC5
  0
XRECORD
  5
1FE53
102
{ACAD_REACTORS
330
1FE46
102
}
330
1FE46
100
AcDbXrecord
 40
0.0
  0
XRECORD
  5
1FE57
102
{ACAD_REACTORS
330
1FE46
102
}
330
1FE46
100
AcDbXrecord
340
0
  0
XRECORD
  5
1FE5D
102
{ACAD_REACTORS
330
1FE46
102
}
330
1FE46
100
AcDbXrecord
 10
0.0
 20
0.0
 30
0.0
  0
XRECORD
  5
1FE59
102
{ACAD_REACTORS
330
1FE46
102
}
330
1FE46
100
AcDbXrecord
 10
0.0
 20
0.0
 30
0.0
  0
XRECORD
  5
1FE5C
102
{ACAD_REACTORS
330
1FE46
102
}
330
1FE46
100
AcDbXrecord
 10
0.0
 20
0.0
 30
0.0
  0
XRECORD
  5
1FE5A
102
{ACAD_REACTORS
330
1FE46
102
}
330
1FE46
100
AcDbXrecord
 10
0.0
 20
0.0
 30
0.0
  0
XRECORD
  5
1FE5B
102
{ACAD_REACTORS
330
1FE46
102
}
330
1FE46
100
AcDbXrecord
 10
0.0
 20
0.0
 30
0.0
  0
XRECORD
  5
1FE58
102
{ACAD_REACTORS
330
1FE46
102
}
330
1FE46
100
AcDbXrecord
 10
0.0
 20
0.0
 30
0.0
  0
XRECORD
  5
1FE55
102
{ACAD_REACTORS
330
1FE46
102
}
330
1FE46
100
AcDbXrecord
340
0
  0
XRECORD
  5
1FE56
102
{ACAD_REACTORS
330
1FE46
102
}
330
1FE46
100
AcDbXrecord
 70
     0
  0
XRECORD
  5
1FE4A
102
{ACAD_REACTORS
330
1FE46
102
}
330
1FE46
100
AcDbXrecord
  1

  0
XRECORD
  5
1FE47
102
{ACAD_REACTORS
330
1FE46
102
}
330
1FE46
100
AcDbXrecord
 90
        1
  0
XRECORD
  5
1FE48
102
{ACAD_REACTORS
330
1FE46
102
}
330
1FE46
100
AcDbXrecord
 90
       70
  0
XRECORD
  5
1FE60
102
{ACAD_REACTORS
330
1FE46
102
}
330
1FE46
100
AcDbXrecord
340
0
  0
XRECORD
  5
1FE66
102
{ACAD_REACTORS
330
1FE46
102
}
330
1FE46
100
AcDbXrecord
 10
0.0
 20
0.0
 30
0.0
  0
XRECORD
  5
1FE62
102
{ACAD_REACTORS
330
1FE46
102
}
330
1FE46
100
AcDbXrecord
 10
0.0
 20
0.0
 30
0.0
  0
XRECORD
  5
1FE65
102
{ACAD_REACTORS
330
1FE46
102
}
330
1FE46
100
AcDbXrecord
 10
0.0
 20
0.0
 30
0.0
  0
XRECORD
  5
1FE63
102
{ACAD_REACTORS
330
1FE46
102
}
330
1FE46
100
AcDbXrecord
 10
0.0
 20
0.0
 30
0.0
  0
XRECORD
  5
1FE64
102
{ACAD_REACTORS
330
1FE46
102
}
330
1FE46
100
AcDbXrecord
 10
0.0
 20
0.0
 30
0.0
  0
XRECORD
  5
1FE61
102
{ACAD_REACTORS
330
1FE46
102
}
330
1FE46
100
AcDbXrecord
 10
0.0
 20
0.0
 30
0.0
  0
XRECORD
  5
1FE5E
102
{ACAD_REACTORS
330
1FE46
102
}
330
1FE46
100
AcDbXrecord
340
0
  0
XRECORD
  5
1FE5F
102
{ACAD_REACTORS
330
1FE46
102
}
330
1FE46
100
AcDbXrecord
 70
     0
  0
XRECORD
  5
1FE52
102
{ACAD_REACTORS
330
1FE46
102
}
330
1FE46
100
AcDbXrecord
  1
{2613BE65-A5DC-4B7B-85ED-0A3844A7EA13}
  0
DICTIONARYVAR
  5
EDE8
102
{ACAD_REACTORS
330
EDE7
102
}
330
EDE7
100
DictionaryVariables
280
     0
  1
1
  0
ENDSEC
  0
EOF
