  0
SECTION
  2
HEADER
  9
$ACADVER
  1
AC1014
  9
$ACADMAINTVER
 70
     9
  9
$DWGCODEPAGE
  3
ANSI_1252
  9
$INSBASE
 10
421.0218958999721
 20
357.7769748938917
 30
0.0
  9
$EXTMIN
 10
-11889.07976548437
 20
2915.899649440529
 30
0.0
  9
$EXTMAX
 10
-9005.901314011074
 20
5896.851113222137
 30
0.0
  9
$LIMMIN
 10
9749.260046900117
 20
-1602.70564605534
  9
$LIMMAX
 10
11438.24325486453
 20
-732.5285748461251
  9
$ORTHOMODE
 70
     1
  9
$REGENMODE
 70
     1
  9
$FILLMODE
 70
     1
  9
$QTEXTMODE
 70
     0
  9
$MIRRTEXT
 70
     1
  9
$DRAGMODE
 70
     2
  9
$LTSCALE
 40
5.0
  9
$OSMODE
 70
   128
  9
$ATTMODE
 70
     1
  9
$TEXTSIZE
 40
40.0
  9
$TRACEWID
 40
1.0
  9
$TEXTSTYLE
  7
ROMANS8
  9
$CLAYER
  8
VLB
  9
$CELTYPE
  6
BYLAYER
  9
$CECOLOR
 62
   256
  9
$CELTSCALE
 40
1.0
  9
$DELOBJ
 70
     1
  9
$DISPSILH
 70
     0
  9
$DIMSCALE
 40
20.0
  9
$DIMASZ
 40
3.5
  9
$DIMEXO
 40
0.1
  9
$DIMDLI
 40
7.0
  9
$DIMRND
 40
0.0
  9
$DIMDLE
 40
0.0
  9
$DIMEXE
 40
1.8
  9
$DIMTP
 40
0.0
  9
$DIMTM
 40
0.0
  9
$DIMTXT
 40
3.5
  9
$DIMCEN
 40
0.0
  9
$DIMTSZ
 40
0.0
  9
$DIMTOL
 70
     0
  9
$DIMLIM
 70
     0
  9
$DIMTIH
 70
     0
  9
$DIMTOH
 70
     0
  9
$DIMSE1
 70
     0
  9
$DIMSE2
 70
     0
  9
$DIMTAD
 70
     1
  9
$DIMZIN
 70
     8
  9
$DIMBLK
  1

  9
$DIMASO
 70
     1
  9
$DIMSHO
 70
     0
  9
$DIMPOST
  1

  9
$DIMAPOST
  1

  9
$DIMALT
 70
     0
  9
$DIMALTD
 70
     2
  9
$DIMALTF
 40
25.4
  9
$DIMLFAC
 40
1.0
  9
$DIMTOFL
 70
     0
  9
$DIMTVP
 40
0.0
  9
$DIMTIX
 70
     0
  9
$DIMSOXD
 70
     0
  9
$DIMSAH
 70
     0
  9
$DIMBLK1
  1

  9
$DIMBLK2
  1

  9
$DIMSTYLE
  2
1_20
  9
$DIMCLRD
 70
   256
  9
$DIMCLRE
 70
   256
  9
$DIMCLRT
 70
   256
  9
$DIMTFAC
 40
1.0
  9
$DIMGAP
 40
1.7
  9
$DIMJUST
 70
     0
  9
$DIMSD1
 70
     0
  9
$DIMSD2
 70
     0
  9
$DIMTOLJ
 70
     1
  9
$DIMTZIN
 70
     8
  9
$DIMALTZ
 70
     0
  9
$DIMALTTZ
 70
     0
  9
$DIMFIT
 70
     3
  9
$DIMUPT
 70
     1
  9
$DIMUNIT
 70
     2
  9
$DIMDEC
 70
     4
  9
$DIMTDEC
 70
     4
  9
$DIMALTU
 70
     2
  9
$DIMALTTD
 70
     2
  9
$DIMTXSTY
  7
ROMANS
  9
$DIMAUNIT
 70
     0
  9
$LUNITS
 70
     2
  9
$LUPREC
 70
     2
  9
$SKETCHINC
 40
1.0
  9
$FILLETRAD
 40
0.0
  9
$AUNITS
 70
     0
  9
$AUPREC
 70
     2
  9
$MENU
  1
ACAD
  9
$ELEVATION
 40
0.0
  9
$PELEVATION
 40
0.0
  9
$THICKNESS
 40
0.0
  9
$LIMCHECK
 70
     0
  9
$BLIPMODE
 70
     0
  9
$CHAMFERA
 40
15.0
  9
$CHAMFERB
 40
15.0
  9
$CHAMFERC
 40
0.0
  9
$CHAMFERD
 40
0.0
  9
$SKPOLY
 70
     0
  9
$TDCREATE
 40
2453677.393372893
  9
$TDUPDATE
 40
2453682.579005023
  9
$TDINDWG
 40
0.4889511111
  9
$TDUSRTIMER
 40
0.4889490278
  9
$USRTIMER
 70
     1
  9
$ANGBASE
 50
0.0
  9
$ANGDIR
 70
     0
  9
$PDMODE
 70
     2
  9
$PDSIZE
 40
2.0
  9
$PLINEWID
 40
0.0
  9
$COORDS
 70
     0
  9
$SPLFRAME
 70
     0
  9
$SPLINETYPE
 70
     6
  9
$SPLINESEGS
 70
     8
  9
$ATTDIA
 70
     0
  9
$ATTREQ
 70
     1
  9
$HANDLING
 70
 22529
  9
$HANDSEED
  5
1FE6B
  9
$SURFTAB1
 70
     6
  9
$SURFTAB2
 70
     6
  9
$SURFTYPE
 70
     6
  9
$SURFU
 70
     6
  9
$SURFV
 70
     6
  9
$UCSNAME
  2

  9
$UCSORG
 10
10154.57763192681
 20
-1347.460051185509
 30
0.0
  9
$UCSXDIR
 10
1.0
 20
0.0
 30
0.0
  9
$UCSYDIR
 10
0.0
 20
1.0
 30
0.0
  9
$PUCSNAME
  2

  9
$PUCSORG
 10
0.0
 20
0.0
 30
0.0
  9
$PUCSXDIR
 10
1.0
 20
0.0
 30
0.0
  9
$PUCSYDIR
 10
0.0
 20
1.0
 30
0.0
  9
$USERI1
 70
     0
  9
$USERI2
 70
     0
  9
$USERI3
 70
     0
  9
$USERI4
 70
     0
  9
$USERI5
 70
     0
  9
$USERR1
 40
0.0
  9
$USERR2
 40
0.0
  9
$USERR3
 40
0.0
  9
$USERR4
 40
0.0
  9
$USERR5
 40
0.0
  9
$WORLDVIEW
 70
     1
  9
$SHADEDGE
 70
     3
  9
$SHADEDIF
 70
    70
  9
$TILEMODE
 70
     1
  9
$MAXACTVP
 70
    16
  9
$PINSBASE
 10
0.0
 20
0.0
 30
0.0
  9
$PLIMCHECK
 70
     0
  9
$PEXTMIN
 10
-559.9955194189885
 20
-11.99914987354685
 30
0.0
  9
$PEXTMAX
 10
898.8167291158939
 20
692.004025362777
 30
5.0
  9
$PLIMMIN
 10
-581.4504078847034
 20
-42.42333302514301
  9
$PLIMMAX
 10
920.2716460794404
 20
1019.530090726515
  9
$UNITMODE
 70
     1
  9
$VISRETAIN
 70
     0
  9
$PLINEGEN
 70
     0
  9
$PSLTSCALE
 70
     0
  9
$TREEDEPTH
 70
  3020
  9
$PICKSTYLE
 70
     1
  9
$CMLSTYLE
  2
STANDARD
  9
$CMLJUST
 70
     0
  9
$CMLSCALE
 40
1.0
  9
$PROXYGRAPHICS
 70
     1
  9
$MEASUREMENT
 70
     1
  0
ENDSEC
  0
SECTION
  2
CLASSES
  0
CLASS
  1
IDBUFFER
  2
AcDbIdBuffer
  3
AutoCAD 2000
 90
        0
280
     0
281
     0
  0
CLASS
  1
LWPOLYLINE
  2
AcDbPolyline
  3
AutoCAD 2000
 90
        0
280
     0
281
     1
  0
CLASS
  1
DICTIONARYVAR
  2
AcDbDictionaryVar
  3
AutoCAD 2000
 90
        0
280
     0
281
     0
  0
CLASS
  1
HATCH
  2
AcDbHatch
  3
AutoCAD 2000
 90
        0
280
     0
281
     1
  0
CLASS
  1
ACDBDICTIONARYWDFLT
  2
AcDbDictionaryWithDefault
  3
AutoCAD 2000
 90
        0
280
     0
281
     0
  0
CLASS
  1
ACDBPLACEHOLDER
  2
AcDbPlaceHolder
  3
AutoCAD 2000
 90
        0
280
     0
281
     0
  0
CLASS
  1
LAYOUT
  2
AcDbLayout
  3
AutoCAD 2000
 90
        0
280
     0
281
     0
  0
CLASS
  1
LONG_TRANSACTION
  2
AcDbLongTransaction
  3
AutoCAD 2000
 90
        0
280
     0
281
     0
  0
CLASS
  1
LWPOLYLINE
  2
AcDbPolyline
  3
AutoCAD 2000
 90
        0
280
     0
281
     1
  0
CLASS
  1
HATCH
  2
AcDbHatch
  3
AutoCAD 2000
 90
        0
280
     0
281
     1
  0
CLASS
  1
XRECORD
  2
AcDbXrecord
  3
AutoCAD 2000
 90
        0
280
     0
281
     0
  0
ENDSEC
  0
SECTION
  2
TABLES
  0
TABLE
  2
VPORT
  5
12
330
0
100
AcDbSymbolTable
 70
     2
  0
VPORT
  5
1FE45
330
12
100
AcDbSymbolTableRecord
100
AcDbViewportTableRecord
  2
*ACTIVE
 70
     0
 10
0.0
 20
0.0
 11
1.0
 21
1.0
 12
-10448.27686816187
 22
4406.389220792627
 13
0.0
 23
0.0
 14
1.0
 24
1.0
 15
10.0
 25
10.0
 16
0.0
 26
0.0
 36
1.0
 17
0.0
 27
0.0
 37
0.0
 40
3009.758955275709
 41
1.714968152866241
 42
50.0
 43
0.0
 44
0.0
 50
0.0
 51
0.0
 71
     0
 72
  1000
 73
     1
 74
     1
 75
     0
 76
     0
 77
     0
 78
     0
  0
ENDTAB
  0
TABLE
  2
LTYPE
  5
D
330
0
100
AcDbSymbolTable
 70
     3
  0
LTYPE
  5
E
330
D
100
AcDbSymbolTableRecord
100
AcDbLinetypeTableRecord
  2
BYBLOCK
 70
     0
  3

 72
    65
 73
     0
 40
0.0
  0
LTYPE
  5
F
330
D
100
AcDbSymbolTableRecord
100
AcDbLinetypeTableRecord
  2
BYLAYER
 70
     0
  3

 72
    65
 73
     0
 40
0.0
  0
LTYPE
  5
5
330
D
100
AcDbSymbolTableRecord
100
AcDbLinetypeTableRecord
  2
AUSGEZOGEN
 70
     0
  3
Ausgezogene Linie
 72
    65
 73
     0
 40
0.0
  0
LTYPE
  5
21
330
D
100
AcDbSymbolTableRecord
100
AcDbLinetypeTableRecord
  2
MLA3
 70
     0
  3
------ - -------
 72
    65
 73
     4
 40
15.0
 49
10.0
 74
     0
 49
-2.0
 74
     0
 49
1.0
 74
     0
 49
-2.0
 74
     0
  0
LTYPE
  5
540
330
D
100
AcDbSymbolTableRecord
100
AcDbLinetypeTableRecord
  2
CONTINUOUS
 70
     0
  3
Solid line
 72
    65
 73
     0
 40
0.0
  0
ENDTAB
  0
TABLE
  2
LAYER
  5
A
330
0
100
AcDbSymbolTable
 70
     5
  0
LAYER
  5
4
330
A
100
AcDbSymbolTableRecord
100
AcDbLayerTableRecord
  2
0
 70
     0
 62
     7
  6
AUSGEZOGEN
  0
LAYER
  5
1B
330
A
100
AcDbSymbolTableRecord
100
AcDbLayerTableRecord
  2
VLB
 70
     0
 62
     7
  6
AUSGEZOGEN
  0
LAYER
  5
20
330
A
100
AcDbSymbolTableRecord
100
AcDbLayerTableRecord
  2
SPS
 70
     0
 62
     1
  6
MLA3
  0
LAYER
  5
5B
330
A
100
AcDbSymbolTableRecord
100
AcDbLayerTableRecord
  2
VLS
 70
     0
 62
   252
  6
AUSGEZOGEN
  0
LAYER
  5
73C
330
A
100
AcDbSymbolTableRecord
100
AcDbLayerTableRecord
  2
DEFPOINTS
 70
     0
 62
     7
  6
AUSGEZOGEN
  0
ENDTAB
  0
TABLE
  2
STYLE
  5
B
330
0
100
AcDbSymbolTable
 70
     3
  0
STYLE
  5
C
330
B
100
AcDbSymbolTableRecord
100
AcDbTextStyleTableRecord
  2
STANDARD
 70
     0
 40
0.0
 41
1.0
 50
0.0
 71
     0
 42
3.0
  3
txt
  4

  0
STYLE
  5
1C
330
B
100
AcDbSymbolTableRecord
100
AcDbTextStyleTableRecord
  2
ROMANS
 70
     0
 40
0.0
 41
1.0
 50
0.0
 71
     0
 42
3.5
  3
romans.shx
  4

  0
STYLE
  5
1451
330
B
100
AcDbSymbolTableRecord
100
AcDbTextStyleTableRecord
  2
ROMANS8
 70
     0
 40
0.0
 41
1.0
 50
0.0
 71
     0
 42
40.0
  3
simplex.shx
  4

  0
ENDTAB
  0
TABLE
  2
VIEW
  5
10
330
0
100
AcDbSymbolTable
 70
     0
  0
ENDTAB
  0
TABLE
  2
UCS
  5
11
330
0
100
AcDbSymbolTable
 70
     0
  0
ENDTAB
  0
TABLE
  2
APPID
  5
14
330
0
100
AcDbSymbolTable
 70
     6
  0
APPID
  5
15
330
14
100
AcDbSymbolTableRecord
100
AcDbRegAppTableRecord
  2
ACAD
 70
     0
  0
APPID
  5
81B
330
14
100
AcDbSymbolTableRecord
100
AcDbRegAppTableRecord
  2
CONTENTTABDATA
 70
     0
  0
APPID
  5
81C
330
14
100
AcDbSymbolTableRecord
100
AcDbRegAppTableRecord
  2
CONTENTCURRENTTAB
 70
     0
  0
APPID
  5
9B6
330
14
100
AcDbSymbolTableRecord
100
AcDbRegAppTableRecord
  2
CONTENTBLOCKDESCRIPTION
 70
     0
  0
APPID
  5
B5D
330
14
100
AcDbSymbolTableRecord
100
AcDbRegAppTableRecord
  2
CONTENTBLOCKICON
 70
     0
  0
APPID
  5
1453
330
14
100
AcDbSymbolTableRecord
100
AcDbRegAppTableRecord
  2
AVE_RENDER
 70
     0
  0
ENDTAB
  0
TABLE
  2
DIMSTYLE
  5
16
330
0
100
AcDbSymbolTable
 70
     2
  0
DIMSTYLE
105
1E
330
16
100
AcDbSymbolTableRecord
100
AcDbDimStyleTableRecord
  2
STANDARD
 70
     0
  3

  4

  5

  6

  7

 40
3.0
 41
3.5
 42
0.1
 43
7.0
 44
1.8
 45
0.0
 46
0.0
 47
0.0
 48
0.0
140
3.5
141
0.0
142
0.0
143
25.4
144
1.0
145
0.0
146
1.0
147
1.7
 71
     0
 72
     0
 73
     0
 74
     0
 75
     0
 76
     0
 77
     1
 78
     8
170
     0
171
     2
172
     0
173
     0
174
     0
175
     0
176
   256
177
   256
178
   256
270
     2
271
     2
272
     2
273
     2
274
     2
340
1C
275
     0
280
     0
281
     0
282
     0
283
     1
284
     0
285
     0
286
     0
287
     3
288
     1
  0
DIMSTYLE
105
955B
330
16
100
AcDbSymbolTableRecord
100
AcDbDimStyleTableRecord
  2
1_20
 70
     0
  3

  4

  5

  6

  7

 40
20.0
 41
3.5
 42
0.1
 43
7.0
 44
1.8
 45
0.0
 46
0.0
 47
0.0
 48
0.0
140
3.5
141
0.0
142
0.0
143
25.4
144
1.0
145
0.0
146
1.0
147
1.7
 71
     0
 72
     0
 73
     0
 74
     0
 75
     0
 76
     0
 77
     1
 78
     8
170
     0
171
     2
172
     0
173
     0
174
     0
175
     0
176
   256
177
   256
178
   256
270
     2
271
     4
272
     4
273
     2
274
     2
340
1C
275
     0
280
     0
281
     0
282
     0
283
     1
284
     8
285
     0
286
     0
287
     3
288
     1
  0
ENDTAB
  0
TABLE
  2
BLOCK_RECORD
  5
1
330
0
100
AcDbSymbolTable
 70
     0
  0
BLOCK_RECORD
  5
2
102
{ACAD_XDICTIONARY
360
1FE67
102
}
330
1
100
AcDbSymbolTableRecord
100
AcDbBlockTableRecord
  2
*MODEL_SPACE
  0
BLOCK_RECORD
  5
7
102
{ACAD_XDICTIONARY
360
1FE69
102
}
330
1
100
AcDbSymbolTableRecord
100
AcDbBlockTableRecord
  2
*PAPER_SPACE
  0
ENDTAB
  0
ENDSEC
  0
SECTION
  2
BLOCKS
  0
BLOCK
  5
3
330
2
100
AcDbEntity
  8
0
100
AcDbBlockBegin
  2
*MODEL_SPACE
 70
     2
 10
0.0
 20
0.0
 30
0.0
  3
*MODEL_SPACE
  1

  0
ENDBLK
  5
6
330
2
100
AcDbEntity
  8
0
100
AcDbBlockEnd
  0
BLOCK
  5
8
330
7
100
AcDbEntity
 67
     1
  8
0
100
AcDbBlockBegin
  2
*PAPER_SPACE
 70
     2
 10
0.0
 20
0.0
 30
0.0
  3
*PAPER_SPACE
  1

  0
ENDBLK
  5
9
330
7
100
AcDbEntity
 67
     1
  8
0
100
AcDbBlockEnd
  0
ENDSEC
  0
SECTION
  2
ENTITIES
  0
LINE
  5
1B097
330
2
100
AcDbEntity
  8
VLB
100
AcDbLine
 10
-10989.07976548437
 20
4381.822750874606
 30
0.0
 11
-11743.07976548436
 21
4381.822750874606
 31
0.0
  0
LINE
  5
1B098
330
2
100
AcDbEntity
  8
VLB
100
AcDbLine
 10
-11743.07976548436
 20
4386.822750874606
 30
0.0
 11
-11743.07976548436
 21
4381.822750874606
 31
0.0
  0
LINE
  5
1B099
330
2
100
AcDbEntity
  8
VLB
100
AcDbLine
 10
-10989.07976548437
 20
4386.822750874606
 30
0.0
 11
-10989.07976548437
 21
4381.822750874606
 31
0.0
  0
LINE
  5
1B0A3
330
2
100
AcDbEntity
  8
SPS
100
AcDbLine
 10
-11852.1354490135
 20
4401.822750874606
 30
0.0
 11
-11887.21501767463
 21
4401.822750874606
 31
0.0
  0
LINE
  5
1B0A4
330
2
100
AcDbEntity
  8
SPS
100
AcDbLine
 10
-10880.02408195525
 20
4401.822750874606
 30
0.0
 11
-10844.94451329412
 21
4401.822750874606
 31
0.0
  0
LINE
  5
1B0A5
330
2
100
AcDbEntity
  8
SPS
100
AcDbLine
 10
-11195.32527439062
 20
4401.822750874606
 30
0.0
 11
-11176.59745487416
 21
4401.822750874606
 31
0.0
  0
LINE
  5
1B0A6
330
2
100
AcDbEntity
  8
SPS
100
AcDbLine
 10
-11186.07976548437
 20
4394.400218646086
 30
0.0
 11
-11186.07976548437
 21
4411.804995310856
 31
0.0
  0
LINE
  5
1B0A7
330
2
100
AcDbEntity
  8
SPS
100
AcDbLine
 10
-11536.83425657813
 20
4401.822750874606
 30
0.0
 11
-11555.56207609458
 21
4401.822750874606
 31
0.0
  0
LINE
  5
1B0A8
330
2
100
AcDbEntity
  8
SPS
100
AcDbLine
 10
-11546.07976548438
 20
4394.400218646086
 30
0.0
 11
-11546.07976548438
 21
4411.804995310856
 31
0.0
  0
LINE
  5
1B0A9
330
2
100
AcDbEntity
  8
SPS
100
AcDbLine
 10
-11366.07976548437
 20
5453.337516304884
 30
0.0
 11
-11366.07976548437
 21
4366.822750874606
 31
0.0
  0
ARC
  5
1B0AA
330
2
100
AcDbEntity
  8
VLB
100
AcDbCircle
 10
-11876.86305816987
 20
4407.585550874606
 30
0.0
 40
3.373272
100
AcDbArc
 50
149.9999999999727
 51
214.5650930000803
  0
LINE
  5
1B0AB
330
2
100
AcDbEntity
  8
VLB
100
AcDbLine
 10
-11875.56966416987
 20
4405.671751874605
 30
0.0
 11
-11879.64088716987
 21
4405.671751874605
 31
0.0
  0
LINE
  5
1B0AC
330
2
100
AcDbEntity
  8
VLB
100
AcDbLine
 10
-11875.56966416987
 20
4409.520752874606
 30
0.0
 11
-11879.64088716987
 21
4409.520752874606
 31
0.0
  0
LINE
  5
1B0AD
330
2
100
AcDbEntity
  8
VLB
100
AcDbLine
 10
-11874.90299716987
 20
4407.756082874606
 30
0.0
 11
-11875.56966416987
 21
4407.756082874606
 31
0.0
  0
LINE
  5
1B0AE
330
2
100
AcDbEntity
  8
VLB
100
AcDbLine
 10
-11874.10299716987
 20
4409.322749874609
 30
0.0
 11
-11874.90299716987
 21
4409.322749874609
 31
0.0
1001
ACAD
1000
ASC_BOUNDS
1002
{
1070
    16
1002
}
  0
LINE
  5
1B0AF
330
2
100
AcDbEntity
  8
VLB
100
AcDbLine
 10
-11880.23633016987
 20
4408.489416874607
 30
0.0
 11
-11879.64088716987
 21
4409.520752874606
 31
0.0
  0
LINE
  5
1B0B0
330
2
100
AcDbEntity
  8
VLB
100
AcDbLine
 10
-11874.90299716987
 20
4402.82275087461
 30
0.0
 11
-11874.90299716987
 21
4401.822750874606
 31
0.0
  0
LINE
  5
1B0B1
330
2
100
AcDbEntity
  8
VLB
100
AcDbLine
 10
-11875.56966416987
 20
4394.124747874604
 30
0.0
 11
-11879.64088716987
 21
4394.124747874604
 31
0.0
  0
LINE
  5
1B0B2
330
2
100
AcDbEntity
  8
VLB
100
AcDbLine
 10
-11875.56966416987
 20
4397.973748874607
 30
0.0
 11
-11879.64088716987
 21
4397.973748874607
 31
0.0
  0
LINE
  5
1B0B3
330
2
100
AcDbEntity
  8
VLB
100
AcDbLine
 10
-11874.90299716987
 20
4394.322750874606
 30
0.0
 11
-11874.10299716987
 21
4394.322750874606
 31
0.0
  0
LINE
  5
1B0B4
330
2
100
AcDbEntity
  8
VLB
100
AcDbLine
 10
-11874.10299716987
 20
4394.322750874606
 30
0.0
 11
-11874.90299716987
 21
4394.322750874606
 31
0.0
1001
ACAD
1000
ASC_BOUNDS
1002
{
1070
    16
1002
}
  0
LINE
  5
1B0B5
330
2
100
AcDbEntity
  8
VLB
100
AcDbLine
 10
-11874.90299716987
 20
4395.889417874609
 30
0.0
 11
-11875.56966416987
 21
4395.889417874609
 31
0.0
  0
LINE
  5
1B0B6
330
2
100
AcDbEntity
  8
VLB
100
AcDbLine
 10
-11880.23633016987
 20
4395.156084874605
 30
0.0
 11
-11879.64088716987
 21
4394.124747874604
 31
0.0
  0
ARC
  5
1B0B7
330
2
100
AcDbEntity
  8
VLB
100
AcDbCircle
 10
-11876.86305816987
 20
4396.059949874604
 30
0.0
 40
3.373272
100
AcDbArc
 50
145.4349069999197
 51
210.0000000000272
  0
LINE
  5
1B0B8
330
2
100
AcDbEntity
  8
VLB
100
AcDbLine
 10
-11874.90299716987
 20
4395.889417874609
 30
0.0
 11
-11874.90299716987
 21
4402.82275087461
 31
0.0
  0
LINE
  5
1B0B9
330
2
100
AcDbEntity
  8
VLB
100
AcDbLine
 10
-11875.56966416987
 20
4394.124747874604
 30
0.0
 11
-11875.56966416987
 21
4402.82275087461
 31
0.0
  0
LINE
  5
1B0BA
330
2
100
AcDbEntity
  8
VLB
100
AcDbLine
 10
-11874.90299716987
 20
4401.822750874606
 30
0.0
 11
-11874.90299716987
 21
4394.322750874606
 31
0.0
  0
ARC
  5
1B0BB
330
2
100
AcDbEntity
  8
VLB
100
AcDbCircle
 10
-11867.49844116987
 20
4401.822750874606
 30
0.0
 40
12.737889
100
AcDbArc
 50
175.4973080000216
 51
197.5879540000596
  0
LINE
  5
1B0BC
330
2
100
AcDbEntity
  8
VLB
100
AcDbLine
 10
-11880.23633016987
 20
4395.156084874605
 30
0.0
 11
-11880.23633016987
 21
4402.82275087461
 31
0.0
  0
LINE
  5
1B0BD
330
2
100
AcDbEntity
  8
VLB
100
AcDbLine
 10
-11875.56966416987
 20
4402.82275087461
 30
0.0
 11
-11875.56966416987
 21
4409.520752874606
 31
0.0
  0
LINE
  5
1B0BE
330
2
100
AcDbEntity
  8
VLB
100
AcDbLine
 10
-11874.90299716987
 20
4409.322749874609
 30
0.0
 11
-11874.90299716987
 21
4402.82275087461
 31
0.0
  0
LINE
  5
1B0BF
330
2
100
AcDbEntity
  8
VLB
100
AcDbLine
 10
-11874.90299716987
 20
4403.904657874609
 30
0.0
 11
-11874.90299716987
 21
4407.756082874606
 31
0.0
  0
ARC
  5
1B0C0
330
2
100
AcDbEntity
  8
VLB
100
AcDbCircle
 10
-11867.49844116987
 20
4401.822750874606
 30
0.0
 40
12.737889
100
AcDbArc
 50
162.4120459999403
 51
175.4973080000216
  0
LINE
  5
1B0C1
330
2
100
AcDbEntity
  8
VLB
100
AcDbLine
 10
-11880.23633016987
 20
4402.82275087461
 30
0.0
 11
-11880.23633016987
 21
4408.489416874607
 31
0.0
  0
LINE
  5
1B0C2
330
2
100
AcDbEntity
  8
VLB
100
AcDbLine
 10
-10851.92320079886
 20
4402.82275087461
 30
0.0
 11
-10851.92320079886
 21
4408.489416874607
 31
0.0
  0
ARC
  5
1B0C3
330
2
100
AcDbEntity
  8
VLB
100
AcDbCircle
 10
-10864.66108979886
 20
4401.822750874606
 30
0.0
 40
12.737889
100
AcDbArc
 50
4.502691999978413
 51
17.58795400005962
  0
LINE
  5
1B0C4
330
2
100
AcDbEntity
  8
VLB
100
AcDbLine
 10
-10857.25653379886
 20
4403.904657874609
 30
0.0
 11
-10857.25653379886
 21
4407.756082874606
 31
0.0
  0
LINE
  5
1B0C5
330
2
100
AcDbEntity
  8
VLB
100
AcDbLine
 10
-10857.25653379886
 20
4409.322749874609
 30
0.0
 11
-10857.25653379886
 21
4402.82275087461
 31
0.0
  0
LINE
  5
1B0C6
330
2
100
AcDbEntity
  8
VLB
100
AcDbLine
 10
-10856.58986679886
 20
4402.82275087461
 30
0.0
 11
-10856.58986679886
 21
4409.520752874606
 31
0.0
  0
LINE
  5
1B0C7
330
2
100
AcDbEntity
  8
VLB
100
AcDbLine
 10
-10851.92320079886
 20
4395.156084874605
 30
0.0
 11
-10851.92320079886
 21
4402.82275087461
 31
0.0
  0
ARC
  5
1B0C8
330
2
100
AcDbEntity
  8
VLB
100
AcDbCircle
 10
-10864.66108979886
 20
4401.822750874606
 30
0.0
 40
12.737889
100
AcDbArc
 50
342.4120459999404
 51
4.502691999978413
  0
LINE
  5
1B0C9
330
2
100
AcDbEntity
  8
VLB
100
AcDbLine
 10
-10857.25653379886
 20
4401.822750874606
 30
0.0
 11
-10857.25653379886
 21
4394.322750874606
 31
0.0
  0
LINE
  5
1B0CA
330
2
100
AcDbEntity
  8
VLB
100
AcDbLine
 10
-10856.58986679886
 20
4394.124747874604
 30
0.0
 11
-10856.58986679886
 21
4402.82275087461
 31
0.0
  0
LINE
  5
1B0CB
330
2
100
AcDbEntity
  8
VLB
100
AcDbLine
 10
-10857.25653379886
 20
4395.889417874609
 30
0.0
 11
-10857.25653379886
 21
4402.82275087461
 31
0.0
  0
ARC
  5
1B0CC
330
2
100
AcDbEntity
  8
VLB
100
AcDbCircle
 10
-10855.29647279886
 20
4396.059949874604
 30
0.0
 40
3.373272
100
AcDbArc
 50
329.9999999999727
 51
34.56509300008031
  0
LINE
  5
1B0CD
330
2
100
AcDbEntity
  8
VLB
100
AcDbLine
 10
-10851.92320079886
 20
4395.156084874605
 30
0.0
 11
-10852.51864379887
 21
4394.124747874604
 31
0.0
  0
LINE
  5
1B0CE
330
2
100
AcDbEntity
  8
VLB
100
AcDbLine
 10
-10857.25653379886
 20
4395.889417874609
 30
0.0
 11
-10856.58986679886
 21
4395.889417874609
 31
0.0
  0
LINE
  5
1B0CF
330
2
100
AcDbEntity
  8
VLB
100
AcDbLine
 10
-10858.05653379886
 20
4394.322750874606
 30
0.0
 11
-10857.25653379886
 21
4394.322750874606
 31
0.0
1001
ACAD
1000
ASC_BOUNDS
1002
{
1070
    16
1002
}
  0
LINE
  5
1B0D0
330
2
100
AcDbEntity
  8
VLB
100
AcDbLine
 10
-10857.25653379886
 20
4394.322750874606
 30
0.0
 11
-10858.05653379886
 21
4394.322750874606
 31
0.0
  0
LINE
  5
1B0D1
330
2
100
AcDbEntity
  8
VLB
100
AcDbLine
 10
-10856.58986679886
 20
4397.973748874607
 30
0.0
 11
-10852.51864379887
 21
4397.973748874607
 31
0.0
  0
LINE
  5
1B0D2
330
2
100
AcDbEntity
  8
VLB
100
AcDbLine
 10
-10856.58986679886
 20
4394.124747874604
 30
0.0
 11
-10852.51864379887
 21
4394.124747874604
 31
0.0
  0
LINE
  5
1B0D3
330
2
100
AcDbEntity
  8
VLB
100
AcDbLine
 10
-10857.25653379886
 20
4402.82275087461
 30
0.0
 11
-10857.25653379886
 21
4401.822750874606
 31
0.0
  0
LINE
  5
1B0D4
330
2
100
AcDbEntity
  8
VLB
100
AcDbLine
 10
-10851.92320079886
 20
4408.489416874607
 30
0.0
 11
-10852.51864379887
 21
4409.520752874606
 31
0.0
  0
LINE
  5
1B0D5
330
2
100
AcDbEntity
  8
VLB
100
AcDbLine
 10
-10858.05653379886
 20
4409.322749874609
 30
0.0
 11
-10857.25653379886
 21
4409.322749874609
 31
0.0
1001
ACAD
1000
ASC_BOUNDS
1002
{
1070
    16
1002
}
  0
LINE
  5
1B0D6
330
2
100
AcDbEntity
  8
VLB
100
AcDbLine
 10
-10857.25653379886
 20
4407.756082874606
 30
0.0
 11
-10856.58986679886
 21
4407.756082874606
 31
0.0
  0
LINE
  5
1B0D7
330
2
100
AcDbEntity
  8
VLB
100
AcDbLine
 10
-10856.58986679886
 20
4409.520752874606
 30
0.0
 11
-10852.51864379887
 21
4409.520752874606
 31
0.0
  0
LINE
  5
1B0D8
330
2
100
AcDbEntity
  8
VLB
100
AcDbLine
 10
-10856.58986679886
 20
4405.671751874605
 30
0.0
 11
-10852.51864379887
 21
4405.671751874605
 31
0.0
  0
ARC
  5
1B0D9
330
2
100
AcDbEntity
  8
VLB
100
AcDbCircle
 10
-10855.29647279886
 20
4407.585550874606
 30
0.0
 40
3.373272
100
AcDbArc
 50
325.4349069999197
 51
30.00000000002724
  0
LINE
  5
1B0DC
330
2
100
AcDbEntity
  8
SPS
100
AcDbLine
 10
-11865.28506097464
 20
4427.510541454307
 30
0.0
 11
-11878.32425158065
 21
4427.510541454307
 31
0.0
  0
LINE
  5
1B0DD
330
2
100
AcDbEntity
  8
VLB
100
AcDbLine
 10
-11875.07976548436
 20
4422.510541454307
 30
0.0
 11
-11874.07976548436
 21
4422.510541454308
 31
0.0
  0
LINE
  5
1B0DE
330
2
100
AcDbEntity
  8
VLB
100
AcDbLine
 10
-11875.07976548436
 20
4432.510541454306
 30
0.0
 11
-11874.07976548436
 21
4432.510541454305
 31
0.0
  0
ARC
  5
1B0DF
330
2
100
AcDbEntity
  8
VLB
100
AcDbCircle
 10
-11863.07976548436
 20
4427.510541454307
 30
0.0
 40
12.99999999999925
100
AcDbArc
 50
157.3801350519214
 51
202.6198649480785
  0
LINE
  5
1B0E3
330
2
100
AcDbEntity
  8
SPS
100
AcDbLine
 10
-11870.31630993931
 20
4427.510541454307
 30
0.0
 11
-11856.97562379467
 21
4427.510541454307
 31
0.0
  0
LINE
  5
1B0E5
330
2
100
AcDbEntity
  8
SPS
100
AcDbLine
 10
-10861.84322102941
 20
4427.510541454307
 30
0.0
 11
-10875.18390717405
 21
4427.510541454307
 31
0.0
  0
LINE
  5
1B0E6
330
2
100
AcDbEntity
  8
SPS
100
AcDbLine
 10
-10868.15457758649
 20
4420.102298600344
 30
0.0
 11
-10868.15457758649
 21
4435.995150678187
 31
0.0
  0
CIRCLE
  5
1B0E7
330
2
100
AcDbEntity
  8
VLB
100
AcDbCircle
 10
-10868.15457758649
 20
4427.510541454307
 30
0.0
 40
5.000000000001818
  0
CIRCLE
  5
1B0E8
330
2
100
AcDbEntity
  8
VLB
100
AcDbCircle
 10
-10868.15457758649
 20
4427.510541454307
 30
0.0
 40
2.550000000006548
  0
LINE
  5
1B0E9
330
2
100
AcDbEntity
  8
VLB
100
AcDbLine
 10
-11736.07976548437
 20
5409.322750874607
 30
0.0
 11
-11447.57976548436
 21
5409.322750874607
 31
0.0
  0
LINE
  5
1B0EA
330
2
100
AcDbEntity
  8
VLB
100
AcDbLine
 10
-11736.07976548437
 20
5409.322750874607
 30
0.0
 11
-11736.07976548437
 21
5386.822750874606
 31
0.0
  0
LINE
  5
1B0EB
330
2
100
AcDbEntity
  8
VLB
100
AcDbLine
 10
-10996.07976548437
 20
5409.322750874607
 30
0.0
 11
-10996.07976548437
 21
5386.822750874606
 31
0.0
  0
LINE
  5
1B0EE
330
2
100
AcDbEntity
  8
SPS
100
AcDbLine
 10
-9565.973923850608
 20
5453.337516304884
 30
0.0
 11
-9565.973923850608
 21
4366.822750874606
 31
0.0
  0
LINE
  5
1B0F0
330
2
100
AcDbEntity
  8
VLB
100
AcDbLine
 10
-9188.973923850612
 20
4381.822750874606
 30
0.0
 11
-9942.973923850608
 21
4381.822750874606
 31
0.0
  0
LINE
  5
1B0F1
330
2
100
AcDbEntity
  8
SPS
100
AcDbLine
 10
-10070.21046830555
 20
4427.510541454307
 30
0.0
 11
-10056.86978216091
 21
4427.510541454307
 31
0.0
  0
LINE
  5
1B0F2
330
2
100
AcDbEntity
  8
SPS
100
AcDbLine
 10
-10063.89911174848
 20
4420.102298600344
 30
0.0
 11
-10063.89911174848
 21
4435.995150678187
 31
0.0
  0
CIRCLE
  5
1B0F3
330
2
100
AcDbEntity
  8
VLB
100
AcDbCircle
 10
-10063.89911174848
 20
4427.510541454307
 30
0.0
 40
5.000000000001818
  0
CIRCLE
  5
1B0F4
330
2
100
AcDbEntity
  8
VLB
100
AcDbCircle
 10
-10063.89911174848
 20
4427.510541454307
 30
0.0
 40
2.550000000006548
  0
ARC
  5
1B0F5
330
2
100
AcDbEntity
  8
VLB
100
AcDbCircle
 10
-10062.9739238506
 20
4427.510541454307
 30
0.0
 40
12.99999999999925
100
AcDbArc
 50
157.3801350519214
 51
202.6198649480785
  0
LINE
  5
1B0F6
330
2
100
AcDbEntity
  8
VLB
100
AcDbLine
 10
-10074.9739238506
 20
4432.510541454306
 30
0.0
 11
-10073.9739238506
 21
4432.510541454305
 31
0.0
  0
LINE
  5
1B0F7
330
2
100
AcDbEntity
  8
VLB
100
AcDbLine
 10
-10074.9739238506
 20
4422.510541454307
 30
0.0
 11
-10073.9739238506
 21
4422.510541454308
 31
0.0
  0
LINE
  5
1B0F8
330
2
100
AcDbEntity
  8
SPS
100
AcDbLine
 10
-10065.17921934088
 20
4427.510541454307
 30
0.0
 11
-10078.21840994689
 21
4427.510541454307
 31
0.0
  0
LINE
  5
1B0F9
330
2
100
AcDbEntity
  8
VLB
100
AcDbLine
 10
-10080.1304885361
 20
4402.82275087461
 30
0.0
 11
-10080.1304885361
 21
4408.489416874607
 31
0.0
  0
ARC
  5
1B0FA
330
2
100
AcDbEntity
  8
VLB
100
AcDbCircle
 10
-10067.3925995361
 20
4401.822750874606
 30
0.0
 40
12.737889
100
AcDbArc
 50
162.4120459999403
 51
175.4973080000216
  0
LINE
  5
1B0FB
330
2
100
AcDbEntity
  8
VLB
100
AcDbLine
 10
-10074.79715553611
 20
4403.904657874609
 30
0.0
 11
-10074.79715553611
 21
4407.756082874606
 31
0.0
  0
LINE
  5
1B0FC
330
2
100
AcDbEntity
  8
VLB
100
AcDbLine
 10
-10074.79715553611
 20
4409.322749874609
 30
0.0
 11
-10074.79715553611
 21
4402.82275087461
 31
0.0
  0
LINE
  5
1B0FD
330
2
100
AcDbEntity
  8
VLB
100
AcDbLine
 10
-10075.4638225361
 20
4402.82275087461
 30
0.0
 11
-10075.4638225361
 21
4409.520752874606
 31
0.0
  0
LINE
  5
1B0FE
330
2
100
AcDbEntity
  8
VLB
100
AcDbLine
 10
-10080.1304885361
 20
4395.156084874605
 30
0.0
 11
-10080.1304885361
 21
4402.82275087461
 31
0.0
  0
ARC
  5
1B0FF
330
2
100
AcDbEntity
  8
VLB
100
AcDbCircle
 10
-10067.3925995361
 20
4401.822750874606
 30
0.0
 40
12.737889
100
AcDbArc
 50
175.4973080000216
 51
197.5879540000596
  0
LINE
  5
1B100
330
2
100
AcDbEntity
  8
VLB
100
AcDbLine
 10
-10074.79715553611
 20
4401.822750874606
 30
0.0
 11
-10074.79715553611
 21
4394.322750874606
 31
0.0
  0
LINE
  5
1B101
330
2
100
AcDbEntity
  8
VLB
100
AcDbLine
 10
-10075.4638225361
 20
4394.124747874604
 30
0.0
 11
-10075.4638225361
 21
4402.82275087461
 31
0.0
  0
LINE
  5
1B102
330
2
100
AcDbEntity
  8
VLB
100
AcDbLine
 10
-10074.79715553611
 20
4395.889417874609
 30
0.0
 11
-10074.79715553611
 21
4402.82275087461
 31
0.0
  0
ARC
  5
1B103
330
2
100
AcDbEntity
  8
VLB
100
AcDbCircle
 10
-10076.7572165361
 20
4396.059949874604
 30
0.0
 40
3.373272
100
AcDbArc
 50
145.4349069999197
 51
210.0000000000272
  0
LINE
  5
1B104
330
2
100
AcDbEntity
  8
VLB
100
AcDbLine
 10
-10080.1304885361
 20
4395.156084874605
 30
0.0
 11
-10079.5350455361
 21
4394.124747874604
 31
0.0
  0
LINE
  5
1B105
330
2
100
AcDbEntity
  8
VLB
100
AcDbLine
 10
-10074.79715553611
 20
4395.889417874609
 30
0.0
 11
-10075.4638225361
 21
4395.889417874609
 31
0.0
  0
LINE
  5
1B106
330
2
100
AcDbEntity
  8
VLB
100
AcDbLine
 10
-10073.9971555361
 20
4394.322750874606
 30
0.0
 11
-10074.79715553611
 21
4394.322750874606
 31
0.0
1001
ACAD
1000
ASC_BOUNDS
1002
{
1070
    16
1002
}
  0
LINE
  5
1B107
330
2
100
AcDbEntity
  8
VLB
100
AcDbLine
 10
-10074.79715553611
 20
4394.322750874606
 30
0.0
 11
-10073.9971555361
 21
4394.322750874606
 31
0.0
  0
LINE
  5
1B108
330
2
100
AcDbEntity
  8
VLB
100
AcDbLine
 10
-10075.4638225361
 20
4397.973748874607
 30
0.0
 11
-10079.5350455361
 21
4397.973748874607
 31
0.0
  0
LINE
  5
1B109
330
2
100
AcDbEntity
  8
VLB
100
AcDbLine
 10
-10075.4638225361
 20
4394.124747874604
 30
0.0
 11
-10079.5350455361
 21
4394.124747874604
 31
0.0
  0
LINE
  5
1B10A
330
2
100
AcDbEntity
  8
VLB
100
AcDbLine
 10
-10074.79715553611
 20
4402.82275087461
 30
0.0
 11
-10074.79715553611
 21
4401.822750874606
 31
0.0
  0
LINE
  5
1B10B
330
2
100
AcDbEntity
  8
VLB
100
AcDbLine
 10
-10080.1304885361
 20
4408.489416874607
 30
0.0
 11
-10079.5350455361
 21
4409.520752874606
 31
0.0
  0
LINE
  5
1B10C
330
2
100
AcDbEntity
  8
VLB
100
AcDbLine
 10
-10073.9971555361
 20
4409.322749874609
 30
0.0
 11
-10074.79715553611
 21
4409.322749874609
 31
0.0
1001
ACAD
1000
ASC_BOUNDS
1002
{
1070
    16
1002
}
  0
LINE
  5
1B10D
330
2
100
AcDbEntity
  8
VLB
100
AcDbLine
 10
-10074.79715553611
 20
4407.756082874606
 30
0.0
 11
-10075.4638225361
 21
4407.756082874606
 31
0.0
  0
LINE
  5
1B10E
330
2
100
AcDbEntity
  8
VLB
100
AcDbLine
 10
-10075.4638225361
 20
4409.520752874606
 30
0.0
 11
-10079.5350455361
 21
4409.520752874606
 31
0.0
  0
LINE
  5
1B10F
330
2
100
AcDbEntity
  8
VLB
100
AcDbLine
 10
-10075.4638225361
 20
4405.671751874605
 30
0.0
 11
-10079.5350455361
 21
4405.671751874605
 31
0.0
  0
ARC
  5
1B110
330
2
100
AcDbEntity
  8
VLB
100
AcDbCircle
 10
-10076.7572165361
 20
4407.585550874606
 30
0.0
 40
3.373272
100
AcDbArc
 50
149.9999999999727
 51
214.5650930000803
  0
LINE
  5
1B111
330
2
100
AcDbEntity
  8
VLB
100
AcDbLine
 10
-9942.973923850608
 20
4386.822750874606
 30
0.0
 11
-9942.973923850608
 21
4381.822750874606
 31
0.0
  0
LINE
  5
1B112
330
2
100
AcDbEntity
  8
SPS
100
AcDbLine
 10
-10052.02960737974
 20
4401.822750874606
 30
0.0
 11
-10087.10917604086
 21
4401.822750874606
 31
0.0
  0
LINE
  5
1B114
330
2
100
AcDbEntity
  8
SPS
100
AcDbLine
 10
-9745.97392385062
 20
4394.400218646086
 30
0.0
 11
-9745.97392385062
 21
4411.804995310856
 31
0.0
  0
LINE
  5
1B115
330
2
100
AcDbEntity
  8
SPS
100
AcDbLine
 10
-9736.728414944369
 20
4401.822750874606
 30
0.0
 11
-9755.456234460824
 21
4401.822750874606
 31
0.0
  0
LINE
  5
1B117
330
2
100
AcDbEntity
  8
SPS
100
AcDbLine
 10
-9385.973923850611
 20
4394.400218646086
 30
0.0
 11
-9385.973923850611
 21
4411.804995310856
 31
0.0
  0
LINE
  5
1B118
330
2
100
AcDbEntity
  8
SPS
100
AcDbLine
 10
-9395.219432756862
 20
4401.822750874606
 30
0.0
 11
-9376.491613240407
 21
4401.822750874606
 31
0.0
  0
CIRCLE
  5
1B119
330
2
100
AcDbEntity
  8
VLB
100
AcDbCircle
 10
-9068.04873595273
 20
4427.510541454307
 30
0.0
 40
2.550000000006548
  0
CIRCLE
  5
1B11A
330
2
100
AcDbEntity
  8
VLB
100
AcDbCircle
 10
-9068.04873595273
 20
4427.510541454307
 30
0.0
 40
5.000000000001818
  0
LINE
  5
1B11B
330
2
100
AcDbEntity
  8
SPS
100
AcDbLine
 10
-9068.04873595273
 20
4420.102298600344
 30
0.0
 11
-9068.04873595273
 21
4435.995150678187
 31
0.0
  0
LINE
  5
1B11C
330
2
100
AcDbEntity
  8
SPS
100
AcDbLine
 10
-9061.737379395657
 20
4427.510541454307
 30
0.0
 11
-9075.078065540298
 21
4427.510541454307
 31
0.0
  0
ARC
  5
1B11D
330
2
100
AcDbEntity
  8
VLB
100
AcDbCircle
 10
-9055.190631165109
 20
4407.585550874606
 30
0.0
 40
3.373272
100
AcDbArc
 50
325.4349069999197
 51
30.00000000002724
  0
LINE
  5
1B11E
330
2
100
AcDbEntity
  8
VLB
100
AcDbLine
 10
-9056.484025165108
 20
4405.671751874605
 30
0.0
 11
-9052.412802165109
 21
4405.671751874605
 31
0.0
  0
LINE
  5
1B11F
330
2
100
AcDbEntity
  8
VLB
100
AcDbLine
 10
-9056.484025165108
 20
4409.520752874606
 30
0.0
 11
-9052.412802165109
 21
4409.520752874606
 31
0.0
  0
LINE
  5
1B120
330
2
100
AcDbEntity
  8
VLB
100
AcDbLine
 10
-9057.150692165107
 20
4407.756082874606
 30
0.0
 11
-9056.484025165108
 21
4407.756082874606
 31
0.0
  0
LINE
  5
1B121
330
2
100
AcDbEntity
  8
VLB
100
AcDbLine
 10
-9057.950692165105
 20
4409.322749874609
 30
0.0
 11
-9057.150692165107
 21
4409.322749874609
 31
0.0
1001
ACAD
1000
ASC_BOUNDS
1002
{
1070
    16
1002
}
  0
LINE
  5
1B122
330
2
100
AcDbEntity
  8
VLB
100
AcDbLine
 10
-9051.817359165109
 20
4408.489416874607
 30
0.0
 11
-9052.412802165109
 21
4409.520752874606
 31
0.0
  0
LINE
  5
1B123
330
2
100
AcDbEntity
  8
VLB
100
AcDbLine
 10
-9057.150692165107
 20
4402.82275087461
 30
0.0
 11
-9057.150692165107
 21
4401.822750874606
 31
0.0
  0
LINE
  5
1B124
330
2
100
AcDbEntity
  8
VLB
100
AcDbLine
 10
-9056.484025165108
 20
4394.124747874604
 30
0.0
 11
-9052.412802165109
 21
4394.124747874604
 31
0.0
  0
LINE
  5
1B125
330
2
100
AcDbEntity
  8
VLB
100
AcDbLine
 10
-9056.484025165108
 20
4397.973748874607
 30
0.0
 11
-9052.412802165109
 21
4397.973748874607
 31
0.0
  0
LINE
  5
1B126
330
2
100
AcDbEntity
  8
VLB
100
AcDbLine
 10
-9057.150692165107
 20
4394.322750874606
 30
0.0
 11
-9057.950692165105
 21
4394.322750874606
 31
0.0
  0
LINE
  5
1B127
330
2
100
AcDbEntity
  8
VLB
100
AcDbLine
 10
-9057.950692165105
 20
4394.322750874606
 30
0.0
 11
-9057.150692165107
 21
4394.322750874606
 31
0.0
1001
ACAD
1000
ASC_BOUNDS
1002
{
1070
    16
1002
}
  0
LINE
  5
1B128
330
2
100
AcDbEntity
  8
VLB
100
AcDbLine
 10
-9057.150692165107
 20
4395.889417874609
 30
0.0
 11
-9056.484025165108
 21
4395.889417874609
 31
0.0
  0
LINE
  5
1B129
330
2
100
AcDbEntity
  8
VLB
100
AcDbLine
 10
-9051.817359165109
 20
4395.156084874605
 30
0.0
 11
-9052.412802165109
 21
4394.124747874604
 31
0.0
  0
ARC
  5
1B12A
330
2
100
AcDbEntity
  8
VLB
100
AcDbCircle
 10
-9055.190631165109
 20
4396.059949874604
 30
0.0
 40
3.373272
100
AcDbArc
 50
329.9999999999727
 51
34.56509300008031
  0
LINE
  5
1B12B
330
2
100
AcDbEntity
  8
VLB
100
AcDbLine
 10
-9057.150692165107
 20
4395.889417874609
 30
0.0
 11
-9057.150692165107
 21
4402.82275087461
 31
0.0
  0
LINE
  5
1B12C
330
2
100
AcDbEntity
  8
VLB
100
AcDbLine
 10
-9056.484025165108
 20
4394.124747874604
 30
0.0
 11
-9056.484025165108
 21
4402.82275087461
 31
0.0
  0
LINE
  5
1B12D
330
2
100
AcDbEntity
  8
VLB
100
AcDbLine
 10
-9057.150692165107
 20
4401.822750874606
 30
0.0
 11
-9057.150692165107
 21
4394.322750874606
 31
0.0
  0
ARC
  5
1B12E
330
2
100
AcDbEntity
  8
VLB
100
AcDbCircle
 10
-9064.555248165106
 20
4401.822750874606
 30
0.0
 40
12.737889
100
AcDbArc
 50
342.4120459999404
 51
4.502691999978413
  0
LINE
  5
1B12F
330
2
100
AcDbEntity
  8
VLB
100
AcDbLine
 10
-9051.817359165109
 20
4395.156084874605
 30
0.0
 11
-9051.817359165109
 21
4402.82275087461
 31
0.0
  0
LINE
  5
1B130
330
2
100
AcDbEntity
  8
VLB
100
AcDbLine
 10
-9056.484025165108
 20
4402.82275087461
 30
0.0
 11
-9056.484025165108
 21
4409.520752874606
 31
0.0
  0
LINE
  5
1B131
330
2
100
AcDbEntity
  8
VLB
100
AcDbLine
 10
-9057.150692165107
 20
4409.322749874609
 30
0.0
 11
-9057.150692165107
 21
4402.82275087461
 31
0.0
  0
LINE
  5
1B132
330
2
100
AcDbEntity
  8
VLB
100
AcDbLine
 10
-9057.150692165107
 20
4403.904657874609
 30
0.0
 11
-9057.150692165107
 21
4407.756082874606
 31
0.0
  0
ARC
  5
1B133
330
2
100
AcDbEntity
  8
VLB
100
AcDbCircle
 10
-9064.555248165106
 20
4401.822750874606
 30
0.0
 40
12.737889
100
AcDbArc
 50
4.502691999978413
 51
17.58795400005962
  0
LINE
  5
1B134
330
2
100
AcDbEntity
  8
VLB
100
AcDbLine
 10
-9051.817359165109
 20
4402.82275087461
 30
0.0
 11
-9051.817359165109
 21
4408.489416874607
 31
0.0
  0
LINE
  5
1B135
330
2
100
AcDbEntity
  8
VLB
100
AcDbLine
 10
-9188.973923850612
 20
4386.822750874606
 30
0.0
 11
-9188.973923850612
 21
4381.822750874606
 31
0.0
  0
LINE
  5
1B136
330
2
100
AcDbEntity
  8
SPS
100
AcDbLine
 10
-9079.918240321488
 20
4401.822750874606
 30
0.0
 11
-9044.838671660363
 21
4401.822750874606
 31
0.0
  0
LINE
  5
1B137
330
2
100
AcDbEntity
  8
VLB
100
AcDbLine
 10
-9935.973923850609
 20
5409.322750874607
 30
0.0
 11
-9570.973923850608
 21
5409.322750874608
 31
0.0
  0
LINE
  5
1B138
330
2
100
AcDbEntity
  8
VLB
100
AcDbLine
 10
-9935.973923850609
 20
5409.322750874607
 30
0.0
 11
-9935.973923850609
 21
5386.822750874606
 31
0.0
  0
LINE
  5
1B139
330
2
100
AcDbEntity
  8
VLB
100
AcDbLine
 10
-9195.973923850608
 20
5409.322750874607
 30
0.0
 11
-9195.973923850608
 21
5386.822750874606
 31
0.0
  0
LINE
  5
1B13A
330
2
100
AcDbEntity
  8
VLB
100
AcDbLine
 10
-11859.90894720911
 20
5396.716988213006
 30
0.0
 11
-11859.90894720911
 21
5387.858679412904
 31
0.0
  0
LINE
  5
1B13B
330
2
100
AcDbEntity
  8
VLB
100
AcDbLine
 10
-11834.90894720911
 20
5388.402829148843
 30
0.0
 11
-11834.90894720911
 21
5396.716988213004
 31
0.0
  0
LINE
  5
1B13C
330
2
100
AcDbEntity
  8
SPS
100
AcDbLine
 10
-11847.40894720911
 20
5374.317017213005
 30
0.0
 11
-11847.40894720911
 21
5404.343090191598
 31
0.0
  0
LINE
  5
1B13D
330
2
100
AcDbEntity
  8
SPS
100
AcDbLine
 10
-11847.40894720911
 20
5391.716988213005
 30
0.0
 11
-11847.40894720911
 21
5377.716988213004
 31
0.0
  0
LINE
  5
1B13E
330
2
100
AcDbEntity
  8
VLB
100
AcDbLine
 10
-11834.90894720911
 20
5396.716988213004
 30
0.0
 11
-11842.00996601588
 21
5397.943080191598
 31
0.0
  0
LINE
  5
1B13F
330
2
100
AcDbEntity
  8
SPS
100
AcDbLine
 10
-11831.63150451487
 20
5378.02804636488
 30
0.0
 11
-11831.63150451487
 21
5391.06723697089
 31
0.0
  0
LINE
  5
1B140
330
2
100
AcDbEntity
  8
VLB
100
AcDbLine
 10
-11836.63150451487
 20
5387.822750874605
 30
0.0
 11
-11836.63150451486
 21
5386.822750874606
 31
0.0
  0
LINE
  5
1B141
330
2
100
AcDbEntity
  8
VLB
100
AcDbLine
 10
-11826.63150451487
 20
5387.822750874605
 30
0.0
 11
-11826.63150451487
 21
5386.822750874606
 31
0.0
  0
ARC
  5
1B142
330
2
100
AcDbEntity
  8
VLB
100
AcDbCircle
 10
-11831.63150451487
 20
5375.822750874606
 30
0.0
 40
12.99999999999925
100
AcDbArc
 50
67.3801350519691
 51
112.6198649480308
  0
LINE
  5
1B143
330
2
100
AcDbEntity
  8
VLB
100
AcDbLine
 10
-11859.90894720911
 20
5396.716988213004
 30
0.0
 11
-11852.80792840234
 21
5397.943080191598
 31
0.0
  0
LINE
  5
1B144
330
2
100
AcDbEntity
  8
SPS
100
AcDbLine
 10
-11864.82183070264
 20
5378.02804636488
 30
0.0
 11
-11864.82183070264
 21
5391.06723697089
 31
0.0
  0
LINE
  5
1B145
330
2
100
AcDbEntity
  8
VLB
100
AcDbLine
 10
-11869.82183070264
 20
5387.822750874605
 30
0.0
 11
-11869.82183070264
 21
5386.822750874606
 31
0.0
  0
LINE
  5
1B146
330
2
100
AcDbEntity
  8
VLB
100
AcDbLine
 10
-11859.82183070264
 20
5387.822750874605
 30
0.0
 11
-11859.82183070264
 21
5386.822750874606
 31
0.0
  0
ARC
  5
1B147
330
2
100
AcDbEntity
  8
VLB
100
AcDbCircle
 10
-11864.82183070264
 20
5375.822750874606
 30
0.0
 40
12.99999999999925
100
AcDbArc
 50
67.3801350519691
 51
112.6198649480308
  0
LINE
  5
1B148
330
2
100
AcDbEntity
  8
SPS
100
AcDbLine
 10
-11865.28506097463
 20
5375.287229283436
 30
0.0
 11
-11878.32425158065
 21
5375.287229283436
 31
0.0
  0
LINE
  5
1B149
330
2
100
AcDbEntity
  8
VLB
100
AcDbLine
 10
-11875.07976548436
 20
5370.287229283436
 30
0.0
 11
-11874.07976548436
 21
5370.287229283438
 31
0.0
  0
LINE
  5
1B14A
330
2
100
AcDbEntity
  8
VLB
100
AcDbLine
 10
-11875.07976548436
 20
5380.287229283436
 30
0.0
 11
-11874.07976548436
 21
5380.287229283434
 31
0.0
  0
ARC
  5
1B14B
330
2
100
AcDbEntity
  8
VLB
100
AcDbCircle
 10
-11863.07976548436
 20
5375.287229283436
 30
0.0
 40
12.99999999999925
100
AcDbArc
 50
157.3801350519214
 51
202.6198649480785
  0
LINE
  5
1B14C
330
2
100
AcDbEntity
  8
VLS
100
AcDbLine
 10
-11834.90894720911
 20
5396.716988213004
 30
0.0
 11
-11859.90894720911
 21
5396.716988213006
 31
0.0
  0
ARC
  5
1B14D
330
2
100
AcDbEntity
  8
VLB
100
AcDbCircle
 10
-11847.40894720911
 20
5409.216988213003
 30
0.0
 40
22.5
100
AcDbArc
 50
303.748988595957
 51
236.2510114040428
  0
CIRCLE
  5
1B14E
330
2
100
AcDbEntity
  8
VLB
100
AcDbCircle
 10
-11847.40894720911
 20
5409.216988213003
 30
0.0
 40
12.5
  0
LINE
  5
1B14F
330
2
100
AcDbEntity
  8
SPS
100
AcDbLine
 10
-10868.15457758649
 20
5367.878986429472
 30
0.0
 11
-10868.15457758649
 21
5383.771838507315
 31
0.0
  0
LINE
  5
1B150
330
2
100
AcDbEntity
  8
VLB
100
AcDbLine
 10
-10872.25058375962
 20
5396.716988213004
 30
0.0
 11
-10872.25058375962
 21
5386.822750874606
 31
0.0
  0
LINE
  5
1B151
330
2
100
AcDbEntity
  8
VLB
100
AcDbLine
 10
-10897.25058375962
 20
5386.822750874607
 30
0.0
 11
-10897.25058375962
 21
5396.716988213002
 31
0.0
  0
LINE
  5
1B152
330
2
100
AcDbEntity
  8
VLB
100
AcDbLine
 10
-10872.25058375962
 20
5396.716988213002
 30
0.0
 11
-10879.35160256639
 21
5397.943080191597
 31
0.0
  0
CIRCLE
  5
1B153
330
2
100
AcDbEntity
  8
VLB
100
AcDbCircle
 10
-10868.15457758649
 20
5375.287229283435
 30
0.0
 40
2.550000000006548
  0
CIRCLE
  5
1B154
330
2
100
AcDbEntity
  8
VLB
100
AcDbCircle
 10
-10868.15457758649
 20
5375.287229283435
 30
0.0
 40
5.000000000001818
  0
LINE
  5
1B155
330
2
100
AcDbEntity
  8
SPS
100
AcDbLine
 10
-10861.84322102941
 20
5375.287229283435
 30
0.0
 11
-10875.18390717405
 21
5375.287229283435
 31
0.0
  0
LINE
  5
1B156
330
2
100
AcDbEntity
  8
SPS
100
AcDbLine
 10
-10884.75058375962
 20
5374.317017213003
 30
0.0
 11
-10884.75058375962
 21
5404.343090191596
 31
0.0
  0
LINE
  5
1B157
330
2
100
AcDbEntity
  8
SPS
100
AcDbLine
 10
-10884.75058375962
 20
5391.716988213004
 30
0.0
 11
-10884.75058375962
 21
5377.716988213002
 31
0.0
  0
LINE
  5
1B158
330
2
100
AcDbEntity
  8
VLB
100
AcDbLine
 10
-10897.25058375962
 20
5396.716988213002
 30
0.0
 11
-10890.14956495285
 21
5397.943080191597
 31
0.0
  0
LINE
  5
1B159
330
2
100
AcDbEntity
  8
VLS
100
AcDbLine
 10
-10897.25058375962
 20
5396.716988213002
 30
0.0
 11
-10872.25058375962
 21
5396.716988213004
 31
0.0
  0
ARC
  5
1B15A
330
2
100
AcDbEntity
  8
VLB
100
AcDbCircle
 10
-10884.75058375962
 20
5409.216988213002
 30
0.0
 40
22.5
100
AcDbArc
 50
303.748988595957
 51
236.2510114040428
  0
CIRCLE
  5
1B15B
330
2
100
AcDbEntity
  8
VLB
100
AcDbCircle
 10
-10884.75058375962
 20
5409.216988213002
 30
0.0
 40
12.5
  0
LINE
  5
1B15C
330
2
100
AcDbEntity
  8
SPS
100
AcDbLine
 10
-10031.5256628811
 20
5378.02804636488
 30
0.0
 11
-10031.5256628811
 21
5391.06723697089
 31
0.0
  0
LINE
  5
1B15D
330
2
100
AcDbEntity
  8
VLB
100
AcDbLine
 10
-10026.5256628811
 20
5387.822750874605
 30
0.0
 11
-10026.52566288111
 21
5386.822750874606
 31
0.0
  0
LINE
  5
1B15E
330
2
100
AcDbEntity
  8
VLB
100
AcDbLine
 10
-10036.52566288111
 20
5387.822750874605
 30
0.0
 11
-10036.5256628811
 21
5386.822750874606
 31
0.0
  0
ARC
  5
1B15F
330
2
100
AcDbEntity
  8
VLB
100
AcDbCircle
 10
-10031.5256628811
 20
5375.822750874606
 30
0.0
 40
12.99999999999925
100
AcDbArc
 50
67.3801350519691
 51
112.6198649480308
  0
LINE
  5
1B160
330
2
100
AcDbEntity
  8
SPS
100
AcDbLine
 10
-10064.71598906887
 20
5378.02804636488
 30
0.0
 11
-10064.71598906887
 21
5391.06723697089
 31
0.0
  0
LINE
  5
1B161
330
2
100
AcDbEntity
  8
VLB
100
AcDbLine
 10
-10059.71598906888
 20
5387.822750874605
 30
0.0
 11
-10059.71598906888
 21
5386.822750874606
 31
0.0
  0
LINE
  5
1B162
330
2
100
AcDbEntity
  8
VLB
100
AcDbLine
 10
-10074.9739238506
 20
5380.287229283436
 30
0.0
 11
-10073.9739238506
 21
5380.287229283434
 31
0.0
  0
LINE
  5
1B163
330
2
100
AcDbEntity
  8
VLB
100
AcDbLine
 10
-10069.71598906888
 20
5387.822750874605
 30
0.0
 11
-10069.71598906887
 21
5386.822750874606
 31
0.0
  0
ARC
  5
1B164
330
2
100
AcDbEntity
  8
VLB
100
AcDbCircle
 10
-10064.71598906887
 20
5375.822750874606
 30
0.0
 40
12.99999999999925
100
AcDbArc
 50
67.3801350519691
 51
112.6198649480308
  0
LINE
  5
1B165
330
2
100
AcDbEntity
  8
SPS
100
AcDbLine
 10
-10065.17921934087
 20
5375.287229283436
 30
0.0
 11
-10078.21840994688
 21
5375.287229283436
 31
0.0
  0
LINE
  5
1B166
330
2
100
AcDbEntity
  8
VLB
100
AcDbLine
 10
-10074.9739238506
 20
5370.287229283436
 30
0.0
 11
-10073.9739238506
 21
5370.287229283438
 31
0.0
  0
ARC
  5
1B167
330
2
100
AcDbEntity
  8
VLB
100
AcDbCircle
 10
-10062.9739238506
 20
5375.287229283436
 30
0.0
 40
12.99999999999925
100
AcDbArc
 50
157.3801350519214
 51
202.6198649480785
  0
LINE
  5
1B168
330
2
100
AcDbEntity
  8
SPS
100
AcDbLine
 10
-9068.04873595273
 20
5367.878986429472
 30
0.0
 11
-9068.04873595273
 21
5383.771838507315
 31
0.0
  0
CIRCLE
  5
1B169
330
2
100
AcDbEntity
  8
VLB
100
AcDbCircle
 10
-9068.04873595273
 20
5375.287229283435
 30
0.0
 40
2.550000000006548
  0
CIRCLE
  5
1B16A
330
2
100
AcDbEntity
  8
VLB
100
AcDbCircle
 10
-9068.04873595273
 20
5375.287229283435
 30
0.0
 40
5.000000000001818
  0
LINE
  5
1B16B
330
2
100
AcDbEntity
  8
SPS
100
AcDbLine
 10
-9061.737379395657
 20
5375.287229283435
 30
0.0
 11
-9075.078065540298
 21
5375.287229283435
 31
0.0
  0
LINE
  5
1B183
330
2
100
AcDbEntity
  8
SPS
100
AcDbLine
 10
-11870.31630993931
 20
4545.982631454307
 30
0.0
 11
-11856.97562379467
 21
4545.982631454307
 31
0.0
  0
ARC
  5
1B187
330
2
100
AcDbEntity
  8
VLB
100
AcDbCircle
 10
-11863.07976548436
 20
4545.982631454307
 30
0.0
 40
12.99999999999925
100
AcDbArc
 50
157.3801350519214
 51
202.6198649480785
  0
LINE
  5
1B188
330
2
100
AcDbEntity
  8
VLB
100
AcDbLine
 10
-11875.07976548436
 20
4550.982631454306
 30
0.0
 11
-11874.07976548436
 21
4550.982631454306
 31
0.0
  0
LINE
  5
1B189
330
2
100
AcDbEntity
  8
VLB
100
AcDbLine
 10
-11875.07976548436
 20
4540.982631454307
 30
0.0
 11
-11874.07976548436
 21
4540.982631454308
 31
0.0
  0
LINE
  5
1B18A
330
2
100
AcDbEntity
  8
SPS
100
AcDbLine
 10
-11865.28506097464
 20
4545.982631454307
 30
0.0
 11
-11878.32425158065
 21
4545.982631454307
 31
0.0
  0
CIRCLE
  5
1B18B
330
2
100
AcDbEntity
  8
VLB
100
AcDbCircle
 10
-10868.15457758649
 20
4545.982631454307
 30
0.0
 40
2.550000000006548
  0
CIRCLE
  5
1B18C
330
2
100
AcDbEntity
  8
VLB
100
AcDbCircle
 10
-10868.15457758649
 20
4545.982631454307
 30
0.0
 40
5.000000000001818
  0
LINE
  5
1B18D
330
2
100
AcDbEntity
  8
SPS
100
AcDbLine
 10
-10868.15457758649
 20
4538.574388600344
 30
0.0
 11
-10868.15457758649
 21
4554.467240678188
 31
0.0
  0
LINE
  5
1B18E
330
2
100
AcDbEntity
  8
SPS
100
AcDbLine
 10
-10861.84322102941
 20
4545.982631454307
 30
0.0
 11
-10875.18390717405
 21
4545.982631454307
 31
0.0
  0
LINE
  5
1B18F
330
2
100
AcDbEntity
  8
SPS
100
AcDbLine
 10
-10065.17921934088
 20
4545.982631454307
 30
0.0
 11
-10078.21840994689
 21
4545.982631454307
 31
0.0
  0
LINE
  5
1B190
330
2
100
AcDbEntity
  8
VLB
100
AcDbLine
 10
-10074.9739238506
 20
4540.982631454307
 30
0.0
 11
-10073.9739238506
 21
4540.982631454308
 31
0.0
  0
LINE
  5
1B191
330
2
100
AcDbEntity
  8
VLB
100
AcDbLine
 10
-10074.9739238506
 20
4550.982631454306
 30
0.0
 11
-10073.9739238506
 21
4550.982631454306
 31
0.0
  0
ARC
  5
1B192
330
2
100
AcDbEntity
  8
VLB
100
AcDbCircle
 10
-10062.9739238506
 20
4545.982631454307
 30
0.0
 40
12.99999999999925
100
AcDbArc
 50
157.3801350519214
 51
202.6198649480785
  0
LINE
  5
1B197
330
2
100
AcDbEntity
  8
SPS
100
AcDbLine
 10
-9061.737379395657
 20
4545.982631454307
 30
0.0
 11
-9075.078065540298
 21
4545.982631454307
 31
0.0
  0
LINE
  5
1B198
330
2
100
AcDbEntity
  8
SPS
100
AcDbLine
 10
-9068.04873595273
 20
4538.574388600344
 30
0.0
 11
-9068.04873595273
 21
4554.467240678188
 31
0.0
  0
CIRCLE
  5
1B199
330
2
100
AcDbEntity
  8
VLB
100
AcDbCircle
 10
-9068.04873595273
 20
4545.982631454307
 30
0.0
 40
5.000000000001818
  0
CIRCLE
  5
1B19A
330
2
100
AcDbEntity
  8
VLB
100
AcDbCircle
 10
-9068.04873595273
 20
4545.982631454307
 30
0.0
 40
2.550000000006548
  0
LINE
  5
1B19B
330
2
100
AcDbEntity
  8
SPS
100
AcDbLine
 10
-11870.31630993931
 20
4664.454721454307
 30
0.0
 11
-11856.97562379467
 21
4664.454721454307
 31
0.0
  0
ARC
  5
1B19F
330
2
100
AcDbEntity
  8
VLB
100
AcDbCircle
 10
-11863.07976548436
 20
4664.454721454307
 30
0.0
 40
12.99999999999925
100
AcDbArc
 50
157.3801350519214
 51
202.6198649480785
  0
LINE
  5
1B1A0
330
2
100
AcDbEntity
  8
VLB
100
AcDbLine
 10
-11875.07976548436
 20
4669.454721454306
 30
0.0
 11
-11874.07976548436
 21
4669.454721454306
 31
0.0
  0
LINE
  5
1B1A1
330
2
100
AcDbEntity
  8
VLB
100
AcDbLine
 10
-11875.07976548436
 20
4659.454721454307
 30
0.0
 11
-11874.07976548436
 21
4659.454721454308
 31
0.0
  0
LINE
  5
1B1A2
330
2
100
AcDbEntity
  8
SPS
100
AcDbLine
 10
-11865.28506097464
 20
4664.454721454307
 30
0.0
 11
-11878.32425158065
 21
4664.454721454307
 31
0.0
  0
CIRCLE
  5
1B1A3
330
2
100
AcDbEntity
  8
VLB
100
AcDbCircle
 10
-10868.15457758649
 20
4664.454721454307
 30
0.0
 40
2.550000000006548
  0
CIRCLE
  5
1B1A4
330
2
100
AcDbEntity
  8
VLB
100
AcDbCircle
 10
-10868.15457758649
 20
4664.454721454307
 30
0.0
 40
5.000000000001818
  0
LINE
  5
1B1A5
330
2
100
AcDbEntity
  8
SPS
100
AcDbLine
 10
-10868.15457758649
 20
4657.046478600345
 30
0.0
 11
-10868.15457758649
 21
4672.939330678188
 31
0.0
  0
LINE
  5
1B1A6
330
2
100
AcDbEntity
  8
SPS
100
AcDbLine
 10
-10861.84322102941
 20
4664.454721454307
 30
0.0
 11
-10875.18390717405
 21
4664.454721454307
 31
0.0
  0
LINE
  5
1B1A7
330
2
100
AcDbEntity
  8
SPS
100
AcDbLine
 10
-10065.17921934088
 20
4664.454721454307
 30
0.0
 11
-10078.21840994689
 21
4664.454721454307
 31
0.0
  0
LINE
  5
1B1A8
330
2
100
AcDbEntity
  8
VLB
100
AcDbLine
 10
-10074.9739238506
 20
4659.454721454307
 30
0.0
 11
-10073.9739238506
 21
4659.454721454308
 31
0.0
  0
LINE
  5
1B1A9
330
2
100
AcDbEntity
  8
VLB
100
AcDbLine
 10
-10074.9739238506
 20
4669.454721454306
 30
0.0
 11
-10073.9739238506
 21
4669.454721454306
 31
0.0
  0
ARC
  5
1B1AA
330
2
100
AcDbEntity
  8
VLB
100
AcDbCircle
 10
-10062.9739238506
 20
4664.454721454307
 30
0.0
 40
12.99999999999925
100
AcDbArc
 50
157.3801350519214
 51
202.6198649480785
  0
LINE
  5
1B1AF
330
2
100
AcDbEntity
  8
SPS
100
AcDbLine
 10
-9061.737379395657
 20
4664.454721454307
 30
0.0
 11
-9075.078065540298
 21
4664.454721454307
 31
0.0
  0
LINE
  5
1B1B0
330
2
100
AcDbEntity
  8
SPS
100
AcDbLine
 10
-9068.04873595273
 20
4657.046478600345
 30
0.0
 11
-9068.04873595273
 21
4672.939330678188
 31
0.0
  0
CIRCLE
  5
1B1B1
330
2
100
AcDbEntity
  8
VLB
100
AcDbCircle
 10
-9068.04873595273
 20
4664.454721454307
 30
0.0
 40
5.000000000001818
  0
CIRCLE
  5
1B1B2
330
2
100
AcDbEntity
  8
VLB
100
AcDbCircle
 10
-9068.04873595273
 20
4664.454721454307
 30
0.0
 40
2.550000000006548
  0
LINE
  5
1B1B3
330
2
100
AcDbEntity
  8
SPS
100
AcDbLine
 10
-11870.31630993931
 20
4782.926811454307
 30
0.0
 11
-11856.97562379467
 21
4782.926811454307
 31
0.0
  0
ARC
  5
1B1B7
330
2
100
AcDbEntity
  8
VLB
100
AcDbCircle
 10
-11863.07976548436
 20
4782.926811454307
 30
0.0
 40
12.99999999999925
100
AcDbArc
 50
157.3801350519214
 51
202.6198649480785
  0
LINE
  5
1B1B8
330
2
100
AcDbEntity
  8
VLB
100
AcDbLine
 10
-11875.07976548436
 20
4787.926811454307
 30
0.0
 11
-11874.07976548436
 21
4787.926811454306
 31
0.0
  0
LINE
  5
1B1B9
330
2
100
AcDbEntity
  8
VLB
100
AcDbLine
 10
-11875.07976548436
 20
4777.926811454307
 30
0.0
 11
-11874.07976548436
 21
4777.926811454309
 31
0.0
  0
LINE
  5
1B1BA
330
2
100
AcDbEntity
  8
SPS
100
AcDbLine
 10
-11865.28506097464
 20
4782.926811454307
 30
0.0
 11
-11878.32425158065
 21
4782.926811454307
 31
0.0
  0
CIRCLE
  5
1B1BB
330
2
100
AcDbEntity
  8
VLB
100
AcDbCircle
 10
-10868.15457758649
 20
4782.926811454307
 30
0.0
 40
2.550000000006548
  0
CIRCLE
  5
1B1BC
330
2
100
AcDbEntity
  8
VLB
100
AcDbCircle
 10
-10868.15457758649
 20
4782.926811454307
 30
0.0
 40
5.000000000001818
  0
LINE
  5
1B1BD
330
2
100
AcDbEntity
  8
SPS
100
AcDbLine
 10
-10868.15457758649
 20
4775.518568600345
 30
0.0
 11
-10868.15457758649
 21
4791.411420678188
 31
0.0
  0
LINE
  5
1B1BE
330
2
100
AcDbEntity
  8
SPS
100
AcDbLine
 10
-10861.84322102941
 20
4782.926811454307
 30
0.0
 11
-10875.18390717405
 21
4782.926811454307
 31
0.0
  0
LINE
  5
1B1BF
330
2
100
AcDbEntity
  8
SPS
100
AcDbLine
 10
-10065.17921934088
 20
4782.926811454307
 30
0.0
 11
-10078.21840994689
 21
4782.926811454307
 31
0.0
  0
LINE
  5
1B1C0
330
2
100
AcDbEntity
  8
VLB
100
AcDbLine
 10
-10074.9739238506
 20
4777.926811454307
 30
0.0
 11
-10073.9739238506
 21
4777.926811454309
 31
0.0
  0
LINE
  5
1B1C1
330
2
100
AcDbEntity
  8
VLB
100
AcDbLine
 10
-10074.9739238506
 20
4787.926811454307
 30
0.0
 11
-10073.9739238506
 21
4787.926811454306
 31
0.0
  0
ARC
  5
1B1C2
330
2
100
AcDbEntity
  8
VLB
100
AcDbCircle
 10
-10062.9739238506
 20
4782.926811454307
 30
0.0
 40
12.99999999999925
100
AcDbArc
 50
157.3801350519214
 51
202.6198649480785
  0
LINE
  5
1B1C7
330
2
100
AcDbEntity
  8
SPS
100
AcDbLine
 10
-9061.737379395657
 20
4782.926811454307
 30
0.0
 11
-9075.078065540298
 21
4782.926811454307
 31
0.0
  0
LINE
  5
1B1C8
330
2
100
AcDbEntity
  8
SPS
100
AcDbLine
 10
-9068.04873595273
 20
4775.518568600345
 30
0.0
 11
-9068.04873595273
 21
4791.411420678188
 31
0.0
  0
CIRCLE
  5
1B1C9
330
2
100
AcDbEntity
  8
VLB
100
AcDbCircle
 10
-9068.04873595273
 20
4782.926811454307
 30
0.0
 40
5.000000000001818
  0
CIRCLE
  5
1B1CA
330
2
100
AcDbEntity
  8
VLB
100
AcDbCircle
 10
-9068.04873595273
 20
4782.926811454307
 30
0.0
 40
2.550000000006548
  0
LINE
  5
1B1CB
330
2
100
AcDbEntity
  8
SPS
100
AcDbLine
 10
-11870.31630993931
 20
4901.398901454308
 30
0.0
 11
-11856.97562379467
 21
4901.398901454308
 31
0.0
  0
ARC
  5
1B1CF
330
2
100
AcDbEntity
  8
VLB
100
AcDbCircle
 10
-11863.07976548436
 20
4901.398901454308
 30
0.0
 40
12.99999999999925
100
AcDbArc
 50
157.3801350519214
 51
202.6198649480785
  0
LINE
  5
1B1D0
330
2
100
AcDbEntity
  8
VLB
100
AcDbLine
 10
-11875.07976548436
 20
4906.398901454307
 30
0.0
 11
-11874.07976548436
 21
4906.398901454306
 31
0.0
  0
LINE
  5
1B1D1
330
2
100
AcDbEntity
  8
VLB
100
AcDbLine
 10
-11875.07976548436
 20
4896.398901454308
 30
0.0
 11
-11874.07976548436
 21
4896.398901454309
 31
0.0
  0
LINE
  5
1B1D2
330
2
100
AcDbEntity
  8
SPS
100
AcDbLine
 10
-11865.28506097464
 20
4901.398901454308
 30
0.0
 11
-11878.32425158065
 21
4901.398901454308
 31
0.0
  0
CIRCLE
  5
1B1D3
330
2
100
AcDbEntity
  8
VLB
100
AcDbCircle
 10
-10868.15457758649
 20
4901.398901454308
 30
0.0
 40
2.550000000006548
  0
CIRCLE
  5
1B1D4
330
2
100
AcDbEntity
  8
VLB
100
AcDbCircle
 10
-10868.15457758649
 20
4901.398901454308
 30
0.0
 40
5.000000000001818
  0
LINE
  5
1B1D5
330
2
100
AcDbEntity
  8
SPS
100
AcDbLine
 10
-10868.15457758649
 20
4893.990658600345
 30
0.0
 11
-10868.15457758649
 21
4909.883510678188
 31
0.0
  0
LINE
  5
1B1D6
330
2
100
AcDbEntity
  8
SPS
100
AcDbLine
 10
-10861.84322102941
 20
4901.398901454308
 30
0.0
 11
-10875.18390717405
 21
4901.398901454308
 31
0.0
  0
LINE
  5
1B1D7
330
2
100
AcDbEntity
  8
SPS
100
AcDbLine
 10
-10065.17921934088
 20
4901.398901454308
 30
0.0
 11
-10078.21840994689
 21
4901.398901454308
 31
0.0
  0
LINE
  5
1B1D8
330
2
100
AcDbEntity
  8
VLB
100
AcDbLine
 10
-10074.9739238506
 20
4896.398901454308
 30
0.0
 11
-10073.9739238506
 21
4896.398901454309
 31
0.0
  0
LINE
  5
1B1D9
330
2
100
AcDbEntity
  8
VLB
100
AcDbLine
 10
-10074.9739238506
 20
4906.398901454307
 30
0.0
 11
-10073.9739238506
 21
4906.398901454306
 31
0.0
  0
ARC
  5
1B1DA
330
2
100
AcDbEntity
  8
VLB
100
AcDbCircle
 10
-10062.9739238506
 20
4901.398901454308
 30
0.0
 40
12.99999999999925
100
AcDbArc
 50
157.3801350519214
 51
202.6198649480785
  0
LINE
  5
1B1DF
330
2
100
AcDbEntity
  8
SPS
100
AcDbLine
 10
-9061.737379395657
 20
4901.398901454308
 30
0.0
 11
-9075.078065540298
 21
4901.398901454308
 31
0.0
  0
LINE
  5
1B1E0
330
2
100
AcDbEntity
  8
SPS
100
AcDbLine
 10
-9068.04873595273
 20
4893.990658600345
 30
0.0
 11
-9068.04873595273
 21
4909.883510678188
 31
0.0
  0
CIRCLE
  5
1B1E1
330
2
100
AcDbEntity
  8
VLB
100
AcDbCircle
 10
-9068.04873595273
 20
4901.398901454308
 30
0.0
 40
5.000000000001818
  0
CIRCLE
  5
1B1E2
330
2
100
AcDbEntity
  8
VLB
100
AcDbCircle
 10
-9068.04873595273
 20
4901.398901454308
 30
0.0
 40
2.550000000006548
  0
LINE
  5
1B1E3
330
2
100
AcDbEntity
  8
SPS
100
AcDbLine
 10
-11870.31630993931
 20
5019.870991454308
 30
0.0
 11
-11856.97562379467
 21
5019.870991454308
 31
0.0
  0
LINE
  5
1B1E4
330
2
100
AcDbEntity
  8
SPS
100
AcDbLine
 10
-11864.00495338224
 20
5012.462748600345
 30
0.0
 11
-11864.00495338224
 21
5028.355600678189
 31
0.0
  0
CIRCLE
  5
1B1E5
330
2
100
AcDbEntity
  8
VLB
100
AcDbCircle
 10
-11864.00495338224
 20
5019.870991454308
 30
0.0
 40
5.000000000001818
  0
CIRCLE
  5
1B1E6
330
2
100
AcDbEntity
  8
VLB
100
AcDbCircle
 10
-11864.00495338224
 20
5019.870991454308
 30
0.0
 40
2.550000000006548
  0
ARC
  5
1B1E7
330
2
100
AcDbEntity
  8
VLB
100
AcDbCircle
 10
-11863.07976548436
 20
5019.870991454308
 30
0.0
 40
12.99999999999925
100
AcDbArc
 50
157.3801350519214
 51
202.6198649480785
  0
LINE
  5
1B1E8
330
2
100
AcDbEntity
  8
VLB
100
AcDbLine
 10
-11875.07976548436
 20
5024.870991454307
 30
0.0
 11
-11874.07976548436
 21
5024.870991454307
 31
0.0
  0
LINE
  5
1B1E9
330
2
100
AcDbEntity
  8
VLB
100
AcDbLine
 10
-11875.07976548436
 20
5014.870991454308
 30
0.0
 11
-11874.07976548436
 21
5014.870991454309
 31
0.0
  0
LINE
  5
1B1EA
330
2
100
AcDbEntity
  8
SPS
100
AcDbLine
 10
-11865.28506097464
 20
5019.870991454308
 30
0.0
 11
-11878.32425158065
 21
5019.870991454308
 31
0.0
  0
CIRCLE
  5
1B1EB
330
2
100
AcDbEntity
  8
VLB
100
AcDbCircle
 10
-10868.15457758649
 20
5019.870991454308
 30
0.0
 40
2.550000000006548
  0
CIRCLE
  5
1B1EC
330
2
100
AcDbEntity
  8
VLB
100
AcDbCircle
 10
-10868.15457758649
 20
5019.870991454308
 30
0.0
 40
5.000000000001818
  0
LINE
  5
1B1ED
330
2
100
AcDbEntity
  8
SPS
100
AcDbLine
 10
-10868.15457758649
 20
5012.462748600345
 30
0.0
 11
-10868.15457758649
 21
5028.355600678189
 31
0.0
  0
LINE
  5
1B1EE
330
2
100
AcDbEntity
  8
SPS
100
AcDbLine
 10
-10861.84322102941
 20
5019.870991454308
 30
0.0
 11
-10875.18390717405
 21
5019.870991454308
 31
0.0
  0
LINE
  5
1B1EF
330
2
100
AcDbEntity
  8
SPS
100
AcDbLine
 10
-10065.17921934088
 20
5019.870991454308
 30
0.0
 11
-10078.21840994689
 21
5019.870991454308
 31
0.0
  0
LINE
  5
1B1F0
330
2
100
AcDbEntity
  8
VLB
100
AcDbLine
 10
-10074.9739238506
 20
5014.870991454308
 30
0.0
 11
-10073.9739238506
 21
5014.870991454309
 31
0.0
  0
LINE
  5
1B1F1
330
2
100
AcDbEntity
  8
VLB
100
AcDbLine
 10
-10074.9739238506
 20
5024.870991454307
 30
0.0
 11
-10073.9739238506
 21
5024.870991454307
 31
0.0
  0
ARC
  5
1B1F2
330
2
100
AcDbEntity
  8
VLB
100
AcDbCircle
 10
-10062.9739238506
 20
5019.870991454308
 30
0.0
 40
12.99999999999925
100
AcDbArc
 50
157.3801350519214
 51
202.6198649480785
  0
LINE
  5
1B1F7
330
2
100
AcDbEntity
  8
SPS
100
AcDbLine
 10
-9061.737379395657
 20
5019.870991454308
 30
0.0
 11
-9075.078065540298
 21
5019.870991454308
 31
0.0
  0
LINE
  5
1B1F8
330
2
100
AcDbEntity
  8
SPS
100
AcDbLine
 10
-9068.04873595273
 20
5012.462748600345
 30
0.0
 11
-9068.04873595273
 21
5028.355600678189
 31
0.0
  0
CIRCLE
  5
1B1F9
330
2
100
AcDbEntity
  8
VLB
100
AcDbCircle
 10
-9068.04873595273
 20
5019.870991454308
 30
0.0
 40
5.000000000001818
  0
CIRCLE
  5
1B1FA
330
2
100
AcDbEntity
  8
VLB
100
AcDbCircle
 10
-9068.04873595273
 20
5019.870991454308
 30
0.0
 40
2.550000000006548
  0
LINE
  5
1B1FB
330
2
100
AcDbEntity
  8
SPS
100
AcDbLine
 10
-11870.31630993931
 20
5256.815171454308
 30
0.0
 11
-11856.97562379467
 21
5256.815171454308
 31
0.0
  0
ARC
  5
1B1FF
330
2
100
AcDbEntity
  8
VLB
100
AcDbCircle
 10
-11863.07976548436
 20
5256.815171454308
 30
0.0
 40
12.99999999999925
100
AcDbArc
 50
157.3801350519214
 51
202.6198649480785
  0
LINE
  5
1B200
330
2
100
AcDbEntity
  8
VLB
100
AcDbLine
 10
-11875.07976548436
 20
5261.815171454308
 30
0.0
 11
-11874.07976548436
 21
5261.815171454307
 31
0.0
  0
LINE
  5
1B201
330
2
100
AcDbEntity
  8
VLB
100
AcDbLine
 10
-11875.07976548436
 20
5251.815171454308
 30
0.0
 11
-11874.07976548436
 21
5251.81517145431
 31
0.0
  0
LINE
  5
1B202
330
2
100
AcDbEntity
  8
SPS
100
AcDbLine
 10
-11865.28506097464
 20
5256.815171454308
 30
0.0
 11
-11878.32425158065
 21
5256.815171454308
 31
0.0
  0
CIRCLE
  5
1B203
330
2
100
AcDbEntity
  8
VLB
100
AcDbCircle
 10
-10868.15457758649
 20
5256.815171454308
 30
0.0
 40
2.550000000006548
  0
CIRCLE
  5
1B204
330
2
100
AcDbEntity
  8
VLB
100
AcDbCircle
 10
-10868.15457758649
 20
5256.815171454308
 30
0.0
 40
5.000000000001818
  0
LINE
  5
1B205
330
2
100
AcDbEntity
  8
SPS
100
AcDbLine
 10
-10868.15457758649
 20
5249.406928600346
 30
0.0
 11
-10868.15457758649
 21
5265.299780678189
 31
0.0
  0
LINE
  5
1B206
330
2
100
AcDbEntity
  8
SPS
100
AcDbLine
 10
-10861.84322102941
 20
5256.815171454308
 30
0.0
 11
-10875.18390717405
 21
5256.815171454308
 31
0.0
  0
LINE
  5
1B207
330
2
100
AcDbEntity
  8
SPS
100
AcDbLine
 10
-10065.17921934088
 20
5256.815171454308
 30
0.0
 11
-10078.21840994689
 21
5256.815171454308
 31
0.0
  0
LINE
  5
1B208
330
2
100
AcDbEntity
  8
VLB
100
AcDbLine
 10
-10074.9739238506
 20
5251.815171454308
 30
0.0
 11
-10073.9739238506
 21
5251.81517145431
 31
0.0
  0
LINE
  5
1B209
330
2
100
AcDbEntity
  8
VLB
100
AcDbLine
 10
-10074.9739238506
 20
5261.815171454308
 30
0.0
 11
-10073.9739238506
 21
5261.815171454307
 31
0.0
  0
ARC
  5
1B20A
330
2
100
AcDbEntity
  8
VLB
100
AcDbCircle
 10
-10062.9739238506
 20
5256.815171454308
 30
0.0
 40
12.99999999999925
100
AcDbArc
 50
157.3801350519214
 51
202.6198649480785
  0
LINE
  5
1B20F
330
2
100
AcDbEntity
  8
SPS
100
AcDbLine
 10
-9061.737379395657
 20
5256.815171454308
 30
0.0
 11
-9075.078065540298
 21
5256.815171454308
 31
0.0
  0
LINE
  5
1B210
330
2
100
AcDbEntity
  8
SPS
100
AcDbLine
 10
-9068.04873595273
 20
5249.406928600346
 30
0.0
 11
-9068.04873595273
 21
5265.299780678189
 31
0.0
  0
CIRCLE
  5
1B211
330
2
100
AcDbEntity
  8
VLB
100
AcDbCircle
 10
-9068.04873595273
 20
5256.815171454308
 30
0.0
 40
5.000000000001818
  0
CIRCLE
  5
1B212
330
2
100
AcDbEntity
  8
VLB
100
AcDbCircle
 10
-9068.04873595273
 20
5256.815171454308
 30
0.0
 40
2.550000000006548
  0
LINE
  5
1B213
330
2
100
AcDbEntity
  8
SPS
100
AcDbLine
 10
-11865.28506097464
 20
5138.343081454308
 30
0.0
 11
-11878.32425158065
 21
5138.343081454308
 31
0.0
  0
LINE
  5
1B214
330
2
100
AcDbEntity
  8
VLB
100
AcDbLine
 10
-11875.07976548436
 20
5133.343081454308
 30
0.0
 11
-11874.07976548436
 21
5133.343081454309
 31
0.0
  0
LINE
  5
1B215
330
2
100
AcDbEntity
  8
VLB
100
AcDbLine
 10
-11875.07976548436
 20
5143.343081454307
 30
0.0
 11
-11874.07976548436
 21
5143.343081454307
 31
0.0
  0
ARC
  5
1B216
330
2
100
AcDbEntity
  8
VLB
100
AcDbCircle
 10
-11863.07976548436
 20
5138.343081454308
 30
0.0
 40
12.99999999999925
100
AcDbArc
 50
157.3801350519214
 51
202.6198649480785
  0
LINE
  5
1B21A
330
2
100
AcDbEntity
  8
SPS
100
AcDbLine
 10
-11870.31630993931
 20
5138.343081454308
 30
0.0
 11
-11856.97562379467
 21
5138.343081454308
 31
0.0
  0
LINE
  5
1B21B
330
2
100
AcDbEntity
  8
SPS
100
AcDbLine
 10
-10861.84322102941
 20
5138.343081454308
 30
0.0
 11
-10875.18390717405
 21
5138.343081454308
 31
0.0
  0
LINE
  5
1B21C
330
2
100
AcDbEntity
  8
SPS
100
AcDbLine
 10
-10868.15457758649
 20
5130.934838600346
 30
0.0
 11
-10868.15457758649
 21
5146.827690678189
 31
0.0
  0
CIRCLE
  5
1B21D
330
2
100
AcDbEntity
  8
VLB
100
AcDbCircle
 10
-10868.15457758649
 20
5138.343081454308
 30
0.0
 40
5.000000000001818
  0
CIRCLE
  5
1B21E
330
2
100
AcDbEntity
  8
VLB
100
AcDbCircle
 10
-10868.15457758649
 20
5138.343081454308
 30
0.0
 40
2.550000000006548
  0
ARC
  5
1B223
330
2
100
AcDbEntity
  8
VLB
100
AcDbCircle
 10
-10062.9739238506
 20
5138.343081454308
 30
0.0
 40
12.99999999999925
100
AcDbArc
 50
157.3801350519214
 51
202.6198649480785
  0
LINE
  5
1B224
330
2
100
AcDbEntity
  8
VLB
100
AcDbLine
 10
-10074.9739238506
 20
5143.343081454307
 30
0.0
 11
-10073.9739238506
 21
5143.343081454307
 31
0.0
  0
LINE
  5
1B225
330
2
100
AcDbEntity
  8
VLB
100
AcDbLine
 10
-10074.9739238506
 20
5133.343081454308
 30
0.0
 11
-10073.9739238506
 21
5133.343081454309
 31
0.0
  0
LINE
  5
1B226
330
2
100
AcDbEntity
  8
SPS
100
AcDbLine
 10
-10065.17921934088
 20
5138.343081454308
 30
0.0
 11
-10078.21840994689
 21
5138.343081454308
 31
0.0
  0
CIRCLE
  5
1B227
330
2
100
AcDbEntity
  8
VLB
100
AcDbCircle
 10
-9068.04873595273
 20
5138.343081454308
 30
0.0
 40
2.550000000006548
  0
CIRCLE
  5
1B228
330
2
100
AcDbEntity
  8
VLB
100
AcDbCircle
 10
-9068.04873595273
 20
5138.343081454308
 30
0.0
 40
5.000000000001818
  0
LINE
  5
1B229
330
2
100
AcDbEntity
  8
SPS
100
AcDbLine
 10
-9068.04873595273
 20
5130.934838600346
 30
0.0
 11
-9068.04873595273
 21
5146.827690678189
 31
0.0
  0
LINE
  5
1B22A
330
2
100
AcDbEntity
  8
SPS
100
AcDbLine
 10
-9061.737379395657
 20
5138.343081454308
 30
0.0
 11
-9075.078065540298
 21
5138.343081454308
 31
0.0
  0
LINE
  5
1B22B
330
2
100
AcDbEntity
  8
VLB
100
AcDbLine
 10
-9560.973923850607
 20
5394.679135457617
 30
0.0
 11
-9553.473923850608
 21
5394.679135457617
 31
0.0
  0
LINE
  5
1B22C
330
2
100
AcDbEntity
  8
VLB
100
AcDbLine
 10
-9553.473923850607
 20
5394.679135457617
 30
0.0
 11
-9560.973923850607
 21
5398.211074259256
 31
0.0
  0
LINE
  5
1B22D
330
2
100
AcDbEntity
  8
VLB
100
AcDbLine
 10
-9553.473923850608
 20
5394.679135457617
 30
0.0
 11
-9553.473923850608
 21
5386.822750874607
 31
0.0
  0
LINE
  5
1B22E
330
2
100
AcDbEntity
  8
VLB
100
AcDbLine
 10
-9560.973923850609
 20
5426.822750874606
 30
0.0
 11
-9560.973923850607
 21
5392.42283768192
 31
0.0
  0
LINE
  5
1B22F
330
2
100
AcDbEntity
  8
VLB
100
AcDbLine
 10
-9578.47392385061
 20
5394.679135457617
 30
0.0
 11
-9570.973923850607
 21
5398.211074259259
 31
0.0
  0
LINE
  5
1B230
330
2
100
AcDbEntity
  8
VLB
100
AcDbLine
 10
-9578.473923850607
 20
5394.679135457617
 30
0.0
 11
-9570.973923850607
 21
5394.679135457617
 31
0.0
  0
LINE
  5
1B231
330
2
100
AcDbEntity
  8
VLB
100
AcDbLine
 10
-9578.47392385061
 20
5394.679135457617
 30
0.0
 11
-9578.473923850607
 21
5386.822750874607
 31
0.0
  0
LINE
  5
1B232
330
2
100
AcDbEntity
  8
VLB
100
AcDbLine
 10
-9570.973923850608
 20
5426.822750874606
 30
0.0
 11
-9570.973923850607
 21
5392.42283768192
 31
0.0
  0
ELLIPSE
  5
1B233
330
2
100
AcDbEntity
  8
VLS
100
AcDbEllipse
 10
-9565.973923850606
 20
5392.42283768192
 30
0.0
 11
-5.0
 21
0.0000000000000003
 31
0.0
210
0.0
220
0.0
230
1.0
 40
0.3616747482367373
 41
0.6435011087932847
 42
2.498091544796508
  0
LINE
  5
1B234
330
2
100
AcDbEntity
  8
VLB
100
AcDbLine
 10
-9578.473923850607
 20
5386.822750874607
 30
0.0
 11
-9553.473923850607
 21
5386.822750874606
 31
0.0
  0
ARC
  5
1B235
330
2
100
AcDbEntity
  8
VLB
100
AcDbCircle
 10
-9565.973923850606
 20
5426.822750874606
 30
0.0
 40
5.0
100
AcDbArc
 50
0.0
 51
180.0
  0
LINE
  5
1B236
330
2
100
AcDbEntity
  8
SPS
100
AcDbLine
 10
-9573.973923850607
 20
5409.322750874606
 30
0.0
 11
-9557.973923850608
 21
5409.322750874606
 31
0.0
  0
LINE
  5
1B237
330
2
100
AcDbEntity
  8
VLB
100
AcDbLine
 10
-9560.973923850609
 20
5409.322750874607
 30
0.0
 11
-9195.973923850608
 21
5409.322750874607
 31
0.0
  0
LINE
  5
1B23A
330
2
100
AcDbEntity
  8
VLB
100
AcDbLine
 10
-11446.57976548437
 20
5416.550805847265
 30
0.0
 11
-11366.07976548436
 21
5419.20164149783
 31
0.0
  0
LINE
  5
1B23B
330
2
100
AcDbEntity
  8
VLB
100
AcDbLine
 10
-11366.07976548436
 20
5419.20164149783
 30
0.0
 11
-11285.57976548436
 21
5416.550805847265
 31
0.0
  0
LINE
  5
1B23C
330
2
100
AcDbEntity
  8
VLB
100
AcDbLine
 10
-11286.57976548436
 20
5408.210833061714
 30
0.0
 11
-11286.57976548436
 21
5409.210283277656
 31
0.0
  0
LINE
  5
1B23D
330
2
100
AcDbEntity
  8
VLB
100
AcDbLine
 10
-11445.57976548437
 20
5408.210833061714
 30
0.0
 11
-11445.57976548437
 21
5409.210283277656
 31
0.0
  0
LINE
  5
1B23E
330
2
100
AcDbEntity
  8
VLB
100
AcDbLine
 10
-11285.57976548436
 20
5409.210283277656
 30
0.0
 11
-11446.57976548437
 21
5409.210283277656
 31
0.0
  0
LINE
  5
1B23F
330
2
100
AcDbEntity
  8
VLB
100
AcDbLine
 10
-11286.57976548436
 20
5408.210833061714
 30
0.0
 11
-11445.57976548437
 21
5408.210833061714
 31
0.0
  0
LINE
  5
1B240
330
2
100
AcDbEntity
  8
VLB
100
AcDbLine
 10
-11446.57976548436
 20
5424.720749311023
 30
0.0
 11
-11447.57976548436
 21
5424.720749311023
 31
0.0
  0
LINE
  5
1B241
330
2
100
AcDbEntity
  8
VLB
100
AcDbLine
 10
-11446.57976548436
 20
5430.30739686949
 30
0.0
 11
-11447.57976548436
 21
5430.30739686949
 31
0.0
  0
LINE
  5
1B242
330
2
100
AcDbEntity
  8
VLB
100
AcDbLine
 10
-11284.57976548437
 20
5430.30739686949
 30
0.0
 11
-11285.57976548436
 21
5430.30739686949
 31
0.0
  0
LINE
  5
1B243
330
2
100
AcDbEntity
  8
VLB
100
AcDbLine
 10
-11284.57976548436
 20
5424.720749311023
 30
0.0
 11
-11285.57976548436
 21
5424.720749311023
 31
0.0
  0
LINE
  5
1B244
330
2
100
AcDbEntity
  8
VLB
100
AcDbLine
 10
-11285.57976548436
 20
5403.019458440893
 30
0.0
 11
-11446.57976548437
 21
5403.019458440893
 31
0.0
  0
LINE
  5
1B245
330
2
100
AcDbEntity
  8
VLB
100
AcDbLine
 10
-11284.57976548436
 20
5401.52028311698
 30
0.0
 11
-11447.57976548436
 21
5401.52028311698
 31
0.0
  0
LINE
  5
1B246
330
2
100
AcDbEntity
  8
VLB
100
AcDbLine
 10
-11285.57976548436
 20
5403.019458440893
 30
0.0
 11
-11285.57976548436
 21
5430.30739686949
 31
0.0
  0
LINE
  5
1B247
330
2
100
AcDbEntity
  8
VLB
100
AcDbLine
 10
-11446.57976548437
 20
5403.019458440893
 30
0.0
 11
-11446.57976548436
 21
5430.30739686949
 31
0.0
  0
LINE
  5
1B248
330
2
100
AcDbEntity
  8
VLB
100
AcDbLine
 10
-11284.57976548436
 20
5401.52028311698
 30
0.0
 11
-11284.57976548436
 21
5433.822950690605
 31
0.0
  0
LINE
  5
1B249
330
2
100
AcDbEntity
  8
VLB
100
AcDbLine
 10
-11447.57976548436
 20
5401.52028311698
 30
0.0
 11
-11447.57976548436
 21
5433.822950690604
 31
0.0
  0
LINE
  5
1B24A
330
2
100
AcDbEntity
  8
VLB
100
AcDbLine
 10
-11284.57976548436
 20
5409.322750874607
 30
0.0
 11
-10996.07976548437
 21
5409.322750874607
 31
0.0
  0
LINE
  5
1B24B
330
2
100
AcDbEntity
  8
VLB
100
AcDbLine
 10
-11736.07976548436
 20
5424.322750874607
 30
0.0
 11
-11447.57976548436
 21
5433.822950690604
 31
0.0
  0
LINE
  5
1B24C
330
2
100
AcDbEntity
  8
VLB
100
AcDbLine
 10
-11736.07976548436
 20
5409.322750874607
 30
0.0
 11
-11736.07976548436
 21
5424.322750874607
 31
0.0
  0
LINE
  5
1B24D
330
2
100
AcDbEntity
  8
VLB
100
AcDbLine
 10
-11284.57976548437
 20
5433.822950690607
 30
0.0
 11
-10996.07976548436
 21
5424.322750874607
 31
0.0
  0
LINE
  5
1B24E
330
2
100
AcDbEntity
  8
VLB
100
AcDbLine
 10
-10996.07976548436
 20
5424.322750874607
 30
0.0
 11
-10996.07976548436
 21
5409.322750874607
 31
0.0
  0
LINE
  5
1B24F
330
2
100
AcDbEntity
  8
VLB
100
AcDbLine
 10
-11737.07976548436
 20
5402.641031740277
 30
0.0
 11
-11736.07976548436
 21
5402.641031740277
 31
0.0
  0
LINE
  5
1B250
330
2
100
AcDbEntity
  8
SPS
100
AcDbLine
 10
-11727.28506097463
 20
5397.641031740278
 30
0.0
 11
-11740.32425158064
 21
5397.641031740278
 31
0.0
  0
LINE
  5
1B251
330
2
100
AcDbEntity
  8
VLB
100
AcDbLine
 10
-11737.07976548436
 20
5392.641031740278
 30
0.0
 11
-11736.07976548436
 21
5392.641031740279
 31
0.0
  0
CIRCLE
  5
1B252
330
2
100
AcDbEntity
  8
VLB
100
AcDbCircle
 10
-11725.90425701531
 20
5397.641031740278
 30
0.0
 40
2.550000000006548
  0
LINE
  5
1B253
330
2
100
AcDbEntity
  8
SPS
100
AcDbLine
 10
-11732.21561357238
 20
5397.641031740278
 30
0.0
 11
-11718.87492742774
 21
5397.641031740278
 31
0.0
  0
ARC
  5
1B254
330
2
100
AcDbEntity
  8
VLB
100
AcDbCircle
 10
-11725.07976548436
 20
5397.641031740278
 30
0.0
 40
12.99999999999925
100
AcDbArc
 50
157.3801350519214
 51
202.6198649480785
  0
CIRCLE
  5
1B255
330
2
100
AcDbEntity
  8
VLB
100
AcDbCircle
 10
-11725.90425701531
 20
5397.641031740278
 30
0.0
 40
5.000000000001818
  0
LINE
  5
1B256
330
2
100
AcDbEntity
  8
SPS
100
AcDbLine
 10
-11725.90425701531
 20
5390.232788886315
 30
0.0
 11
-11725.90425701531
 21
5406.125640964159
 31
0.0
  0
CIRCLE
  5
1B257
330
2
100
AcDbEntity
  8
VLB
100
AcDbCircle
 10
-11006.15457758648
 20
5397.787229283435
 30
0.0
 40
2.550000000006548
  0
LINE
  5
1B258
330
2
100
AcDbEntity
  8
SPS
100
AcDbLine
 10
-10999.84322102941
 20
5397.787229283435
 30
0.0
 11
-11013.18390717405
 21
5397.787229283435
 31
0.0
  0
CIRCLE
  5
1B259
330
2
100
AcDbEntity
  8
VLB
100
AcDbCircle
 10
-11006.15457758648
 20
5397.787229283435
 30
0.0
 40
5.000000000001818
  0
LINE
  5
1B25A
330
2
100
AcDbEntity
  8
SPS
100
AcDbLine
 10
-11006.15457758648
 20
5390.378986429473
 30
0.0
 11
-11006.15457758648
 21
5406.271838507316
 31
0.0
  0
LINE
  5
1B25B
330
2
100
AcDbEntity
  8
SPS
100
AcDbLine
 10
-9925.798415381551
 20
5390.232788886315
 30
0.0
 11
-9925.798415381551
 21
5406.125640964159
 31
0.0
  0
CIRCLE
  5
1B25C
330
2
100
AcDbEntity
  8
VLB
100
AcDbCircle
 10
-9925.798415381551
 20
5397.641031740278
 30
0.0
 40
5.000000000001818
  0
LINE
  5
1B25D
330
2
100
AcDbEntity
  8
SPS
100
AcDbLine
 10
-9932.109771938627
 20
5397.641031740278
 30
0.0
 11
-9918.769085793984
 21
5397.641031740278
 31
0.0
  0
CIRCLE
  5
1B25E
330
2
100
AcDbEntity
  8
VLB
100
AcDbCircle
 10
-9925.798415381551
 20
5397.641031740278
 30
0.0
 40
2.550000000006548
  0
LINE
  5
1B25F
330
2
100
AcDbEntity
  8
SPS
100
AcDbLine
 10
-9927.179219340878
 20
5397.641031740278
 30
0.0
 11
-9940.218409946886
 21
5397.641031740278
 31
0.0
  0
ARC
  5
1B260
330
2
100
AcDbEntity
  8
VLB
100
AcDbCircle
 10
-9924.973923850602
 20
5397.641031740278
 30
0.0
 40
12.99999999999925
100
AcDbArc
 50
157.3801350519214
 51
202.6198649480785
  0
LINE
  5
1B261
330
2
100
AcDbEntity
  8
VLB
100
AcDbLine
 10
-9936.973923850601
 20
5392.641031740278
 30
0.0
 11
-9935.973923850603
 21
5392.641031740279
 31
0.0
  0
LINE
  5
1B262
330
2
100
AcDbEntity
  8
VLB
100
AcDbLine
 10
-9936.973923850601
 20
5402.641031740277
 30
0.0
 11
-9935.973923850603
 21
5402.641031740277
 31
0.0
  0
LINE
  5
1B263
330
2
100
AcDbEntity
  8
SPS
100
AcDbLine
 10
-9206.048735952727
 20
5390.378986429473
 30
0.0
 11
-9206.048735952727
 21
5406.271838507316
 31
0.0
  0
CIRCLE
  5
1B264
330
2
100
AcDbEntity
  8
VLB
100
AcDbCircle
 10
-9206.048735952727
 20
5397.787229283435
 30
0.0
 40
5.000000000001818
  0
LINE
  5
1B265
330
2
100
AcDbEntity
  8
SPS
100
AcDbLine
 10
-9199.737379395653
 20
5397.787229283435
 30
0.0
 11
-9213.078065540294
 21
5397.787229283435
 31
0.0
  0
CIRCLE
  5
1B266
330
2
100
AcDbEntity
  8
VLB
100
AcDbCircle
 10
-9206.048735952727
 20
5397.787229283435
 30
0.0
 40
2.550000000006548
  0
LINE
  5
1B267
330
2
100
AcDbEntity
  8
SPS
100
AcDbLine
 10
-11366.07976548436
 20
4420.102298600344
 30
0.0
 11
-11366.07976548436
 21
4435.995150678187
 31
0.0
  0
LINE
  5
1B268
330
2
100
AcDbEntity
  8
SPS
100
AcDbLine
 10
-11372.39112204144
 20
4427.510541454307
 30
0.0
 11
-11359.0504358968
 21
4427.510541454307
 31
0.0
  0
CIRCLE
  5
1B269
330
2
100
AcDbEntity
  8
VLB
100
AcDbCircle
 10
-11366.07976548436
 20
4427.510541454307
 30
0.0
 40
5.000000000001818
  0
CIRCLE
  5
1B26A
330
2
100
AcDbEntity
  8
VLB
100
AcDbCircle
 10
-11366.07976548436
 20
4427.510541454307
 30
0.0
 40
2.550000000006548
  0
CIRCLE
  5
1B26B
330
2
100
AcDbEntity
  8
VLB
100
AcDbCircle
 10
-9565.973923850606
 20
4427.510541454307
 30
0.0
 40
2.550000000006548
  0
CIRCLE
  5
1B26C
330
2
100
AcDbEntity
  8
VLB
100
AcDbCircle
 10
-9565.973923850606
 20
4427.510541454307
 30
0.0
 40
5.000000000001818
  0
LINE
  5
1B26D
330
2
100
AcDbEntity
  8
SPS
100
AcDbLine
 10
-9572.285280407681
 20
4427.510541454307
 30
0.0
 11
-9558.944594263039
 21
4427.510541454307
 31
0.0
  0
LINE
  5
1B26E
330
2
100
AcDbEntity
  8
SPS
100
AcDbLine
 10
-9565.973923850606
 20
4420.102298600344
 30
0.0
 11
-9565.973923850606
 21
4435.995150678187
 31
0.0
  0
LINE
  5
1B270
330
2
100
AcDbEntity
  8
VLB
100
AcDbLine
 10
-9005.951046778655
 20
5401.52028311698
 30
0.0
 11
-9195.84658780759
 21
5407.819767010799
 31
0.0
  0
LINE
  5
1B271
330
2
100
AcDbEntity
  8
VLB
100
AcDbLine
 10
-9005.901314011074
 20
5403.019458440891
 30
0.0
 11
-9026.693234907661
 21
5424.720749311021
 31
0.0
  0
LINE
  5
1B272
330
2
100
AcDbEntity
  8
VLB
100
AcDbLine
 10
-9005.951046778655
 20
5401.52028311698
 30
0.0
 11
-9005.901314011074
 21
5403.019458440891
 31
0.0
  0
LINE
  5
1B273
330
2
100
AcDbEntity
  8
VLB
100
AcDbLine
 10
-9026.693234907661
 20
5424.720749311021
 30
0.0
 11
-9195.100596293849
 21
5430.307396869489
 31
0.0
  0
LINE
  5
1B274
330
2
100
AcDbEntity
  8
SPS
100
AcDbLine
 10
-9187.650616550442
 20
5404.546228382349
 30
0.0
 11
-9187.401952712525
 21
5412.042105001912
 31
0.0
  0
LINE
  5
1B275
330
2
100
AcDbEntity
  8
VLB
100
AcDbLine
 10
-9195.100596293849
 20
5430.307396869489
 30
0.0
 11
-9195.84658780759
 21
5407.819767010799
 31
0.0
  0
LINE
  5
1B276
330
2
100
AcDbEntity
  8
VLB
100
AcDbLine
 10
-9565.973923850608
 20
5436.50671597658
 30
0.0
 11
-9195.973923850607
 21
5424.322750874607
 31
0.0
  0
LINE
  5
1B277
330
2
100
AcDbEntity
  8
VLB
100
AcDbLine
 10
-9195.973923850607
 20
5424.322750874607
 30
0.0
 11
-9195.973923850607
 21
5409.322750874607
 31
0.0
  0
LINE
  5
1B278
330
2
100
AcDbEntity
  8
VLB
100
AcDbLine
 10
-10105.25461279355
 20
5424.720749311021
 30
0.0
 11
-9936.847251407368
 21
5430.307396869489
 31
0.0
  0
LINE
  5
1B279
330
2
100
AcDbEntity
  8
VLB
100
AcDbLine
 10
-10125.99680092256
 20
5401.52028311698
 30
0.0
 11
-10126.04653369014
 21
5403.019458440891
 31
0.0
  0
LINE
  5
1B27A
330
2
100
AcDbEntity
  8
VLB
100
AcDbLine
 10
-10126.04653369014
 20
5403.019458440891
 30
0.0
 11
-10105.25461279355
 21
5424.720749311021
 31
0.0
  0
LINE
  5
1B27B
330
2
100
AcDbEntity
  8
VLB
100
AcDbLine
 10
-10125.99680092256
 20
5401.52028311698
 30
0.0
 11
-9936.101259893627
 21
5407.819767010799
 31
0.0
  0
LINE
  5
1B27C
330
2
100
AcDbEntity
  8
VLB
100
AcDbLine
 10
-9565.973923850608
 20
5436.50671597658
 30
0.0
 11
-9935.97392385061
 21
5424.322750874607
 31
0.0
  0
LINE
  5
1B27D
330
2
100
AcDbEntity
  8
VLB
100
AcDbLine
 10
-9935.97392385061
 20
5424.322750874607
 30
0.0
 11
-9935.97392385061
 21
5409.322750874607
 31
0.0
  0
LINE
  5
1B27E
330
2
100
AcDbEntity
  8
VLB
100
AcDbLine
 10
-9936.847251407368
 20
5430.307396869489
 30
0.0
 11
-9936.101259893627
 21
5407.819767010799
 31
0.0
  0
LINE
  5
1B27F
330
2
100
AcDbEntity
  8
SPS
100
AcDbLine
 10
-9944.297231150775
 20
5404.546228382349
 30
0.0
 11
-9944.545894988692
 21
5412.042105001912
 31
0.0
  0
LINE
  5
1B283
330
2
100
AcDbEntity
  8
SPS
100
AcDbLine
 10
-11366.07976548437
 20
4065.899649440515
 30
0.0
 11
-11366.07976548437
 21
2915.899649440529
 31
0.0
  0
LINE
  5
1B284
330
2
100
AcDbEntity
  8
SPS
100
AcDbLine
 10
-11889.07976548437
 20
3490.899649440522
 30
0.0
 11
-10843.07976548437
 21
3490.899649440523
 31
0.0
  0
LINE
  5
1B2AC
330
2
100
AcDbEntity
  8
VLB
100
AcDbLine
 10
-11874.07976548437
 20
3997.399649440522
 30
0.0
 11
-11874.07976548437
 21
2983.899649440528
 31
0.0
  0
LINE
  5
1B2AD
330
2
100
AcDbEntity
  8
VLB
100
AcDbLine
 10
-10858.07976548436
 20
3997.899649440516
 30
0.0
 11
-10858.07976548436
 21
2984.399649440521
 31
0.0
  0
LINE
  5
1B2BB
330
2
100
AcDbEntity
  8
VLB
100
AcDbLine
 10
-11873.07976548436
 20
3998.899649440522
 30
0.0
 11
-11447.57976548437
 21
3998.899649440522
 31
0.0
  0
LINE
  5
1B2BC
330
2
100
AcDbEntity
  8
VLB
100
AcDbLine
 10
-11872.57976548437
 20
2982.899649440522
 30
0.0
 11
-11447.57976548436
 21
2982.899649440522
 31
0.0
  0
LINE
  5
1B2C5
330
2
100
AcDbEntity
  8
VLB
100
AcDbLine
 10
-11545.07976548437
 20
4005.032982440519
 30
0.0
 11
-11539.41309948438
 21
4005.032982440519
 31
0.0
  0
ARC
  5
1B2C6
330
2
100
AcDbEntity
  8
VLB
100
AcDbCircle
 10
-11546.07976548438
 20
3992.295093440521
 30
0.0
 40
12.737889
100
AcDbArc
 50
72.41204599994038
 51
85.49730800002157
  0
LINE
  5
1B2C7
330
2
100
AcDbEntity
  8
VLB
100
AcDbLine
 10
-11543.99785848437
 20
3999.69964944052
 30
0.0
 11
-11540.14643348438
 21
3999.69964944052
 31
0.0
  0
LINE
  5
1B2C8
330
2
100
AcDbEntity
  8
VLB
100
AcDbLine
 10
-11538.57976648437
 20
3999.69964944052
 30
0.0
 11
-11545.07976548437
 21
3999.69964944052
 31
0.0
  0
LINE
  5
1B2C9
330
2
100
AcDbEntity
  8
VLB
100
AcDbLine
 10
-11545.07976548437
 20
4000.366316440521
 30
0.0
 11
-11538.38176348437
 21
4000.366316440521
 31
0.0
  0
LINE
  5
1B2CA
330
2
100
AcDbEntity
  8
VLB
100
AcDbLine
 10
-11552.74643148438
 20
4005.032982440519
 30
0.0
 11
-11545.07976548437
 21
4005.032982440519
 31
0.0
  0
ARC
  5
1B2CB
330
2
100
AcDbEntity
  8
VLB
100
AcDbCircle
 10
-11546.07976548438
 20
3992.295093440521
 30
0.0
 40
12.737889
100
AcDbArc
 50
85.49730800002157
 51
107.5879540000596
  0
LINE
  5
1B2CC
330
2
100
AcDbEntity
  8
VLB
100
AcDbLine
 10
-11546.07976548438
 20
3999.69964944052
 30
0.0
 11
-11553.57976548438
 21
3999.69964944052
 31
0.0
  0
LINE
  5
1B2CD
330
2
100
AcDbEntity
  8
VLB
100
AcDbLine
 10
-11553.77776848438
 20
4000.366316440521
 30
0.0
 11
-11545.07976548437
 21
4000.366316440521
 31
0.0
  0
LINE
  5
1B2CE
330
2
100
AcDbEntity
  8
VLB
100
AcDbLine
 10
-11552.01309848437
 20
3999.69964944052
 30
0.0
 11
-11545.07976548437
 21
3999.69964944052
 31
0.0
  0
ARC
  5
1B2CF
330
2
100
AcDbEntity
  8
VLB
100
AcDbCircle
 10
-11551.84256648438
 20
4001.65971044052
 30
0.0
 40
3.373272
100
AcDbArc
 50
55.43490699991969
 51
120.0000000000272
  0
LINE
  5
1B2D0
330
2
100
AcDbEntity
  8
VLB
100
AcDbLine
 10
-11552.74643148438
 20
4005.032982440519
 30
0.0
 11
-11553.77776848438
 21
4004.43753944052
 31
0.0
  0
LINE
  5
1B2D1
330
2
100
AcDbEntity
  8
VLB
100
AcDbLine
 10
-11552.01309848437
 20
3999.69964944052
 30
0.0
 11
-11552.01309848437
 21
4000.366316440521
 31
0.0
  0
LINE
  5
1B2D2
330
2
100
AcDbEntity
  8
VLB
100
AcDbLine
 10
-11553.57976548438
 20
3998.899649440522
 30
0.0
 11
-11553.57976548438
 21
3999.69964944052
 31
0.0
1001
ACAD
1000
ASC_BOUNDS
1002
{
1070
    16
1002
}
  0
LINE
  5
1B2D3
330
2
100
AcDbEntity
  8
VLB
100
AcDbLine
 10
-11553.57976548438
 20
3999.69964944052
 30
0.0
 11
-11553.57976548438
 21
3998.899649440522
 31
0.0
  0
LINE
  5
1B2D4
330
2
100
AcDbEntity
  8
VLB
100
AcDbLine
 10
-11549.92876748438
 20
4000.366316440521
 30
0.0
 11
-11549.92876748438
 21
4004.43753944052
 31
0.0
  0
LINE
  5
1B2D5
330
2
100
AcDbEntity
  8
VLB
100
AcDbLine
 10
-11553.77776848438
 20
4000.366316440521
 30
0.0
 11
-11553.77776848438
 21
4004.43753944052
 31
0.0
  0
LINE
  5
1B2D6
330
2
100
AcDbEntity
  8
VLB
100
AcDbLine
 10
-11545.07976548437
 20
3999.69964944052
 30
0.0
 11
-11546.07976548438
 21
3999.69964944052
 31
0.0
  0
LINE
  5
1B2D7
330
2
100
AcDbEntity
  8
VLB
100
AcDbLine
 10
-11539.41309948438
 20
4005.032982440519
 30
0.0
 11
-11538.38176348437
 21
4004.43753944052
 31
0.0
  0
LINE
  5
1B2D8
330
2
100
AcDbEntity
  8
VLB
100
AcDbLine
 10
-11538.57976648437
 20
3998.899649440522
 30
0.0
 11
-11538.57976648437
 21
3999.69964944052
 31
0.0
1001
ACAD
1000
ASC_BOUNDS
1002
{
1070
    16
1002
}
  0
LINE
  5
1B2D9
330
2
100
AcDbEntity
  8
VLB
100
AcDbLine
 10
-11540.14643348438
 20
3999.69964944052
 30
0.0
 11
-11540.14643348438
 21
4000.366316440521
 31
0.0
  0
LINE
  5
1B2DA
330
2
100
AcDbEntity
  8
VLB
100
AcDbLine
 10
-11538.38176348437
 20
4000.366316440521
 30
0.0
 11
-11538.38176348437
 21
4004.43753944052
 31
0.0
  0
LINE
  5
1B2DB
330
2
100
AcDbEntity
  8
VLB
100
AcDbLine
 10
-11542.23076448438
 20
4000.366316440521
 30
0.0
 11
-11542.23076448438
 21
4004.43753944052
 31
0.0
  0
ARC
  5
1B2DC
330
2
100
AcDbEntity
  8
VLB
100
AcDbCircle
 10
-11540.31696548438
 20
4001.65971044052
 30
0.0
 40
3.373272
100
AcDbArc
 50
59.99999999997275
 51
124.5650930000802
  0
LINE
  5
1B2DD
330
2
100
AcDbEntity
  8
SPS
100
AcDbLine
 10
-11546.07976548438
 20
3976.932101284155
 30
0.0
 11
-11546.07976548438
 21
4012.011669945279
 31
0.0
  0
LINE
  5
1B2DE
330
2
100
AcDbEntity
  8
VLB
100
AcDbLine
 10
-11193.57976448436
 20
3998.899649440522
 30
0.0
 11
-11193.57976448436
 21
3999.69964944052
 31
0.0
1001
ACAD
1000
ASC_BOUNDS
1002
{
1070
    16
1002
}
  0
LINE
  5
1B2DF
330
2
100
AcDbEntity
  8
VLB
100
AcDbLine
 10
-11192.01309748436
 20
3999.69964944052
 30
0.0
 11
-11192.01309748436
 21
4000.366316440521
 31
0.0
  0
LINE
  5
1B2E0
330
2
100
AcDbEntity
  8
VLB
100
AcDbLine
 10
-11193.77776748436
 20
4000.366316440521
 30
0.0
 11
-11193.77776748436
 21
4004.43753944052
 31
0.0
  0
LINE
  5
1B2E1
330
2
100
AcDbEntity
  8
VLB
100
AcDbLine
 10
-11189.92876648435
 20
4000.366316440521
 30
0.0
 11
-11189.92876648435
 21
4004.43753944052
 31
0.0
  0
ARC
  5
1B2E2
330
2
100
AcDbEntity
  8
VLB
100
AcDbCircle
 10
-11191.84256548436
 20
4001.65971044052
 30
0.0
 40
3.373272
100
AcDbArc
 50
55.43490699991971
 51
120.0000000000272
  0
LINE
  5
1B2E3
330
2
100
AcDbEntity
  8
SPS
100
AcDbLine
 10
-11186.07976548436
 20
3976.932101284155
 30
0.0
 11
-11186.07976548436
 21
4012.011669945279
 31
0.0
  0
LINE
  5
1B2E4
330
2
100
AcDbEntity
  8
VLB
100
AcDbLine
 10
-11187.07976548436
 20
4005.032982440519
 30
0.0
 11
-11192.74643148436
 21
4005.032982440519
 31
0.0
  0
ARC
  5
1B2E5
330
2
100
AcDbEntity
  8
VLB
100
AcDbCircle
 10
-11186.07976548436
 20
3992.295093440521
 30
0.0
 40
12.737889
100
AcDbArc
 50
94.50269199997842
 51
107.5879540000596
  0
LINE
  5
1B2E6
330
2
100
AcDbEntity
  8
VLB
100
AcDbLine
 10
-11188.16167248436
 20
3999.69964944052
 30
0.0
 11
-11192.01309748436
 21
3999.69964944052
 31
0.0
  0
LINE
  5
1B2E7
330
2
100
AcDbEntity
  8
VLB
100
AcDbLine
 10
-11193.57976448436
 20
3999.69964944052
 30
0.0
 11
-11187.07976548436
 21
3999.69964944052
 31
0.0
  0
LINE
  5
1B2E8
330
2
100
AcDbEntity
  8
VLB
100
AcDbLine
 10
-11187.07976548436
 20
4000.366316440521
 30
0.0
 11
-11193.77776748436
 21
4000.366316440521
 31
0.0
  0
LINE
  5
1B2E9
330
2
100
AcDbEntity
  8
VLB
100
AcDbLine
 10
-11179.41309948435
 20
4005.032982440519
 30
0.0
 11
-11187.07976548436
 21
4005.032982440519
 31
0.0
  0
ARC
  5
1B2EA
330
2
100
AcDbEntity
  8
VLB
100
AcDbCircle
 10
-11186.07976548436
 20
3992.295093440521
 30
0.0
 40
12.737889
100
AcDbArc
 50
72.4120459999404
 51
94.50269199997842
  0
LINE
  5
1B2EB
330
2
100
AcDbEntity
  8
VLB
100
AcDbLine
 10
-11186.07976548436
 20
3999.69964944052
 30
0.0
 11
-11178.57976548435
 21
3999.69964944052
 31
0.0
  0
LINE
  5
1B2EC
330
2
100
AcDbEntity
  8
VLB
100
AcDbLine
 10
-11178.38176248435
 20
4000.366316440521
 30
0.0
 11
-11187.07976548436
 21
4000.366316440521
 31
0.0
  0
LINE
  5
1B2ED
330
2
100
AcDbEntity
  8
VLB
100
AcDbLine
 10
-11180.14643248436
 20
3999.69964944052
 30
0.0
 11
-11187.07976548436
 21
3999.69964944052
 31
0.0
  0
ARC
  5
1B2EE
330
2
100
AcDbEntity
  8
VLB
100
AcDbCircle
 10
-11180.31696448435
 20
4001.65971044052
 30
0.0
 40
3.373272
100
AcDbArc
 50
59.99999999997277
 51
124.5650930000802
  0
LINE
  5
1B2EF
330
2
100
AcDbEntity
  8
VLB
100
AcDbLine
 10
-11179.41309948435
 20
4005.032982440519
 30
0.0
 11
-11178.38176248435
 21
4004.43753944052
 31
0.0
  0
LINE
  5
1B2F0
330
2
100
AcDbEntity
  8
VLB
100
AcDbLine
 10
-11180.14643248436
 20
3999.69964944052
 30
0.0
 11
-11180.14643248436
 21
4000.366316440521
 31
0.0
  0
LINE
  5
1B2F1
330
2
100
AcDbEntity
  8
VLB
100
AcDbLine
 10
-11178.57976548435
 20
3998.899649440522
 30
0.0
 11
-11178.57976548435
 21
3999.69964944052
 31
0.0
1001
ACAD
1000
ASC_BOUNDS
1002
{
1070
    16
1002
}
  0
LINE
  5
1B2F2
330
2
100
AcDbEntity
  8
VLB
100
AcDbLine
 10
-11178.57976548435
 20
3999.69964944052
 30
0.0
 11
-11178.57976548435
 21
3998.899649440522
 31
0.0
  0
LINE
  5
1B2F3
330
2
100
AcDbEntity
  8
VLB
100
AcDbLine
 10
-11182.23076348435
 20
4000.366316440521
 30
0.0
 11
-11182.23076348435
 21
4004.43753944052
 31
0.0
  0
LINE
  5
1B2F4
330
2
100
AcDbEntity
  8
VLB
100
AcDbLine
 10
-11178.38176248435
 20
4000.366316440521
 30
0.0
 11
-11178.38176248435
 21
4004.43753944052
 31
0.0
  0
LINE
  5
1B2F5
330
2
100
AcDbEntity
  8
VLB
100
AcDbLine
 10
-11187.07976548436
 20
3999.69964944052
 30
0.0
 11
-11186.07976548436
 21
3999.69964944052
 31
0.0
  0
LINE
  5
1B2F6
330
2
100
AcDbEntity
  8
VLB
100
AcDbLine
 10
-11192.74643148436
 20
4005.032982440519
 30
0.0
 11
-11193.77776748436
 21
4004.43753944052
 31
0.0
  0
LINE
  5
1B2F7
330
2
100
AcDbEntity
  8
VLB
100
AcDbLine
 10
-11874.07976548437
 20
3318.399648440519
 30
0.0
 11
-11874.87976548437
 21
3318.399648440519
 31
0.0
1001
ACAD
1000
ASC_BOUNDS
1002
{
1070
    16
1002
}
  0
LINE
  5
1B2F8
330
2
100
AcDbEntity
  8
VLB
100
AcDbLine
 10
-11874.87976548437
 20
3316.832981440516
 30
0.0
 11
-11875.54643248437
 21
3316.832981440516
 31
0.0
  0
LINE
  5
1B2F9
330
2
100
AcDbEntity
  8
VLB
100
AcDbLine
 10
-11875.54643248437
 20
3318.597651440517
 30
0.0
 11
-11879.61765548437
 21
3318.597651440517
 31
0.0
  0
LINE
  5
1B2FA
330
2
100
AcDbEntity
  8
VLB
100
AcDbLine
 10
-11875.54643248437
 20
3314.748650440514
 30
0.0
 11
-11879.61765548437
 21
3314.748650440514
 31
0.0
  0
ARC
  5
1B2FB
330
2
100
AcDbEntity
  8
VLB
100
AcDbCircle
 10
-11876.83982648437
 20
3316.662449440515
 30
0.0
 40
3.373272
100
AcDbArc
 50
149.9999999999727
 51
214.5650930000803
  0
LINE
  5
1B2FC
330
2
100
AcDbEntity
  8
SPS
100
AcDbLine
 10
-11852.112217328
 20
3310.899649440515
 30
0.0
 11
-11887.19178598913
 21
3310.899649440515
 31
0.0
  0
LINE
  5
1B2FD
330
2
100
AcDbEntity
  8
VLB
100
AcDbLine
 10
-11880.21309848437
 20
3311.899649440519
 30
0.0
 11
-11880.21309848437
 21
3317.566315440516
 31
0.0
  0
ARC
  5
1B2FE
330
2
100
AcDbEntity
  8
VLB
100
AcDbCircle
 10
-11867.47520948437
 20
3310.899649440514
 30
0.0
 40
12.737889
100
AcDbArc
 50
162.4120459999403
 51
175.4973080000215
  0
LINE
  5
1B2FF
330
2
100
AcDbEntity
  8
VLB
100
AcDbLine
 10
-11874.87976548437
 20
3312.981556440519
 30
0.0
 11
-11874.87976548437
 21
3316.832981440516
 31
0.0
  0
LINE
  5
1B300
330
2
100
AcDbEntity
  8
VLB
100
AcDbLine
 10
-11874.87976548437
 20
3318.399648440519
 30
0.0
 11
-11874.87976548437
 21
3311.899649440519
 31
0.0
  0
LINE
  5
1B301
330
2
100
AcDbEntity
  8
VLB
100
AcDbLine
 10
-11875.54643248437
 20
3311.899649440519
 30
0.0
 11
-11875.54643248437
 21
3318.597651440517
 31
0.0
  0
LINE
  5
1B302
330
2
100
AcDbEntity
  8
VLB
100
AcDbLine
 10
-11880.21309848437
 20
3304.232983440514
 30
0.0
 11
-11880.21309848437
 21
3311.899649440519
 31
0.0
  0
ARC
  5
1B303
330
2
100
AcDbEntity
  8
VLB
100
AcDbCircle
 10
-11867.47520948437
 20
3310.899649440514
 30
0.0
 40
12.737889
100
AcDbArc
 50
175.4973080000215
 51
197.5879540000595
  0
LINE
  5
1B304
330
2
100
AcDbEntity
  8
VLB
100
AcDbLine
 10
-11874.87976548437
 20
3310.899649440515
 30
0.0
 11
-11874.87976548437
 21
3303.399649440516
 31
0.0
  0
LINE
  5
1B305
330
2
100
AcDbEntity
  8
VLB
100
AcDbLine
 10
-11875.54643248437
 20
3303.201646440514
 30
0.0
 11
-11875.54643248437
 21
3311.899649440519
 31
0.0
  0
LINE
  5
1B306
330
2
100
AcDbEntity
  8
VLB
100
AcDbLine
 10
-11874.87976548437
 20
3304.966316440518
 30
0.0
 11
-11874.87976548437
 21
3311.899649440519
 31
0.0
  0
ARC
  5
1B307
330
2
100
AcDbEntity
  8
VLB
100
AcDbCircle
 10
-11876.83982648437
 20
3305.136848440513
 30
0.0
 40
3.373272
100
AcDbArc
 50
145.4349069999196
 51
210.0000000000272
  0
LINE
  5
1B308
330
2
100
AcDbEntity
  8
VLB
100
AcDbLine
 10
-11880.21309848437
 20
3304.232983440514
 30
0.0
 11
-11879.61765548437
 21
3303.201646440514
 31
0.0
  0
LINE
  5
1B309
330
2
100
AcDbEntity
  8
VLB
100
AcDbLine
 10
-11874.87976548437
 20
3304.966316440518
 30
0.0
 11
-11875.54643248437
 21
3304.966316440518
 31
0.0
  0
LINE
  5
1B30A
330
2
100
AcDbEntity
  8
VLB
100
AcDbLine
 10
-11874.07976548437
 20
3303.399649440516
 30
0.0
 11
-11874.87976548437
 21
3303.399649440516
 31
0.0
1001
ACAD
1000
ASC_BOUNDS
1002
{
1070
    16
1002
}
  0
LINE
  5
1B30B
330
2
100
AcDbEntity
  8
VLB
100
AcDbLine
 10
-11874.87976548437
 20
3303.399649440516
 30
0.0
 11
-11874.07976548437
 21
3303.399649440516
 31
0.0
  0
LINE
  5
1B30C
330
2
100
AcDbEntity
  8
VLB
100
AcDbLine
 10
-11875.54643248437
 20
3307.050647440516
 30
0.0
 11
-11879.61765548437
 21
3307.050647440516
 31
0.0
  0
LINE
  5
1B30D
330
2
100
AcDbEntity
  8
VLB
100
AcDbLine
 10
-11875.54643248437
 20
3303.201646440514
 30
0.0
 11
-11879.61765548437
 21
3303.201646440514
 31
0.0
  0
LINE
  5
1B30E
330
2
100
AcDbEntity
  8
VLB
100
AcDbLine
 10
-11874.87976548437
 20
3311.899649440519
 30
0.0
 11
-11874.87976548437
 21
3310.899649440515
 31
0.0
  0
LINE
  5
1B30F
330
2
100
AcDbEntity
  8
VLB
100
AcDbLine
 10
-11880.21309848437
 20
3317.566315440516
 30
0.0
 11
-11879.61765548437
 21
3318.597651440517
 31
0.0
  0
LINE
  5
1B310
330
2
100
AcDbEntity
  8
VLB
100
AcDbLine
 10
-11880.21309848437
 20
3664.232983440536
 30
0.0
 11
-11879.61765548437
 21
3663.201647440536
 31
0.0
  0
LINE
  5
1B311
330
2
100
AcDbEntity
  8
VLB
100
AcDbLine
 10
-11874.87976548437
 20
3669.899649440533
 30
0.0
 11
-11874.87976548437
 21
3670.899649440537
 31
0.0
  0
LINE
  5
1B312
330
2
100
AcDbEntity
  8
VLB
100
AcDbLine
 10
-11875.54643248437
 20
3678.597652440538
 30
0.0
 11
-11879.61765548437
 21
3678.597652440538
 31
0.0
  0
LINE
  5
1B313
330
2
100
AcDbEntity
  8
VLB
100
AcDbLine
 10
-11875.54643248437
 20
3674.748651440536
 30
0.0
 11
-11879.61765548437
 21
3674.748651440536
 31
0.0
  0
LINE
  5
1B314
330
2
100
AcDbEntity
  8
VLB
100
AcDbLine
 10
-11874.87976548437
 20
3678.399649440537
 30
0.0
 11
-11874.07976548437
 21
3678.399649440537
 31
0.0
  0
LINE
  5
1B315
330
2
100
AcDbEntity
  8
VLB
100
AcDbLine
 10
-11874.07976548437
 20
3678.399649440537
 30
0.0
 11
-11874.87976548437
 21
3678.399649440537
 31
0.0
1001
ACAD
1000
ASC_BOUNDS
1002
{
1070
    16
1002
}
  0
LINE
  5
1B316
330
2
100
AcDbEntity
  8
VLB
100
AcDbLine
 10
-11874.87976548437
 20
3676.832982440535
 30
0.0
 11
-11875.54643248437
 21
3676.832982440535
 31
0.0
  0
LINE
  5
1B317
330
2
100
AcDbEntity
  8
VLB
100
AcDbLine
 10
-11880.21309848437
 20
3677.566315440538
 30
0.0
 11
-11879.61765548437
 21
3678.597652440538
 31
0.0
  0
ARC
  5
1B318
330
2
100
AcDbEntity
  8
VLB
100
AcDbCircle
 10
-11876.83982648437
 20
3676.662450440538
 30
0.0
 40
3.373272
100
AcDbArc
 50
149.9999999999727
 51
214.5650930000803
  0
LINE
  5
1B319
330
2
100
AcDbEntity
  8
VLB
100
AcDbLine
 10
-11874.87976548437
 20
3676.832982440535
 30
0.0
 11
-11874.87976548437
 21
3669.899649440533
 31
0.0
  0
LINE
  5
1B31A
330
2
100
AcDbEntity
  8
VLB
100
AcDbLine
 10
-11875.54643248437
 20
3678.597652440538
 30
0.0
 11
-11875.54643248437
 21
3669.899649440533
 31
0.0
  0
LINE
  5
1B31B
330
2
100
AcDbEntity
  8
VLB
100
AcDbLine
 10
-11874.87976548437
 20
3670.899649440537
 30
0.0
 11
-11874.87976548437
 21
3678.399649440537
 31
0.0
  0
ARC
  5
1B31C
330
2
100
AcDbEntity
  8
VLB
100
AcDbCircle
 10
-11867.47520948437
 20
3670.899649440537
 30
0.0
 40
12.737889
100
AcDbArc
 50
162.4120459999403
 51
184.5026919999783
  0
LINE
  5
1B31D
330
2
100
AcDbEntity
  8
VLB
100
AcDbLine
 10
-11880.21309848437
 20
3677.566315440538
 30
0.0
 11
-11880.21309848437
 21
3669.899649440533
 31
0.0
  0
LINE
  5
1B31E
330
2
100
AcDbEntity
  8
VLB
100
AcDbLine
 10
-11875.54643248437
 20
3669.899649440533
 30
0.0
 11
-11875.54643248437
 21
3663.201647440536
 31
0.0
  0
LINE
  5
1B31F
330
2
100
AcDbEntity
  8
VLB
100
AcDbLine
 10
-11874.87976548437
 20
3663.399650440533
 30
0.0
 11
-11874.87976548437
 21
3669.899649440533
 31
0.0
  0
LINE
  5
1B320
330
2
100
AcDbEntity
  8
VLB
100
AcDbLine
 10
-11874.87976548437
 20
3668.817742440534
 30
0.0
 11
-11874.87976548437
 21
3664.966317440537
 31
0.0
  0
ARC
  5
1B321
330
2
100
AcDbEntity
  8
VLB
100
AcDbCircle
 10
-11867.47520948437
 20
3670.899649440537
 30
0.0
 40
12.737889
100
AcDbArc
 50
184.5026919999783
 51
197.5879540000596
  0
LINE
  5
1B322
330
2
100
AcDbEntity
  8
VLB
100
AcDbLine
 10
-11880.21309848437
 20
3669.899649440533
 30
0.0
 11
-11880.21309848437
 21
3664.232983440536
 31
0.0
  0
LINE
  5
1B323
330
2
100
AcDbEntity
  8
SPS
100
AcDbLine
 10
-11852.112217328
 20
3670.899649440537
 30
0.0
 11
-11887.19178598913
 21
3670.899649440537
 31
0.0
  0
ARC
  5
1B324
330
2
100
AcDbEntity
  8
VLB
100
AcDbCircle
 10
-11876.83982648437
 20
3665.136849440537
 30
0.0
 40
3.373272
100
AcDbArc
 50
145.4349069999197
 51
210.0000000000272
  0
LINE
  5
1B325
330
2
100
AcDbEntity
  8
VLB
100
AcDbLine
 10
-11875.54643248437
 20
3667.050648440538
 30
0.0
 11
-11879.61765548437
 21
3667.050648440538
 31
0.0
  0
LINE
  5
1B326
330
2
100
AcDbEntity
  8
VLB
100
AcDbLine
 10
-11875.54643248437
 20
3663.201647440536
 30
0.0
 11
-11879.61765548437
 21
3663.201647440536
 31
0.0
  0
LINE
  5
1B327
330
2
100
AcDbEntity
  8
VLB
100
AcDbLine
 10
-11874.87976548437
 20
3664.966317440537
 30
0.0
 11
-11875.54643248437
 21
3664.966317440537
 31
0.0
  0
LINE
  5
1B328
330
2
100
AcDbEntity
  8
VLB
100
AcDbLine
 10
-11874.07976548437
 20
3663.399650440533
 30
0.0
 11
-11874.87976548437
 21
3663.399650440533
 31
0.0
1001
ACAD
1000
ASC_BOUNDS
1002
{
1070
    16
1002
}
  0
LINE
  5
1B329
330
2
100
AcDbEntity
  8
VLB
100
AcDbLine
 10
-11193.57976448436
 20
2982.899649440521
 30
0.0
 11
-11193.57976448436
 21
2982.099649440522
 31
0.0
1001
ACAD
1000
ASC_BOUNDS
1002
{
1070
    16
1002
}
  0
LINE
  5
1B32A
330
2
100
AcDbEntity
  8
VLB
100
AcDbLine
 10
-11192.01309748436
 20
2982.099649440522
 30
0.0
 11
-11192.01309748436
 21
2981.432982440523
 31
0.0
  0
LINE
  5
1B32B
330
2
100
AcDbEntity
  8
VLB
100
AcDbLine
 10
-11193.77776748436
 20
2981.432982440523
 30
0.0
 11
-11193.77776748436
 21
2977.361759440523
 31
0.0
  0
LINE
  5
1B32C
330
2
100
AcDbEntity
  8
VLB
100
AcDbLine
 10
-11189.92876648436
 20
2981.432982440523
 30
0.0
 11
-11189.92876648436
 21
2977.361759440523
 31
0.0
  0
ARC
  5
1B32D
330
2
100
AcDbEntity
  8
VLB
100
AcDbCircle
 10
-11191.84256548436
 20
2980.139588440522
 30
0.0
 40
3.373272
100
AcDbArc
 50
239.9999999999727
 51
304.5650930000802
  0
LINE
  5
1B32E
330
2
100
AcDbEntity
  8
SPS
100
AcDbLine
 10
-11186.07976548436
 20
3004.867197596888
 30
0.0
 11
-11186.07976548436
 21
2969.787628935764
 31
0.0
  0
LINE
  5
1B32F
330
2
100
AcDbEntity
  8
VLB
100
AcDbLine
 10
-11187.07976548437
 20
2976.766316440523
 30
0.0
 11
-11192.74643148436
 21
2976.766316440523
 31
0.0
  0
ARC
  5
1B330
330
2
100
AcDbEntity
  8
VLB
100
AcDbCircle
 10
-11186.07976548436
 20
2989.504205440521
 30
0.0
 40
12.737889
100
AcDbArc
 50
252.4120459999403
 51
265.4973080000215
  0
LINE
  5
1B331
330
2
100
AcDbEntity
  8
VLB
100
AcDbLine
 10
-11188.16167248437
 20
2982.099649440522
 30
0.0
 11
-11192.01309748436
 21
2982.099649440522
 31
0.0
  0
LINE
  5
1B332
330
2
100
AcDbEntity
  8
VLB
100
AcDbLine
 10
-11193.57976448436
 20
2982.099649440522
 30
0.0
 11
-11187.07976548437
 21
2982.099649440522
 31
0.0
  0
LINE
  5
1B333
330
2
100
AcDbEntity
  8
VLB
100
AcDbLine
 10
-11187.07976548437
 20
2981.432982440523
 30
0.0
 11
-11193.77776748436
 21
2981.432982440523
 31
0.0
  0
LINE
  5
1B334
330
2
100
AcDbEntity
  8
VLB
100
AcDbLine
 10
-11179.41309948436
 20
2976.766316440523
 30
0.0
 11
-11187.07976548437
 21
2976.766316440523
 31
0.0
  0
ARC
  5
1B335
330
2
100
AcDbEntity
  8
VLB
100
AcDbCircle
 10
-11186.07976548436
 20
2989.504205440521
 30
0.0
 40
12.737889
100
AcDbArc
 50
265.4973080000215
 51
287.5879540000595
  0
LINE
  5
1B336
330
2
100
AcDbEntity
  8
VLB
100
AcDbLine
 10
-11186.07976548436
 20
2982.099649440522
 30
0.0
 11
-11178.57976548436
 21
2982.099649440522
 31
0.0
  0
LINE
  5
1B337
330
2
100
AcDbEntity
  8
VLB
100
AcDbLine
 10
-11178.38176248436
 20
2981.432982440523
 30
0.0
 11
-11187.07976548437
 21
2981.432982440523
 31
0.0
  0
LINE
  5
1B338
330
2
100
AcDbEntity
  8
VLB
100
AcDbLine
 10
-11180.14643248437
 20
2982.099649440522
 30
0.0
 11
-11187.07976548437
 21
2982.099649440522
 31
0.0
  0
ARC
  5
1B339
330
2
100
AcDbEntity
  8
VLB
100
AcDbCircle
 10
-11180.31696448436
 20
2980.139588440522
 30
0.0
 40
3.373272
100
AcDbArc
 50
235.4349069999196
 51
300.0000000000272
  0
LINE
  5
1B33A
330
2
100
AcDbEntity
  8
VLB
100
AcDbLine
 10
-11179.41309948436
 20
2976.766316440523
 30
0.0
 11
-11178.38176248436
 21
2977.361759440523
 31
0.0
  0
LINE
  5
1B33B
330
2
100
AcDbEntity
  8
VLB
100
AcDbLine
 10
-11180.14643248437
 20
2982.099649440522
 30
0.0
 11
-11180.14643248437
 21
2981.432982440523
 31
0.0
  0
LINE
  5
1B33C
330
2
100
AcDbEntity
  8
VLB
100
AcDbLine
 10
-11178.57976548436
 20
2982.899649440521
 30
0.0
 11
-11178.57976548436
 21
2982.099649440522
 31
0.0
1001
ACAD
1000
ASC_BOUNDS
1002
{
1070
    16
1002
}
  0
LINE
  5
1B33D
330
2
100
AcDbEntity
  8
VLB
100
AcDbLine
 10
-11178.57976548436
 20
2982.099649440522
 30
0.0
 11
-11178.57976548436
 21
2982.899649440521
 31
0.0
  0
LINE
  5
1B33E
330
2
100
AcDbEntity
  8
VLB
100
AcDbLine
 10
-11182.23076348436
 20
2981.432982440523
 30
0.0
 11
-11182.23076348436
 21
2977.361759440523
 31
0.0
  0
LINE
  5
1B33F
330
2
100
AcDbEntity
  8
VLB
100
AcDbLine
 10
-11178.38176248436
 20
2981.432982440523
 30
0.0
 11
-11178.38176248436
 21
2977.361759440523
 31
0.0
  0
LINE
  5
1B340
330
2
100
AcDbEntity
  8
VLB
100
AcDbLine
 10
-11187.07976548437
 20
2982.099649440522
 30
0.0
 11
-11186.07976548436
 21
2982.099649440522
 31
0.0
  0
LINE
  5
1B341
330
2
100
AcDbEntity
  8
VLB
100
AcDbLine
 10
-11192.74643148436
 20
2976.766316440523
 30
0.0
 11
-11193.77776748436
 21
2977.361759440523
 31
0.0
  0
LINE
  5
1B342
330
2
100
AcDbEntity
  8
VLB
100
AcDbLine
 10
-11539.41309948438
 20
2976.766316440523
 30
0.0
 11
-11538.38176348438
 21
2977.361759440523
 31
0.0
  0
LINE
  5
1B343
330
2
100
AcDbEntity
  8
VLB
100
AcDbLine
 10
-11545.07976548438
 20
2982.099649440522
 30
0.0
 11
-11546.07976548438
 21
2982.099649440522
 31
0.0
  0
LINE
  5
1B344
330
2
100
AcDbEntity
  8
VLB
100
AcDbLine
 10
-11553.77776848439
 20
2981.432982440523
 30
0.0
 11
-11553.77776848439
 21
2977.361759440523
 31
0.0
  0
LINE
  5
1B345
330
2
100
AcDbEntity
  8
VLB
100
AcDbLine
 10
-11549.92876748438
 20
2981.432982440523
 30
0.0
 11
-11549.92876748438
 21
2977.361759440523
 31
0.0
  0
LINE
  5
1B346
330
2
100
AcDbEntity
  8
VLB
100
AcDbLine
 10
-11553.57976548438
 20
2982.099649440522
 30
0.0
 11
-11553.57976548438
 21
2982.899649440521
 31
0.0
  0
LINE
  5
1B347
330
2
100
AcDbEntity
  8
VLB
100
AcDbLine
 10
-11553.57976548438
 20
2982.899649440521
 30
0.0
 11
-11553.57976548438
 21
2982.099649440522
 31
0.0
1001
ACAD
1000
ASC_BOUNDS
1002
{
1070
    16
1002
}
  0
LINE
  5
1B348
330
2
100
AcDbEntity
  8
VLB
100
AcDbLine
 10
-11552.01309848438
 20
2982.099649440522
 30
0.0
 11
-11552.01309848438
 21
2981.432982440523
 31
0.0
  0
LINE
  5
1B349
330
2
100
AcDbEntity
  8
VLB
100
AcDbLine
 10
-11552.74643148438
 20
2976.766316440523
 30
0.0
 11
-11553.77776848439
 21
2977.361759440523
 31
0.0
  0
ARC
  5
1B34A
330
2
100
AcDbEntity
  8
VLB
100
AcDbCircle
 10
-11551.84256648438
 20
2980.139588440522
 30
0.0
 40
3.373272
100
AcDbArc
 50
239.9999999999727
 51
304.5650930000802
  0
LINE
  5
1B34B
330
2
100
AcDbEntity
  8
VLB
100
AcDbLine
 10
-11552.01309848438
 20
2982.099649440522
 30
0.0
 11
-11545.07976548438
 21
2982.099649440522
 31
0.0
  0
LINE
  5
1B34C
330
2
100
AcDbEntity
  8
VLB
100
AcDbLine
 10
-11553.77776848439
 20
2981.432982440523
 30
0.0
 11
-11545.07976548438
 21
2981.432982440523
 31
0.0
  0
LINE
  5
1B34D
330
2
100
AcDbEntity
  8
VLB
100
AcDbLine
 10
-11546.07976548438
 20
2982.099649440522
 30
0.0
 11
-11553.57976548438
 21
2982.099649440522
 31
0.0
  0
ARC
  5
1B34E
330
2
100
AcDbEntity
  8
VLB
100
AcDbCircle
 10
-11546.07976548438
 20
2989.504205440521
 30
0.0
 40
12.737889
100
AcDbArc
 50
252.4120459999403
 51
274.5026919999784
  0
LINE
  5
1B34F
330
2
100
AcDbEntity
  8
VLB
100
AcDbLine
 10
-11552.74643148438
 20
2976.766316440523
 30
0.0
 11
-11545.07976548438
 21
2976.766316440523
 31
0.0
  0
LINE
  5
1B350
330
2
100
AcDbEntity
  8
VLB
100
AcDbLine
 10
-11545.07976548438
 20
2981.432982440523
 30
0.0
 11
-11538.38176348438
 21
2981.432982440523
 31
0.0
  0
LINE
  5
1B351
330
2
100
AcDbEntity
  8
VLB
100
AcDbLine
 10
-11538.57976648438
 20
2982.099649440522
 30
0.0
 11
-11545.07976548438
 21
2982.099649440522
 31
0.0
  0
LINE
  5
1B352
330
2
100
AcDbEntity
  8
VLB
100
AcDbLine
 10
-11543.99785848438
 20
2982.099649440522
 30
0.0
 11
-11540.14643348438
 21
2982.099649440522
 31
0.0
  0
ARC
  5
1B353
330
2
100
AcDbEntity
  8
VLB
100
AcDbCircle
 10
-11546.07976548438
 20
2989.504205440521
 30
0.0
 40
12.737889
100
AcDbArc
 50
274.5026919999784
 51
287.5879540000596
  0
LINE
  5
1B354
330
2
100
AcDbEntity
  8
VLB
100
AcDbLine
 10
-11545.07976548438
 20
2976.766316440523
 30
0.0
 11
-11539.41309948438
 21
2976.766316440523
 31
0.0
  0
LINE
  5
1B355
330
2
100
AcDbEntity
  8
SPS
100
AcDbLine
 10
-11546.07976548438
 20
3004.867197596888
 30
0.0
 11
-11546.07976548438
 21
2969.787628935764
 31
0.0
  0
ARC
  5
1B356
330
2
100
AcDbEntity
  8
VLB
100
AcDbCircle
 10
-11540.31696548438
 20
2980.139588440522
 30
0.0
 40
3.373272
100
AcDbArc
 50
235.4349069999197
 51
300.0000000000272
  0
LINE
  5
1B357
330
2
100
AcDbEntity
  8
VLB
100
AcDbLine
 10
-11542.23076448438
 20
2981.432982440523
 30
0.0
 11
-11542.23076448438
 21
2977.361759440523
 31
0.0
  0
LINE
  5
1B358
330
2
100
AcDbEntity
  8
VLB
100
AcDbLine
 10
-11538.38176348438
 20
2981.432982440523
 30
0.0
 11
-11538.38176348438
 21
2977.361759440523
 31
0.0
  0
LINE
  5
1B359
330
2
100
AcDbEntity
  8
VLB
100
AcDbLine
 10
-11540.14643348438
 20
2982.099649440522
 30
0.0
 11
-11540.14643348438
 21
2981.432982440523
 31
0.0
  0
LINE
  5
1B35A
330
2
100
AcDbEntity
  8
VLB
100
AcDbLine
 10
-11538.57976648438
 20
2982.899649440521
 30
0.0
 11
-11538.57976648438
 21
2982.099649440522
 31
0.0
1001
ACAD
1000
ASC_BOUNDS
1002
{
1070
    16
1002
}
  0
LINE
  5
1B35B
330
2
100
AcDbEntity
  8
VLB
100
AcDbLine
 10
-10858.07976548437
 20
3663.399650440526
 30
0.0
 11
-10857.27976548437
 21
3663.399650440526
 31
0.0
1001
ACAD
1000
ASC_BOUNDS
1002
{
1070
    16
1002
}
  0
LINE
  5
1B35C
330
2
100
AcDbEntity
  8
VLB
100
AcDbLine
 10
-10857.27976548437
 20
3664.966317440529
 30
0.0
 11
-10856.61309848437
 21
3664.966317440529
 31
0.0
  0
LINE
  5
1B35D
330
2
100
AcDbEntity
  8
VLB
100
AcDbLine
 10
-10856.61309848437
 20
3663.201647440528
 30
0.0
 11
-10852.54187548437
 21
3663.201647440528
 31
0.0
  0
LINE
  5
1B35E
330
2
100
AcDbEntity
  8
VLB
100
AcDbLine
 10
-10856.61309848437
 20
3667.050648440531
 30
0.0
 11
-10852.54187548437
 21
3667.050648440531
 31
0.0
  0
ARC
  5
1B35F
330
2
100
AcDbEntity
  8
VLB
100
AcDbCircle
 10
-10855.31970448437
 20
3665.136849440528
 30
0.0
 40
3.373272
100
AcDbArc
 50
329.9999999999726
 51
34.56509300008024
  0
LINE
  5
1B360
330
2
100
AcDbEntity
  8
SPS
100
AcDbLine
 10
-10880.04731364073
 20
3670.899649440529
 30
0.0
 11
-10844.96774497961
 21
3670.899649440529
 31
0.0
  0
LINE
  5
1B361
330
2
100
AcDbEntity
  8
VLB
100
AcDbLine
 10
-10851.94643248437
 20
3669.899649440525
 30
0.0
 11
-10851.94643248437
 21
3664.232983440528
 31
0.0
  0
ARC
  5
1B362
330
2
100
AcDbEntity
  8
VLB
100
AcDbCircle
 10
-10864.68432148437
 20
3670.89964944053
 30
0.0
 40
12.737889
100
AcDbArc
 50
342.4120459999402
 51
355.4973080000214
  0
LINE
  5
1B363
330
2
100
AcDbEntity
  8
VLB
100
AcDbLine
 10
-10857.27976548437
 20
3668.817742440526
 30
0.0
 11
-10857.27976548437
 21
3664.966317440529
 31
0.0
  0
LINE
  5
1B364
330
2
100
AcDbEntity
  8
VLB
100
AcDbLine
 10
-10857.27976548437
 20
3663.399650440526
 30
0.0
 11
-10857.27976548437
 21
3669.899649440525
 31
0.0
  0
LINE
  5
1B365
330
2
100
AcDbEntity
  8
VLB
100
AcDbLine
 10
-10856.61309848437
 20
3669.899649440525
 30
0.0
 11
-10856.61309848437
 21
3663.201647440528
 31
0.0
  0
LINE
  5
1B366
330
2
100
AcDbEntity
  8
VLB
100
AcDbLine
 10
-10851.94643248437
 20
3677.56631544053
 30
0.0
 11
-10851.94643248437
 21
3669.899649440525
 31
0.0
  0
ARC
  5
1B367
330
2
100
AcDbEntity
  8
VLB
100
AcDbCircle
 10
-10864.68432148437
 20
3670.89964944053
 30
0.0
 40
12.737889
100
AcDbArc
 50
355.4973080000214
 51
17.58795400005952
  0
LINE
  5
1B368
330
2
100
AcDbEntity
  8
VLB
100
AcDbLine
 10
-10857.27976548437
 20
3670.899649440529
 30
0.0
 11
-10857.27976548437
 21
3678.399649440529
 31
0.0
  0
LINE
  5
1B369
330
2
100
AcDbEntity
  8
VLB
100
AcDbLine
 10
-10856.61309848437
 20
3678.59765244053
 30
0.0
 11
-10856.61309848437
 21
3669.899649440525
 31
0.0
  0
LINE
  5
1B36A
330
2
100
AcDbEntity
  8
VLB
100
AcDbLine
 10
-10857.27976548437
 20
3676.832982440526
 30
0.0
 11
-10857.27976548437
 21
3669.899649440525
 31
0.0
  0
ARC
  5
1B36B
330
2
100
AcDbEntity
  8
VLB
100
AcDbCircle
 10
-10855.31970448437
 20
3676.66245044053
 30
0.0
 40
3.373272
100
AcDbArc
 50
325.4349069999196
 51
30.00000000002717
  0
LINE
  5
1B36C
330
2
100
AcDbEntity
  8
VLB
100
AcDbLine
 10
-10851.94643248437
 20
3677.56631544053
 30
0.0
 11
-10852.54187548437
 21
3678.59765244053
 31
0.0
  0
LINE
  5
1B36D
330
2
100
AcDbEntity
  8
VLB
100
AcDbLine
 10
-10857.27976548437
 20
3676.832982440526
 30
0.0
 11
-10856.61309848437
 21
3676.832982440526
 31
0.0
  0
LINE
  5
1B36E
330
2
100
AcDbEntity
  8
VLB
100
AcDbLine
 10
-10858.07976548437
 20
3678.399649440529
 30
0.0
 11
-10857.27976548437
 21
3678.399649440529
 31
0.0
1001
ACAD
1000
ASC_BOUNDS
1002
{
1070
    16
1002
}
  0
LINE
  5
1B36F
330
2
100
AcDbEntity
  8
VLB
100
AcDbLine
 10
-10857.27976548437
 20
3678.399649440529
 30
0.0
 11
-10858.07976548437
 21
3678.399649440529
 31
0.0
  0
LINE
  5
1B370
330
2
100
AcDbEntity
  8
VLB
100
AcDbLine
 10
-10856.61309848437
 20
3674.748651440528
 30
0.0
 11
-10852.54187548437
 21
3674.748651440528
 31
0.0
  0
LINE
  5
1B371
330
2
100
AcDbEntity
  8
VLB
100
AcDbLine
 10
-10856.61309848437
 20
3678.59765244053
 30
0.0
 11
-10852.54187548437
 21
3678.59765244053
 31
0.0
  0
LINE
  5
1B372
330
2
100
AcDbEntity
  8
VLB
100
AcDbLine
 10
-10857.27976548437
 20
3669.899649440525
 30
0.0
 11
-10857.27976548437
 21
3670.899649440529
 31
0.0
  0
LINE
  5
1B373
330
2
100
AcDbEntity
  8
VLB
100
AcDbLine
 10
-10851.94643248437
 20
3664.232983440528
 30
0.0
 11
-10852.54187548437
 21
3663.201647440528
 31
0.0
  0
LINE
  5
1B374
330
2
100
AcDbEntity
  8
VLB
100
AcDbLine
 10
-10851.94643248437
 20
3317.566315440508
 30
0.0
 11
-10852.54187548437
 21
3318.597651440508
 31
0.0
  0
LINE
  5
1B375
330
2
100
AcDbEntity
  8
VLB
100
AcDbLine
 10
-10857.27976548437
 20
3311.899649440511
 30
0.0
 11
-10857.27976548437
 21
3310.899649440507
 31
0.0
  0
LINE
  5
1B376
330
2
100
AcDbEntity
  8
VLB
100
AcDbLine
 10
-10856.61309848437
 20
3303.201646440506
 30
0.0
 11
-10852.54187548437
 21
3303.201646440506
 31
0.0
  0
LINE
  5
1B377
330
2
100
AcDbEntity
  8
VLB
100
AcDbLine
 10
-10856.61309848437
 20
3307.050647440508
 30
0.0
 11
-10852.54187548437
 21
3307.050647440508
 31
0.0
  0
LINE
  5
1B378
330
2
100
AcDbEntity
  8
VLB
100
AcDbLine
 10
-10857.27976548437
 20
3303.399649440507
 30
0.0
 11
-10858.07976548437
 21
3303.399649440507
 31
0.0
  0
LINE
  5
1B379
330
2
100
AcDbEntity
  8
VLB
100
AcDbLine
 10
-10858.07976548437
 20
3303.399649440507
 30
0.0
 11
-10857.27976548437
 21
3303.399649440507
 31
0.0
1001
ACAD
1000
ASC_BOUNDS
1002
{
1070
    16
1002
}
  0
LINE
  5
1B37A
330
2
100
AcDbEntity
  8
VLB
100
AcDbLine
 10
-10857.27976548437
 20
3304.96631644051
 30
0.0
 11
-10856.61309848437
 21
3304.96631644051
 31
0.0
  0
LINE
  5
1B37B
330
2
100
AcDbEntity
  8
VLB
100
AcDbLine
 10
-10851.94643248437
 20
3304.232983440506
 30
0.0
 11
-10852.54187548437
 21
3303.201646440506
 31
0.0
  0
ARC
  5
1B37C
330
2
100
AcDbEntity
  8
VLB
100
AcDbCircle
 10
-10855.31970448437
 20
3305.136848440505
 30
0.0
 40
3.373272
100
AcDbArc
 50
329.9999999999727
 51
34.56509300008024
  0
LINE
  5
1B37D
330
2
100
AcDbEntity
  8
VLB
100
AcDbLine
 10
-10857.27976548437
 20
3304.96631644051
 30
0.0
 11
-10857.27976548437
 21
3311.899649440511
 31
0.0
  0
LINE
  5
1B37E
330
2
100
AcDbEntity
  8
VLB
100
AcDbLine
 10
-10856.61309848437
 20
3303.201646440506
 30
0.0
 11
-10856.61309848437
 21
3311.899649440511
 31
0.0
  0
LINE
  5
1B37F
330
2
100
AcDbEntity
  8
VLB
100
AcDbLine
 10
-10857.27976548437
 20
3310.899649440507
 30
0.0
 11
-10857.27976548437
 21
3303.399649440507
 31
0.0
  0
ARC
  5
1B380
330
2
100
AcDbEntity
  8
VLB
100
AcDbCircle
 10
-10864.68432148437
 20
3310.899649440506
 30
0.0
 40
12.737889
100
AcDbArc
 50
342.4120459999403
 51
4.502691999978354
  0
LINE
  5
1B381
330
2
100
AcDbEntity
  8
VLB
100
AcDbLine
 10
-10851.94643248437
 20
3304.232983440506
 30
0.0
 11
-10851.94643248437
 21
3311.899649440511
 31
0.0
  0
LINE
  5
1B382
330
2
100
AcDbEntity
  8
VLB
100
AcDbLine
 10
-10856.61309848437
 20
3311.899649440511
 30
0.0
 11
-10856.61309848437
 21
3318.597651440508
 31
0.0
  0
LINE
  5
1B383
330
2
100
AcDbEntity
  8
VLB
100
AcDbLine
 10
-10857.27976548437
 20
3318.39964844051
 30
0.0
 11
-10857.27976548437
 21
3311.899649440511
 31
0.0
  0
LINE
  5
1B384
330
2
100
AcDbEntity
  8
VLB
100
AcDbLine
 10
-10857.27976548437
 20
3312.98155644051
 30
0.0
 11
-10857.27976548437
 21
3316.832981440507
 31
0.0
  0
ARC
  5
1B385
330
2
100
AcDbEntity
  8
VLB
100
AcDbCircle
 10
-10864.68432148437
 20
3310.899649440506
 30
0.0
 40
12.737889
100
AcDbArc
 50
4.502691999978354
 51
17.58795400005958
  0
LINE
  5
1B386
330
2
100
AcDbEntity
  8
VLB
100
AcDbLine
 10
-10851.94643248437
 20
3311.899649440511
 30
0.0
 11
-10851.94643248437
 21
3317.566315440508
 31
0.0
  0
LINE
  5
1B387
330
2
100
AcDbEntity
  8
SPS
100
AcDbLine
 10
-10880.04731364073
 20
3310.899649440507
 30
0.0
 11
-10844.96774497961
 21
3310.899649440507
 31
0.0
  0
ARC
  5
1B388
330
2
100
AcDbEntity
  8
VLB
100
AcDbCircle
 10
-10855.31970448437
 20
3316.662449440506
 30
0.0
 40
3.373272
100
AcDbArc
 50
325.4349069999196
 51
30.0000000000272
  0
LINE
  5
1B389
330
2
100
AcDbEntity
  8
VLB
100
AcDbLine
 10
-10856.61309848437
 20
3314.748650440506
 30
0.0
 11
-10852.54187548437
 21
3314.748650440506
 31
0.0
  0
LINE
  5
1B38A
330
2
100
AcDbEntity
  8
VLB
100
AcDbLine
 10
-10856.61309848437
 20
3318.597651440508
 30
0.0
 11
-10852.54187548437
 21
3318.597651440508
 31
0.0
  0
LINE
  5
1B38B
330
2
100
AcDbEntity
  8
VLB
100
AcDbLine
 10
-10857.27976548437
 20
3316.832981440507
 30
0.0
 11
-10856.61309848437
 21
3316.832981440507
 31
0.0
  0
LINE
  5
1B38C
330
2
100
AcDbEntity
  8
VLB
100
AcDbLine
 10
-10858.07976548437
 20
3318.39964844051
 30
0.0
 11
-10857.27976548437
 21
3318.39964844051
 31
0.0
1001
ACAD
1000
ASC_BOUNDS
1002
{
1070
    16
1002
}
  0
LINE
  5
1B38F
330
2
100
AcDbEntity
  8
SPS
100
AcDbLine
 10
-11827.77032090449
 20
3950.91566583566
 30
0.0
 11
-11827.77032090449
 21
3966.808517913503
 31
0.0
  0
LINE
  5
1B390
330
2
100
AcDbEntity
  8
SPS
100
AcDbLine
 10
-11865.32183070264
 20
3950.91566583566
 30
0.0
 11
-11865.32183070264
 21
3966.808517913503
 31
0.0
  0
LINE
  5
1B391
330
2
100
AcDbEntity
  8
VLB
100
AcDbLine
 10
-11873.07976548436
 20
3998.899649440522
 30
0.0
 11
-11873.07976548436
 21
3947.399649440522
 31
0.0
  0
LINE
  5
1B392
330
2
100
AcDbEntity
  8
VLB
100
AcDbLine
 10
-11820.07976548436
 20
3947.399649440522
 30
0.0
 11
-11820.07976548436
 21
3945.899649440518
 31
0.0
  0
LINE
  5
1B393
330
2
100
AcDbEntity
  8
VLB
100
AcDbLine
 10
-11820.07976548436
 20
3947.399649440522
 30
0.0
 11
-11873.07976548436
 21
3947.399649440522
 31
0.0
  0
LINE
  5
1B394
330
2
100
AcDbEntity
  8
VLB
100
AcDbLine
 10
-11874.07976548436
 20
3992.070836281438
 30
0.0
 11
-11874.07976548436
 21
3982.070836281442
 31
0.0
  0
ARC
  5
1B395
330
2
100
AcDbEntity
  8
VLB
100
AcDbCircle
 10
-11863.07976548448
 20
3987.070836281413
 30
0.0
 40
12.9999999998802
100
AcDbArc
 50
195.9423686055577
 51
202.6198649481446
  0
LINE
  5
1B396
330
2
100
AcDbEntity
  8
SPS
100
AcDbLine
 10
-11865.28506097464
 20
3987.07083628144
 30
0.0
 11
-11878.32425158065
 21
3987.07083628144
 31
0.0
  0
ARC
  5
1B397
330
2
100
AcDbEntity
  8
VLB
100
AcDbCircle
 10
-11863.07976548436
 20
3987.07083628144
 30
0.0
 40
12.99999999999925
100
AcDbArc
 50
164.0576313944422
 51
195.9423686055577
  0
ARC
  5
1B398
330
2
100
AcDbEntity
  8
VLB
100
AcDbCircle
 10
-11863.07976548424
 20
3987.070836281388
 30
0.0
 40
13.00000000013173
100
AcDbArc
 50
157.3801350519214
 51
164.0576313944422
  0
LINE
  5
1B399
330
2
100
AcDbEntity
  8
VLB
100
AcDbLine
 10
-11875.07976548436
 20
3992.07083628144
 30
0.0
 11
-11874.07976548436
 21
3992.070836281438
 31
0.0
  0
LINE
  5
1B39A
330
2
100
AcDbEntity
  8
VLB
100
AcDbLine
 10
-11875.07976548436
 20
3982.07083628144
 30
0.0
 11
-11874.07976548436
 21
3982.070836281442
 31
0.0
  0
LINE
  5
1B39B
330
2
100
AcDbEntity
  8
VLB
100
AcDbLine
 10
-11874.07976548436
 20
3997.399649440522
 30
0.0
 11
-11873.07976548436
 21
3997.399649440522
 31
0.0
  0
LINE
  5
1B39C
330
2
100
AcDbEntity
  8
SPS
100
AcDbLine
 10
-11865.32183070264
 20
3990.104944930795
 30
0.0
 11
-11865.32183070264
 21
4003.144135536806
 31
0.0
  0
LINE
  5
1B39D
330
2
100
AcDbEntity
  8
VLB
100
AcDbLine
 10
-11870.32183070265
 20
3999.89964944052
 30
0.0
 11
-11870.32183070264
 21
3998.899649440522
 31
0.0
  0
LINE
  5
1B39E
330
2
100
AcDbEntity
  8
VLB
100
AcDbLine
 10
-11860.32183070264
 20
3999.89964944052
 30
0.0
 11
-11860.32183070264
 21
3998.899649440522
 31
0.0
  0
ARC
  5
1B39F
330
2
100
AcDbEntity
  8
VLB
100
AcDbCircle
 10
-11865.32183070264
 20
3987.899649440522
 30
0.0
 40
12.99999999999925
100
AcDbArc
 50
67.3801350519691
 51
112.6198649480308
  0
LINE
  5
1B3A0
330
2
100
AcDbEntity
  8
SPS
100
AcDbLine
 10
-11834.08167746157
 20
3958.323908689621
 30
0.0
 11
-11820.74099131693
 21
3958.323908689621
 31
0.0
  0
CIRCLE
  5
1B3A1
330
2
100
AcDbEntity
  8
VLB
100
AcDbCircle
 10
-11827.77032090449
 20
3958.323908689621
 30
0.0
 40
5.000000000001818
  0
CIRCLE
  5
1B3A2
330
2
100
AcDbEntity
  8
VLB
100
AcDbCircle
 10
-11827.77032090449
 20
3958.323908689621
 30
0.0
 40
2.550000000006548
  0
CIRCLE
  5
1B3A3
330
2
100
AcDbEntity
  8
VLB
100
AcDbCircle
 10
-11865.32183070264
 20
3958.323908689621
 30
0.0
 40
2.550000000006548
  0
CIRCLE
  5
1B3A4
330
2
100
AcDbEntity
  8
VLB
100
AcDbCircle
 10
-11865.32183070264
 20
3958.323908689621
 30
0.0
 40
5.000000000001818
  0
LINE
  5
1B3A5
330
2
100
AcDbEntity
  8
SPS
100
AcDbLine
 10
-11871.63318725972
 20
3958.323908689621
 30
0.0
 11
-11858.29250111508
 21
3958.323908689621
 31
0.0
  0
LINE
  5
1B3A6
330
2
100
AcDbEntity
  8
SPS
100
AcDbLine
 10
-11833.50402473347
 20
2985.346227665172
 30
0.0
 11
-11833.50402473347
 21
2998.686913809814
 31
0.0
  0
CIRCLE
  5
1B3A7
330
2
100
AcDbEntity
  8
VLB
100
AcDbCircle
 10
-11833.50402473347
 20
2991.657584222247
 30
0.0
 40
5.000000000001818
  0
CIRCLE
  5
1B3A8
330
2
100
AcDbEntity
  8
VLB
100
AcDbCircle
 10
-11833.50402473347
 20
2991.657584222247
 30
0.0
 40
2.550000000006548
  0
CIRCLE
  5
1B3A9
330
2
100
AcDbEntity
  8
VLB
100
AcDbCircle
 10
-11833.50402473347
 20
3029.209094020398
 30
0.0
 40
2.550000000006548
  0
CIRCLE
  5
1B3AA
330
2
100
AcDbEntity
  8
VLB
100
AcDbCircle
 10
-11833.50402473347
 20
3029.209094020398
 30
0.0
 40
5.000000000001818
  0
LINE
  5
1B3AB
330
2
100
AcDbEntity
  8
SPS
100
AcDbLine
 10
-11833.50402473347
 20
3022.897737463324
 30
0.0
 11
-11833.50402473347
 21
3036.238423607966
 31
0.0
  0
ARC
  5
1B3AC
330
2
100
AcDbEntity
  8
VLB
100
AcDbCircle
 10
-11863.07976548437
 20
2991.657584222247
 30
0.0
 40
12.99999999999925
100
AcDbArc
 50
157.380135051969
 51
202.6198649480308
  0
LINE
  5
1B3AD
330
2
100
AcDbEntity
  8
VLB
100
AcDbLine
 10
-11875.07976548437
 20
2996.657584222247
 30
0.0
 11
-11874.07976548437
 21
2996.657584222247
 31
0.0
  0
LINE
  5
1B3AE
330
2
100
AcDbEntity
  8
VLB
100
AcDbLine
 10
-11875.07976548437
 20
2986.657584222247
 30
0.0
 11
-11874.07976548437
 21
2986.657584222251
 31
0.0
  0
LINE
  5
1B3AF
330
2
100
AcDbEntity
  8
SPS
100
AcDbLine
 10
-11865.28506097464
 20
2991.657584222247
 30
0.0
 11
-11878.32425158065
 21
2991.657584222247
 31
0.0
  0
LINE
  5
1B3B0
330
2
100
AcDbEntity
  8
VLB
100
AcDbLine
 10
-11872.57976548437
 20
2982.899649440528
 30
0.0
 11
-11872.57976548437
 21
2983.899649440528
 31
0.0
  0
LINE
  5
1B3B1
330
2
100
AcDbEntity
  8
VLB
100
AcDbLine
 10
-11857.25095232529
 20
2981.89964944053
 30
0.0
 11
-11857.25095232529
 21
2982.899649440528
 31
0.0
  0
LINE
  5
1B3B2
330
2
100
AcDbEntity
  8
VLB
100
AcDbLine
 10
-11867.25095232529
 20
2981.89964944053
 30
0.0
 11
-11867.25095232529
 21
2982.899649440528
 31
0.0
  0
ARC
  5
1B3B3
330
2
100
AcDbEntity
  8
VLB
100
AcDbCircle
 10
-11862.25095232523
 20
2993.899649440649
 30
0.0
 40
13.00000000013173
100
AcDbArc
 50
247.3801350519214
 51
254.0576313944422
  0
ARC
  5
1B3B4
330
2
100
AcDbEntity
  8
VLB
100
AcDbCircle
 10
-11862.25095232529
 20
2993.899649440527
 30
0.0
 40
12.99999999999925
100
AcDbArc
 50
254.0576313944422
 51
285.9423686055577
  0
LINE
  5
1B3B5
330
2
100
AcDbEntity
  8
SPS
100
AcDbLine
 10
-11862.25095232529
 20
2991.694353950254
 30
0.0
 11
-11862.25095232529
 21
2978.655163344244
 31
0.0
  0
ARC
  5
1B3B6
330
2
100
AcDbEntity
  8
VLB
100
AcDbCircle
 10
-11862.25095232526
 20
2993.899649440411
 30
0.0
 40
12.9999999998802
100
AcDbArc
 50
285.9423686055577
 51
292.6198649481445
  0
LINE
  5
1B3B7
330
2
100
AcDbEntity
  8
VLB
100
AcDbLine
 10
-11867.25095232529
 20
2982.899649440528
 30
0.0
 11
-11857.25095232529
 21
2982.899649440528
 31
0.0
  0
LINE
  5
1B3B8
330
2
100
AcDbEntity
  8
VLB
100
AcDbLine
 10
-11822.57976548437
 20
3036.899649440528
 30
0.0
 11
-11822.57976548437
 21
2983.899649440528
 31
0.0
  0
LINE
  5
1B3B9
330
2
100
AcDbEntity
  8
VLB
100
AcDbLine
 10
-11822.57976548437
 20
3036.899649440528
 30
0.0
 11
-11821.07976548437
 21
3036.899649440528
 31
0.0
  0
LINE
  5
1B3BA
330
2
100
AcDbEntity
  8
VLB
100
AcDbLine
 10
-11874.07976548437
 20
2983.899649440528
 30
0.0
 11
-11822.57976548437
 21
2983.899649440528
 31
0.0
  0
LINE
  5
1B3BB
330
2
100
AcDbEntity
  8
SPS
100
AcDbLine
 10
-11826.09578187951
 20
2991.657584222247
 30
0.0
 11
-11841.98863395735
 21
2991.657584222247
 31
0.0
  0
LINE
  5
1B3BC
330
2
100
AcDbEntity
  8
SPS
100
AcDbLine
 10
-11826.09578187951
 20
3029.209094020399
 30
0.0
 11
-11841.98863395735
 21
3029.209094020399
 31
0.0
  0
LINE
  5
1B3BD
330
2
100
AcDbEntity
  8
SPS
100
AcDbLine
 10
-10860.52634370902
 20
3023.475390191422
 30
0.0
 11
-10873.86702985366
 21
3023.475390191422
 31
0.0
  0
CIRCLE
  5
1B3BE
330
2
100
AcDbEntity
  8
VLB
100
AcDbCircle
 10
-10866.83770026609
 20
3023.475390191421
 30
0.0
 40
5.000000000001818
  0
CIRCLE
  5
1B3BF
330
2
100
AcDbEntity
  8
VLB
100
AcDbCircle
 10
-10866.83770026609
 20
3023.475390191421
 30
0.0
 40
2.550000000006548
  0
CIRCLE
  5
1B3C0
330
2
100
AcDbEntity
  8
VLB
100
AcDbCircle
 10
-10904.38921006424
 20
3023.475390191421
 30
0.0
 40
2.550000000006548
  0
CIRCLE
  5
1B3C1
330
2
100
AcDbEntity
  8
VLB
100
AcDbCircle
 10
-10904.38921006424
 20
3023.475390191421
 30
0.0
 40
5.000000000001818
  0
LINE
  5
1B3C2
330
2
100
AcDbEntity
  8
SPS
100
AcDbLine
 10
-10898.07785350717
 20
3023.475390191422
 30
0.0
 11
-10911.41853965181
 21
3023.475390191422
 31
0.0
  0
ARC
  5
1B3C3
330
2
100
AcDbEntity
  8
VLB
100
AcDbCircle
 10
-10866.83770026609
 20
2993.899649440521
 30
0.0
 40
12.99999999999925
100
AcDbArc
 50
247.380135051969
 51
292.6198649480308
  0
LINE
  5
1B3C4
330
2
100
AcDbEntity
  8
VLB
100
AcDbLine
 10
-10871.83770026609
 20
2981.899649440523
 30
0.0
 11
-10871.83770026609
 21
2982.899649440521
 31
0.0
  0
LINE
  5
1B3C5
330
2
100
AcDbEntity
  8
VLB
100
AcDbLine
 10
-10861.83770026609
 20
2981.899649440523
 30
0.0
 11
-10861.8377002661
 21
2982.899649440521
 31
0.0
  0
LINE
  5
1B3C6
330
2
100
AcDbEntity
  8
SPS
100
AcDbLine
 10
-10866.83770026609
 20
2991.694353950247
 30
0.0
 11
-10866.83770026609
 21
2978.655163344237
 31
0.0
  0
LINE
  5
1B3C7
330
2
100
AcDbEntity
  8
VLB
100
AcDbLine
 10
-10858.07976548437
 20
2984.399649440521
 30
0.0
 11
-10859.07976548438
 21
2984.399649440521
 31
0.0
  0
LINE
  5
1B3C8
330
2
100
AcDbEntity
  8
VLB
100
AcDbLine
 10
-10857.07976548438
 20
2999.728462599603
 30
0.0
 11
-10858.07976548437
 21
2999.728462599601
 31
0.0
  0
LINE
  5
1B3C9
330
2
100
AcDbEntity
  8
VLB
100
AcDbLine
 10
-10857.07976548438
 20
2989.728462599603
 30
0.0
 11
-10858.07976548437
 21
2989.728462599605
 31
0.0
  0
ARC
  5
1B3CA
330
2
100
AcDbEntity
  8
VLB
100
AcDbCircle
 10
-10869.0797654845
 20
2994.728462599655
 30
0.0
 40
13.00000000013173
100
AcDbArc
 50
337.3801350519214
 51
344.0576313944422
  0
ARC
  5
1B3CB
330
2
100
AcDbEntity
  8
VLB
100
AcDbCircle
 10
-10869.07976548437
 20
2994.728462599602
 30
0.0
 40
12.99999999999925
100
AcDbArc
 50
344.0576313944422
 51
15.94236860555772
  0
LINE
  5
1B3CC
330
2
100
AcDbEntity
  8
SPS
100
AcDbLine
 10
-10866.8744699941
 20
2994.728462599603
 30
0.0
 11
-10853.83527938809
 21
2994.728462599603
 31
0.0
  0
ARC
  5
1B3CD
330
2
100
AcDbEntity
  8
VLB
100
AcDbCircle
 10
-10869.07976548426
 20
2994.728462599629
 30
0.0
 40
12.9999999998802
100
AcDbArc
 50
15.94236860555772
 51
22.61986494814461
  0
LINE
  5
1B3CE
330
2
100
AcDbEntity
  8
VLB
100
AcDbLine
 10
-10858.07976548437
 20
2989.728462599605
 30
0.0
 11
-10858.07976548437
 21
2999.728462599601
 31
0.0
  0
LINE
  5
1B3CF
330
2
100
AcDbEntity
  8
VLB
100
AcDbLine
 10
-10912.07976548437
 20
3034.399649440521
 30
0.0
 11
-10859.07976548438
 21
3034.399649440521
 31
0.0
  0
LINE
  5
1B3D0
330
2
100
AcDbEntity
  8
VLB
100
AcDbLine
 10
-10912.07976548437
 20
3034.399649440521
 30
0.0
 11
-10912.07976548437
 21
3035.899649440525
 31
0.0
  0
LINE
  5
1B3D1
330
2
100
AcDbEntity
  8
VLB
100
AcDbLine
 10
-10859.07976548438
 20
2982.899649440521
 30
0.0
 11
-10859.07976548438
 21
3034.399649440521
 31
0.0
  0
LINE
  5
1B3D2
330
2
100
AcDbEntity
  8
SPS
100
AcDbLine
 10
-10866.83770026609
 20
3030.883633045382
 30
0.0
 11
-10866.83770026609
 21
3014.99078096754
 31
0.0
  0
LINE
  5
1B3D3
330
2
100
AcDbEntity
  8
SPS
100
AcDbLine
 10
-10904.38921006424
 20
3030.883633045382
 30
0.0
 11
-10904.38921006424
 21
3014.99078096754
 31
0.0
  0
LINE
  5
1B3D4
330
2
100
AcDbEntity
  8
SPS
100
AcDbLine
 10
-10898.65550623527
 20
3996.453071215872
 30
0.0
 11
-10898.65550623527
 21
3983.11238507123
 31
0.0
  0
CIRCLE
  5
1B3D5
330
2
100
AcDbEntity
  8
VLB
100
AcDbCircle
 10
-10898.65550623527
 20
3990.141714658797
 30
0.0
 40
5.000000000001818
  0
CIRCLE
  5
1B3D6
330
2
100
AcDbEntity
  8
VLB
100
AcDbCircle
 10
-10898.65550623527
 20
3990.141714658797
 30
0.0
 40
2.550000000006548
  0
CIRCLE
  5
1B3D7
330
2
100
AcDbEntity
  8
VLB
100
AcDbCircle
 10
-10898.65550623527
 20
3952.590204860645
 30
0.0
 40
2.550000000006548
  0
CIRCLE
  5
1B3D8
330
2
100
AcDbEntity
  8
VLB
100
AcDbCircle
 10
-10898.65550623527
 20
3952.590204860645
 30
0.0
 40
5.000000000001818
  0
LINE
  5
1B3D9
330
2
100
AcDbEntity
  8
SPS
100
AcDbLine
 10
-10898.65550623527
 20
3958.90156141772
 30
0.0
 11
-10898.65550623527
 21
3945.560875273079
 31
0.0
  0
ARC
  5
1B3DA
330
2
100
AcDbEntity
  8
VLB
100
AcDbCircle
 10
-10869.07976548437
 20
3990.141714658797
 30
0.0
 40
12.99999999999925
100
AcDbArc
 50
337.380135051969
 51
22.61986494803084
  0
LINE
  5
1B3DB
330
2
100
AcDbEntity
  8
VLB
100
AcDbLine
 10
-10857.07976548437
 20
3985.141714658798
 30
0.0
 11
-10858.07976548437
 21
3985.141714658798
 31
0.0
  0
LINE
  5
1B3DC
330
2
100
AcDbEntity
  8
VLB
100
AcDbLine
 10
-10857.07976548437
 20
3995.141714658797
 30
0.0
 11
-10858.07976548437
 21
3995.141714658793
 31
0.0
  0
LINE
  5
1B3DD
330
2
100
AcDbEntity
  8
SPS
100
AcDbLine
 10
-10866.87446999409
 20
3990.141714658797
 30
0.0
 11
-10853.83527938808
 21
3990.141714658797
 31
0.0
  0
LINE
  5
1B3DE
330
2
100
AcDbEntity
  8
VLB
100
AcDbLine
 10
-10859.57976548437
 20
3998.899649440516
 30
0.0
 11
-10859.57976548437
 21
3997.899649440516
 31
0.0
  0
LINE
  5
1B3DF
330
2
100
AcDbEntity
  8
VLB
100
AcDbLine
 10
-10874.90857864345
 20
3999.899649440514
 30
0.0
 11
-10874.90857864345
 21
3998.899649440516
 31
0.0
  0
LINE
  5
1B3E0
330
2
100
AcDbEntity
  8
VLB
100
AcDbLine
 10
-10864.90857864345
 20
3999.899649440514
 30
0.0
 11
-10864.90857864345
 21
3998.899649440516
 31
0.0
  0
ARC
  5
1B3E1
330
2
100
AcDbEntity
  8
VLB
100
AcDbCircle
 10
-10869.9085786435
 20
3987.899649440394
 30
0.0
 40
13.00000000013173
100
AcDbArc
 50
67.38013505192142
 51
74.05763139444217
  0
ARC
  5
1B3E2
330
2
100
AcDbEntity
  8
VLB
100
AcDbCircle
 10
-10869.90857864345
 20
3987.899649440516
 30
0.0
 40
12.99999999999925
100
AcDbArc
 50
74.05763139444217
 51
105.9423686055577
  0
LINE
  5
1B3E3
330
2
100
AcDbEntity
  8
SPS
100
AcDbLine
 10
-10869.90857864345
 20
3990.10494493079
 30
0.0
 11
-10869.90857864345
 21
4003.144135536801
 31
0.0
  0
ARC
  5
1B3E4
330
2
100
AcDbEntity
  8
VLB
100
AcDbCircle
 10
-10869.90857864348
 20
3987.899649440632
 30
0.0
 40
12.9999999998802
100
AcDbArc
 50
105.9423686055577
 51
112.6198649481445
  0
LINE
  5
1B3E5
330
2
100
AcDbEntity
  8
VLB
100
AcDbLine
 10
-10864.90857864345
 20
3998.899649440516
 30
0.0
 11
-10874.90857864345
 21
3998.899649440516
 31
0.0
  0
LINE
  5
1B3E6
330
2
100
AcDbEntity
  8
VLB
100
AcDbLine
 10
-10909.57976548437
 20
3944.899649440516
 30
0.0
 11
-10909.57976548437
 21
3997.899649440516
 31
0.0
  0
LINE
  5
1B3E7
330
2
100
AcDbEntity
  8
VLB
100
AcDbLine
 10
-10909.57976548437
 20
3944.899649440516
 30
0.0
 11
-10911.07976548437
 21
3944.899649440516
 31
0.0
  0
LINE
  5
1B3E8
330
2
100
AcDbEntity
  8
VLB
100
AcDbLine
 10
-10858.07976548437
 20
3997.899649440516
 30
0.0
 11
-10909.57976548437
 21
3997.899649440516
 31
0.0
  0
LINE
  5
1B3E9
330
2
100
AcDbEntity
  8
SPS
100
AcDbLine
 10
-10906.06374908923
 20
3990.141714658797
 30
0.0
 11
-10890.17089701139
 21
3990.141714658797
 31
0.0
  0
LINE
  5
1B3EA
330
2
100
AcDbEntity
  8
SPS
100
AcDbLine
 10
-10906.06374908923
 20
3952.590204860646
 30
0.0
 11
-10890.17089701139
 21
3952.590204860646
 31
0.0
  0
ARC
  5
1B3EB
330
2
100
AcDbEntity
  8
VLB
100
AcDbCircle
 10
-11830.07976548437
 20
3490.899649440521
 30
0.0
 40
5.0
100
AcDbArc
 50
270.0
 51
90.0
  0
LINE
  5
1B3EC
330
2
100
AcDbEntity
  8
SPS
100
AcDbLine
 10
-11830.07976548437
 20
3498.899649440521
 30
0.0
 11
-11830.07976548437
 21
3482.899649440521
 31
0.0
  0
ARC
  5
1B3ED
330
2
100
AcDbEntity
  8
VLB
100
AcDbCircle
 10
-11865.07976548436
 20
3490.899649440521
 30
0.0
 40
5.0
100
AcDbArc
 50
90.0
 51
270.0
  0
LINE
  5
1B3EE
330
2
100
AcDbEntity
  8
SPS
100
AcDbLine
 10
-11865.07976548436
 20
3498.899649440521
 30
0.0
 11
-11865.07976548436
 21
3482.899649440521
 31
0.0
  0
LINE
  5
1B3EF
330
2
100
AcDbEntity
  8
SPS
100
AcDbLine
 10
-11847.57976548436
 20
3506.399649440519
 30
0.0
 11
-11847.57976548436
 21
3475.399649440523
 31
0.0
  0
LINE
  5
1B3F0
330
2
100
AcDbEntity
  8
SPS
100
AcDbLine
 10
-11873.07976548437
 20
3490.899649440521
 30
0.0
 11
-11822.07976548437
 21
3490.899649440521
 31
0.0
  0
ARC
  5
1B3F1
330
2
100
AcDbEntity
  8
VLB
100
AcDbCircle
 10
-11847.57976548436
 20
3490.899649440521
 30
0.0
 40
12.49999999999818
100
AcDbArc
 50
23.57817847818628
 51
156.4218215218137
  0
LINE
  5
1B3F2
330
2
100
AcDbEntity
  8
VLB
100
AcDbLine
 10
-11865.07976548436
 20
3485.899649440522
 30
0.0
 11
-11830.07976548437
 21
3485.899649440522
 31
0.0
  0
LINE
  5
1B3F3
330
2
100
AcDbEntity
  8
VLB
100
AcDbLine
 10
-11865.07976548436
 20
3495.899649440521
 30
0.0
 11
-11830.07976548437
 21
3495.899649440521
 31
0.0
  0
ARC
  5
1B3F4
330
2
100
AcDbEntity
  8
VLB
100
AcDbCircle
 10
-11847.57976548436
 20
3490.899649440521
 30
0.0
 40
12.49999999999818
100
AcDbArc
 50
203.5781784781862
 51
336.4218215218136
  0
LINE
  5
1B3F5
330
2
100
AcDbEntity
  8
VLB
100
AcDbLine
 10
-11821.07976548437
 20
3947.399649440523
 30
0.0
 11
-11821.07976548436
 21
3036.899649440528
 31
0.0
  0
LINE
  5
1B3F6
330
2
100
AcDbEntity
  8
VLB
100
AcDbLine
 10
-11822.57976548437
 20
3035.899649440527
 30
0.0
 11
-11447.57976548437
 21
3035.89964944053
 31
0.0
  0
LINE
  5
1B3F7
330
2
100
AcDbEntity
  8
VLB
100
AcDbLine
 10
-10911.07976548437
 20
3034.399649440521
 30
0.0
 11
-10911.07976548438
 21
3944.899649440515
 31
0.0
  0
LINE
  5
1B3F8
330
2
100
AcDbEntity
  8
VLB
100
AcDbLine
 10
-10909.57976548437
 20
3945.899649440518
 30
0.0
 11
-11284.57976548437
 21
3945.899649440516
 31
0.0
  0
ARC
  5
1B3F9
330
2
100
AcDbEntity
  8
VLB
100
AcDbCircle
 10
-10884.57976548437
 20
3490.899649440521
 30
0.0
 40
12.49999999999818
100
AcDbArc
 50
203.5781784781863
 51
336.4218215218137
  0
LINE
  5
1B3FA
330
2
100
AcDbEntity
  8
VLB
100
AcDbLine
 10
-10867.07976548437
 20
3495.899649440521
 30
0.0
 11
-10902.07976548437
 21
3495.899649440521
 31
0.0
  0
LINE
  5
1B3FB
330
2
100
AcDbEntity
  8
VLB
100
AcDbLine
 10
-10867.07976548437
 20
3485.899649440522
 30
0.0
 11
-10902.07976548437
 21
3485.899649440522
 31
0.0
  0
ARC
  5
1B3FC
330
2
100
AcDbEntity
  8
VLB
100
AcDbCircle
 10
-10884.57976548437
 20
3490.899649440521
 30
0.0
 40
12.49999999999818
100
AcDbArc
 50
23.57817847818628
 51
156.4218215218137
  0
LINE
  5
1B3FD
330
2
100
AcDbEntity
  8
SPS
100
AcDbLine
 10
-10859.07976548436
 20
3490.899649440521
 30
0.0
 11
-10910.07976548437
 21
3490.899649440521
 31
0.0
  0
LINE
  5
1B3FE
330
2
100
AcDbEntity
  8
SPS
100
AcDbLine
 10
-10884.57976548437
 20
3506.399649440519
 30
0.0
 11
-10884.57976548437
 21
3475.399649440523
 31
0.0
  0
LINE
  5
1B3FF
330
2
100
AcDbEntity
  8
SPS
100
AcDbLine
 10
-10867.07976548437
 20
3498.899649440521
 30
0.0
 11
-10867.07976548437
 21
3482.899649440521
 31
0.0
  0
ARC
  5
1B400
330
2
100
AcDbEntity
  8
VLB
100
AcDbCircle
 10
-10867.07976548437
 20
3490.899649440521
 30
0.0
 40
5.0
100
AcDbArc
 50
270.0
 51
90.0
  0
LINE
  5
1B401
330
2
100
AcDbEntity
  8
SPS
100
AcDbLine
 10
-10902.07976548437
 20
3498.899649440521
 30
0.0
 11
-10902.07976548437
 21
3482.899649440521
 31
0.0
  0
ARC
  5
1B402
330
2
100
AcDbEntity
  8
VLB
100
AcDbCircle
 10
-10902.07976548437
 20
3490.899649440521
 30
0.0
 40
5.0
100
AcDbArc
 50
90.0
 51
270.0
  0
LINE
  5
1B404
330
2
100
AcDbEntity
  8
SPS
100
AcDbLine
 10
-11801.57976548437
 20
3620.272617387283
 30
0.0
 11
-11801.57976548437
 21
3585.380066168883
 31
0.0
  0
LINE
  5
1B405
330
2
100
AcDbEntity
  8
SPS
100
AcDbLine
 10
-11818.51863035328
 20
3603.899649440521
 30
0.0
 11
-11782.13656190605
 21
3603.899649440521
 31
0.0
  0
LINE
  5
1B407
330
2
100
AcDbEntity
  8
SPS
100
AcDbLine
 10
-11788.51863035328
 20
3511.899649440521
 30
0.0
 11
-11749.13656190605
 21
3511.899649440521
 31
0.0
  0
LINE
  5
1B409
330
2
100
AcDbEntity
  8
SPS
100
AcDbLine
 10
-11765.57976548437
 20
3528.272617387283
 30
0.0
 11
-11765.57976548437
 21
3493.380066168884
 31
0.0
  0
LINE
  5
1B425
330
2
100
AcDbEntity
  8
VLB
100
AcDbLine
 10
-11736.07976548436
 20
3859.899649440515
 30
0.0
 11
-11736.07976548436
 21
3121.89964944053
 31
0.0
  0
LINE
  5
1B427
330
2
100
AcDbEntity
  8
SPS
100
AcDbLine
 10
-10913.64090061545
 20
3603.899649440521
 30
0.0
 11
-10950.02296906268
 21
3603.899649440521
 31
0.0
  0
LINE
  5
1B428
330
2
100
AcDbEntity
  8
SPS
100
AcDbLine
 10
-10930.57976548436
 20
3620.272617387283
 30
0.0
 11
-10930.57976548436
 21
3585.380066168883
 31
0.0
  0
LINE
  5
1B429
330
2
100
AcDbEntity
  8
SPS
100
AcDbLine
 10
-10966.57976548437
 20
3528.272617387283
 30
0.0
 11
-10966.57976548437
 21
3493.380066168884
 31
0.0
  0
LINE
  5
1B42B
330
2
100
AcDbEntity
  8
SPS
100
AcDbLine
 10
-10943.64090061545
 20
3511.899649440521
 30
0.0
 11
-10983.02296906268
 21
3511.899649440521
 31
0.0
  0
LINE
  5
1B439
330
2
100
AcDbEntity
  8
SPS
100
AcDbLine
 10
-10943.64090061545
 20
3469.899649440522
 30
0.0
 11
-10983.02296906268
 21
3469.899649440522
 31
0.0
  0
LINE
  5
1B43B
330
2
100
AcDbEntity
  8
SPS
100
AcDbLine
 10
-10966.57976548437
 20
3453.526681493761
 30
0.0
 11
-10966.57976548437
 21
3488.41923271216
 31
0.0
  0
LINE
  5
1B43C
330
2
100
AcDbEntity
  8
SPS
100
AcDbLine
 10
-10930.57976548436
 20
3361.52668149376
 30
0.0
 11
-10930.57976548436
 21
3396.41923271216
 31
0.0
  0
LINE
  5
1B43D
330
2
100
AcDbEntity
  8
SPS
100
AcDbLine
 10
-10913.64090061545
 20
3377.899649440522
 30
0.0
 11
-10950.02296906268
 21
3377.899649440522
 31
0.0
  0
LINE
  5
1B43F
330
2
100
AcDbEntity
  8
SPS
100
AcDbLine
 10
-11765.57976548437
 20
3453.526681493761
 30
0.0
 11
-11765.57976548437
 21
3488.41923271216
 31
0.0
  0
LINE
  5
1B441
330
2
100
AcDbEntity
  8
SPS
100
AcDbLine
 10
-11788.51863035328
 20
3469.899649440522
 30
0.0
 11
-11749.13656190605
 21
3469.899649440522
 31
0.0
  0
LINE
  5
1B443
330
2
100
AcDbEntity
  8
SPS
100
AcDbLine
 10
-11818.51863035328
 20
3377.899649440522
 30
0.0
 11
-11782.13656190605
 21
3377.899649440522
 31
0.0
  0
LINE
  5
1B444
330
2
100
AcDbEntity
  8
SPS
100
AcDbLine
 10
-11801.57976548437
 20
3361.52668149376
 30
0.0
 11
-11801.57976548437
 21
3396.41923271216
 31
0.0
  0
LINE
  5
1B49D
330
2
100
AcDbEntity
  8
VLB
100
AcDbLine
 10
-11801.57976548437
 20
3611.405188340521
 30
0.0
 11
-11808.07976548437
 21
3607.652418940522
 31
0.0
  0
LINE
  5
1B49E
330
2
100
AcDbEntity
  8
VLB
100
AcDbLine
 10
-11795.07976548437
 20
3607.652418940522
 30
0.0
 11
-11801.57976548437
 21
3611.405188340521
 31
0.0
  0
LINE
  5
1B49F
330
2
100
AcDbEntity
  8
SPS
100
AcDbLine
 10
-11801.57976548437
 20
3603.899649440521
 30
0.0
 11
-11810.07976548437
 21
3603.899649440521
 31
0.0
  0
LINE
  5
1B4A0
330
2
100
AcDbEntity
  8
VLB
100
AcDbLine
 10
-11808.07976548437
 20
3600.146879940522
 30
0.0
 11
-11801.57976548437
 21
3596.394110540522
 31
0.0
  0
LINE
  5
1B4A1
330
2
100
AcDbEntity
  8
SPS
100
AcDbLine
 10
-11801.57976548437
 20
3603.899649440521
 30
0.0
 11
-11801.57976548437
 21
3595.399649440521
 31
0.0
  0
LINE
  5
1B4A2
330
2
100
AcDbEntity
  8
VLB
100
AcDbLine
 10
-11801.57976548437
 20
3596.394110540522
 30
0.0
 11
-11795.07976548437
 21
3600.146879940522
 31
0.0
  0
LINE
  5
1B4A3
330
2
100
AcDbEntity
  8
SPS
100
AcDbLine
 10
-11801.57976548437
 20
3603.899649440521
 30
0.0
 11
-11793.07976548437
 21
3603.899649440521
 31
0.0
  0
LINE
  5
1B4A4
330
2
100
AcDbEntity
  8
SPS
100
AcDbLine
 10
-11801.57976548437
 20
3603.899649440521
 30
0.0
 11
-11801.57976548437
 21
3612.399649440522
 31
0.0
  0
LINE
  5
1B4A5
330
2
100
AcDbEntity
  8
VLB
100
AcDbLine
 10
-11808.07976548437
 20
3607.652418940522
 30
0.0
 11
-11808.07976548437
 21
3600.146879940522
 31
0.0
  0
LINE
  5
1B4A6
330
2
100
AcDbEntity
  8
VLB
100
AcDbLine
 10
-11795.07976548437
 20
3600.146879940522
 30
0.0
 11
-11795.07976548437
 21
3607.652418940522
 31
0.0
  0
CIRCLE
  5
1B4A7
330
2
100
AcDbEntity
  8
VLB
100
AcDbCircle
 10
-11801.57976548437
 20
3603.899649440521
 30
0.0
 40
6.5
  0
LINE
  5
1B4A8
330
2
100
AcDbEntity
  8
VLB
100
AcDbLine
 10
-11765.57976548437
 20
3519.405188340521
 30
0.0
 11
-11772.07976548437
 21
3515.652418940522
 31
0.0
  0
LINE
  5
1B4A9
330
2
100
AcDbEntity
  8
VLB
100
AcDbLine
 10
-11759.07976548437
 20
3515.652418940522
 30
0.0
 11
-11765.57976548437
 21
3519.405188340521
 31
0.0
  0
LINE
  5
1B4AA
330
2
100
AcDbEntity
  8
SPS
100
AcDbLine
 10
-11765.57976548437
 20
3511.899649440521
 30
0.0
 11
-11774.07976548437
 21
3511.899649440521
 31
0.0
  0
LINE
  5
1B4AB
330
2
100
AcDbEntity
  8
VLB
100
AcDbLine
 10
-11772.07976548437
 20
3508.146879940522
 30
0.0
 11
-11765.57976548437
 21
3504.394110540522
 31
0.0
  0
LINE
  5
1B4AC
330
2
100
AcDbEntity
  8
SPS
100
AcDbLine
 10
-11765.57976548437
 20
3511.899649440521
 30
0.0
 11
-11765.57976548437
 21
3503.399649440522
 31
0.0
  0
LINE
  5
1B4AD
330
2
100
AcDbEntity
  8
VLB
100
AcDbLine
 10
-11765.57976548437
 20
3504.394110540522
 30
0.0
 11
-11759.07976548437
 21
3508.146879940522
 31
0.0
  0
LINE
  5
1B4AE
330
2
100
AcDbEntity
  8
SPS
100
AcDbLine
 10
-11765.57976548437
 20
3511.899649440521
 30
0.0
 11
-11757.07976548437
 21
3511.899649440521
 31
0.0
  0
LINE
  5
1B4AF
330
2
100
AcDbEntity
  8
SPS
100
AcDbLine
 10
-11765.57976548437
 20
3511.899649440521
 30
0.0
 11
-11765.57976548437
 21
3520.399649440522
 31
0.0
  0
LINE
  5
1B4B0
330
2
100
AcDbEntity
  8
VLB
100
AcDbLine
 10
-11772.07976548437
 20
3515.652418940522
 30
0.0
 11
-11772.07976548437
 21
3508.146879940522
 31
0.0
  0
LINE
  5
1B4B1
330
2
100
AcDbEntity
  8
VLB
100
AcDbLine
 10
-11759.07976548437
 20
3508.146879940522
 30
0.0
 11
-11759.07976548437
 21
3515.652418940522
 31
0.0
  0
CIRCLE
  5
1B4B2
330
2
100
AcDbEntity
  8
VLB
100
AcDbCircle
 10
-11765.57976548437
 20
3511.899649440521
 30
0.0
 40
6.5
  0
LINE
  5
1B4B3
330
2
100
AcDbEntity
  8
VLB
100
AcDbLine
 10
-11765.57976548437
 20
3477.405188340522
 30
0.0
 11
-11772.07976548437
 21
3473.652418940521
 31
0.0
  0
LINE
  5
1B4B4
330
2
100
AcDbEntity
  8
VLB
100
AcDbLine
 10
-11759.07976548437
 20
3473.652418940521
 30
0.0
 11
-11765.57976548437
 21
3477.405188340522
 31
0.0
  0
LINE
  5
1B4B5
330
2
100
AcDbEntity
  8
SPS
100
AcDbLine
 10
-11765.57976548437
 20
3469.899649440522
 30
0.0
 11
-11774.07976548437
 21
3469.899649440522
 31
0.0
  0
LINE
  5
1B4B6
330
2
100
AcDbEntity
  8
VLB
100
AcDbLine
 10
-11772.07976548437
 20
3466.146879940522
 30
0.0
 11
-11765.57976548437
 21
3462.394110540522
 31
0.0
  0
LINE
  5
1B4B7
330
2
100
AcDbEntity
  8
SPS
100
AcDbLine
 10
-11765.57976548437
 20
3469.899649440522
 30
0.0
 11
-11765.57976548437
 21
3461.399649440522
 31
0.0
  0
LINE
  5
1B4B8
330
2
100
AcDbEntity
  8
VLB
100
AcDbLine
 10
-11765.57976548437
 20
3462.394110540522
 30
0.0
 11
-11759.07976548437
 21
3466.146879940522
 31
0.0
  0
LINE
  5
1B4B9
330
2
100
AcDbEntity
  8
SPS
100
AcDbLine
 10
-11765.57976548437
 20
3469.899649440522
 30
0.0
 11
-11757.07976548437
 21
3469.899649440522
 31
0.0
  0
LINE
  5
1B4BA
330
2
100
AcDbEntity
  8
SPS
100
AcDbLine
 10
-11765.57976548437
 20
3469.899649440522
 30
0.0
 11
-11765.57976548437
 21
3478.399649440522
 31
0.0
  0
LINE
  5
1B4BB
330
2
100
AcDbEntity
  8
VLB
100
AcDbLine
 10
-11772.07976548437
 20
3473.652418940521
 30
0.0
 11
-11772.07976548437
 21
3466.146879940522
 31
0.0
  0
LINE
  5
1B4BC
330
2
100
AcDbEntity
  8
VLB
100
AcDbLine
 10
-11759.07976548437
 20
3466.146879940522
 30
0.0
 11
-11759.07976548437
 21
3473.652418940521
 31
0.0
  0
CIRCLE
  5
1B4BD
330
2
100
AcDbEntity
  8
VLB
100
AcDbCircle
 10
-11765.57976548437
 20
3469.899649440522
 30
0.0
 40
6.5
  0
LINE
  5
1B4BE
330
2
100
AcDbEntity
  8
VLB
100
AcDbLine
 10
-11801.57976548437
 20
3385.405188340522
 30
0.0
 11
-11808.07976548437
 21
3381.652418940522
 31
0.0
  0
LINE
  5
1B4BF
330
2
100
AcDbEntity
  8
VLB
100
AcDbLine
 10
-11795.07976548437
 20
3381.652418940522
 30
0.0
 11
-11801.57976548437
 21
3385.405188340522
 31
0.0
  0
LINE
  5
1B4C0
330
2
100
AcDbEntity
  8
SPS
100
AcDbLine
 10
-11801.57976548437
 20
3377.899649440522
 30
0.0
 11
-11810.07976548437
 21
3377.899649440522
 31
0.0
  0
LINE
  5
1B4C1
330
2
100
AcDbEntity
  8
VLB
100
AcDbLine
 10
-11808.07976548437
 20
3374.146879940521
 30
0.0
 11
-11801.57976548437
 21
3370.394110540522
 31
0.0
  0
LINE
  5
1B4C2
330
2
100
AcDbEntity
  8
SPS
100
AcDbLine
 10
-11801.57976548437
 20
3377.899649440522
 30
0.0
 11
-11801.57976548437
 21
3369.399649440522
 31
0.0
  0
LINE
  5
1B4C3
330
2
100
AcDbEntity
  8
VLB
100
AcDbLine
 10
-11801.57976548437
 20
3370.394110540522
 30
0.0
 11
-11795.07976548437
 21
3374.146879940521
 31
0.0
  0
LINE
  5
1B4C4
330
2
100
AcDbEntity
  8
SPS
100
AcDbLine
 10
-11801.57976548437
 20
3377.899649440522
 30
0.0
 11
-11793.07976548437
 21
3377.899649440522
 31
0.0
  0
LINE
  5
1B4C5
330
2
100
AcDbEntity
  8
SPS
100
AcDbLine
 10
-11801.57976548437
 20
3377.899649440522
 30
0.0
 11
-11801.57976548437
 21
3386.399649440522
 31
0.0
  0
LINE
  5
1B4C6
330
2
100
AcDbEntity
  8
VLB
100
AcDbLine
 10
-11808.07976548437
 20
3381.652418940522
 30
0.0
 11
-11808.07976548437
 21
3374.146879940521
 31
0.0
  0
LINE
  5
1B4C7
330
2
100
AcDbEntity
  8
VLB
100
AcDbLine
 10
-11795.07976548437
 20
3374.146879940521
 30
0.0
 11
-11795.07976548437
 21
3381.652418940522
 31
0.0
  0
CIRCLE
  5
1B4C8
330
2
100
AcDbEntity
  8
VLB
100
AcDbCircle
 10
-11801.57976548437
 20
3377.899649440522
 30
0.0
 40
6.5
  0
LINE
  5
1B4C9
330
2
100
AcDbEntity
  8
VLB
100
AcDbLine
 10
-10930.57976548436
 20
3611.405188340521
 30
0.0
 11
-10937.07976548436
 21
3607.652418940522
 31
0.0
  0
LINE
  5
1B4CA
330
2
100
AcDbEntity
  8
VLB
100
AcDbLine
 10
-10924.07976548437
 20
3607.652418940522
 30
0.0
 11
-10930.57976548436
 21
3611.405188340521
 31
0.0
  0
LINE
  5
1B4CB
330
2
100
AcDbEntity
  8
SPS
100
AcDbLine
 10
-10930.57976548436
 20
3603.899649440521
 30
0.0
 11
-10939.07976548436
 21
3603.899649440521
 31
0.0
  0
LINE
  5
1B4CC
330
2
100
AcDbEntity
  8
VLB
100
AcDbLine
 10
-10937.07976548436
 20
3600.146879940522
 30
0.0
 11
-10930.57976548436
 21
3596.394110540522
 31
0.0
  0
LINE
  5
1B4CD
330
2
100
AcDbEntity
  8
SPS
100
AcDbLine
 10
-10930.57976548436
 20
3603.899649440521
 30
0.0
 11
-10930.57976548436
 21
3595.399649440521
 31
0.0
  0
LINE
  5
1B4CE
330
2
100
AcDbEntity
  8
VLB
100
AcDbLine
 10
-10930.57976548436
 20
3596.394110540522
 30
0.0
 11
-10924.07976548437
 21
3600.146879940522
 31
0.0
  0
LINE
  5
1B4CF
330
2
100
AcDbEntity
  8
SPS
100
AcDbLine
 10
-10930.57976548436
 20
3603.899649440521
 30
0.0
 11
-10922.07976548437
 21
3603.899649440521
 31
0.0
  0
LINE
  5
1B4D0
330
2
100
AcDbEntity
  8
SPS
100
AcDbLine
 10
-10930.57976548436
 20
3603.899649440521
 30
0.0
 11
-10930.57976548436
 21
3612.399649440522
 31
0.0
  0
LINE
  5
1B4D1
330
2
100
AcDbEntity
  8
VLB
100
AcDbLine
 10
-10937.07976548436
 20
3607.652418940522
 30
0.0
 11
-10937.07976548436
 21
3600.146879940522
 31
0.0
  0
LINE
  5
1B4D2
330
2
100
AcDbEntity
  8
VLB
100
AcDbLine
 10
-10924.07976548437
 20
3600.146879940522
 30
0.0
 11
-10924.07976548437
 21
3607.652418940522
 31
0.0
  0
CIRCLE
  5
1B4D3
330
2
100
AcDbEntity
  8
VLB
100
AcDbCircle
 10
-10930.57976548436
 20
3603.899649440521
 30
0.0
 40
6.5
  0
LINE
  5
1B4D4
330
2
100
AcDbEntity
  8
VLB
100
AcDbLine
 10
-10966.57976548437
 20
3519.405188340521
 30
0.0
 11
-10973.07976548437
 21
3515.652418940522
 31
0.0
  0
LINE
  5
1B4D5
330
2
100
AcDbEntity
  8
VLB
100
AcDbLine
 10
-10960.07976548436
 20
3515.652418940522
 30
0.0
 11
-10966.57976548437
 21
3519.405188340521
 31
0.0
  0
LINE
  5
1B4D6
330
2
100
AcDbEntity
  8
SPS
100
AcDbLine
 10
-10966.57976548437
 20
3511.899649440521
 30
0.0
 11
-10975.07976548437
 21
3511.899649440521
 31
0.0
  0
LINE
  5
1B4D7
330
2
100
AcDbEntity
  8
VLB
100
AcDbLine
 10
-10973.07976548437
 20
3508.146879940522
 30
0.0
 11
-10966.57976548437
 21
3504.394110540522
 31
0.0
  0
LINE
  5
1B4D8
330
2
100
AcDbEntity
  8
SPS
100
AcDbLine
 10
-10966.57976548437
 20
3511.899649440521
 30
0.0
 11
-10966.57976548437
 21
3503.399649440522
 31
0.0
  0
LINE
  5
1B4D9
330
2
100
AcDbEntity
  8
VLB
100
AcDbLine
 10
-10966.57976548437
 20
3504.394110540522
 30
0.0
 11
-10960.07976548436
 21
3508.146879940522
 31
0.0
  0
LINE
  5
1B4DA
330
2
100
AcDbEntity
  8
SPS
100
AcDbLine
 10
-10966.57976548437
 20
3511.899649440521
 30
0.0
 11
-10958.07976548436
 21
3511.899649440521
 31
0.0
  0
LINE
  5
1B4DB
330
2
100
AcDbEntity
  8
SPS
100
AcDbLine
 10
-10966.57976548437
 20
3511.899649440521
 30
0.0
 11
-10966.57976548437
 21
3520.399649440522
 31
0.0
  0
LINE
  5
1B4DC
330
2
100
AcDbEntity
  8
VLB
100
AcDbLine
 10
-10973.07976548437
 20
3515.652418940522
 30
0.0
 11
-10973.07976548437
 21
3508.146879940522
 31
0.0
  0
LINE
  5
1B4DD
330
2
100
AcDbEntity
  8
VLB
100
AcDbLine
 10
-10960.07976548436
 20
3508.146879940522
 30
0.0
 11
-10960.07976548436
 21
3515.652418940522
 31
0.0
  0
CIRCLE
  5
1B4DE
330
2
100
AcDbEntity
  8
VLB
100
AcDbCircle
 10
-10966.57976548437
 20
3511.899649440521
 30
0.0
 40
6.5
  0
LINE
  5
1B4DF
330
2
100
AcDbEntity
  8
VLB
100
AcDbLine
 10
-10966.57976548437
 20
3477.405188340522
 30
0.0
 11
-10973.07976548437
 21
3473.652418940521
 31
0.0
  0
LINE
  5
1B4E0
330
2
100
AcDbEntity
  8
VLB
100
AcDbLine
 10
-10960.07976548436
 20
3473.652418940521
 30
0.0
 11
-10966.57976548437
 21
3477.405188340522
 31
0.0
  0
LINE
  5
1B4E1
330
2
100
AcDbEntity
  8
SPS
100
AcDbLine
 10
-10966.57976548437
 20
3469.899649440522
 30
0.0
 11
-10975.07976548437
 21
3469.899649440522
 31
0.0
  0
LINE
  5
1B4E2
330
2
100
AcDbEntity
  8
VLB
100
AcDbLine
 10
-10973.07976548437
 20
3466.146879940522
 30
0.0
 11
-10966.57976548437
 21
3462.394110540522
 31
0.0
  0
LINE
  5
1B4E3
330
2
100
AcDbEntity
  8
SPS
100
AcDbLine
 10
-10966.57976548437
 20
3469.899649440522
 30
0.0
 11
-10966.57976548437
 21
3461.399649440522
 31
0.0
  0
LINE
  5
1B4E4
330
2
100
AcDbEntity
  8
VLB
100
AcDbLine
 10
-10966.57976548437
 20
3462.394110540522
 30
0.0
 11
-10960.07976548436
 21
3466.146879940522
 31
0.0
  0
LINE
  5
1B4E5
330
2
100
AcDbEntity
  8
SPS
100
AcDbLine
 10
-10966.57976548437
 20
3469.899649440522
 30
0.0
 11
-10958.07976548436
 21
3469.899649440522
 31
0.0
  0
LINE
  5
1B4E6
330
2
100
AcDbEntity
  8
SPS
100
AcDbLine
 10
-10966.57976548437
 20
3469.899649440522
 30
0.0
 11
-10966.57976548437
 21
3478.399649440522
 31
0.0
  0
LINE
  5
1B4E7
330
2
100
AcDbEntity
  8
VLB
100
AcDbLine
 10
-10973.07976548437
 20
3473.652418940521
 30
0.0
 11
-10973.07976548437
 21
3466.146879940522
 31
0.0
  0
LINE
  5
1B4E8
330
2
100
AcDbEntity
  8
VLB
100
AcDbLine
 10
-10960.07976548436
 20
3466.146879940522
 30
0.0
 11
-10960.07976548436
 21
3473.652418940521
 31
0.0
  0
CIRCLE
  5
1B4E9
330
2
100
AcDbEntity
  8
VLB
100
AcDbCircle
 10
-10966.57976548437
 20
3469.899649440522
 30
0.0
 40
6.5
  0
LINE
  5
1B4EA
330
2
100
AcDbEntity
  8
VLB
100
AcDbLine
 10
-10930.57976548436
 20
3385.405188340522
 30
0.0
 11
-10937.07976548436
 21
3381.652418940522
 31
0.0
  0
LINE
  5
1B4EB
330
2
100
AcDbEntity
  8
VLB
100
AcDbLine
 10
-10924.07976548437
 20
3381.652418940522
 30
0.0
 11
-10930.57976548436
 21
3385.405188340522
 31
0.0
  0
LINE
  5
1B4EC
330
2
100
AcDbEntity
  8
SPS
100
AcDbLine
 10
-10930.57976548436
 20
3377.899649440522
 30
0.0
 11
-10939.07976548436
 21
3377.899649440522
 31
0.0
  0
LINE
  5
1B4ED
330
2
100
AcDbEntity
  8
VLB
100
AcDbLine
 10
-10937.07976548436
 20
3374.146879940521
 30
0.0
 11
-10930.57976548436
 21
3370.394110540522
 31
0.0
  0
LINE
  5
1B4EE
330
2
100
AcDbEntity
  8
SPS
100
AcDbLine
 10
-10930.57976548436
 20
3377.899649440522
 30
0.0
 11
-10930.57976548436
 21
3369.399649440522
 31
0.0
  0
LINE
  5
1B4EF
330
2
100
AcDbEntity
  8
VLB
100
AcDbLine
 10
-10930.57976548436
 20
3370.394110540522
 30
0.0
 11
-10924.07976548437
 21
3374.146879940521
 31
0.0
  0
LINE
  5
1B4F0
330
2
100
AcDbEntity
  8
SPS
100
AcDbLine
 10
-10930.57976548436
 20
3377.899649440522
 30
0.0
 11
-10922.07976548437
 21
3377.899649440522
 31
0.0
  0
LINE
  5
1B4F1
330
2
100
AcDbEntity
  8
SPS
100
AcDbLine
 10
-10930.57976548436
 20
3377.899649440522
 30
0.0
 11
-10930.57976548436
 21
3386.399649440522
 31
0.0
  0
LINE
  5
1B4F2
330
2
100
AcDbEntity
  8
VLB
100
AcDbLine
 10
-10937.07976548436
 20
3381.652418940522
 30
0.0
 11
-10937.07976548436
 21
3374.146879940521
 31
0.0
  0
LINE
  5
1B4F3
330
2
100
AcDbEntity
  8
VLB
100
AcDbLine
 10
-10924.07976548437
 20
3374.146879940521
 30
0.0
 11
-10924.07976548437
 21
3381.652418940522
 31
0.0
  0
CIRCLE
  5
1B4F4
330
2
100
AcDbEntity
  8
VLB
100
AcDbCircle
 10
-10930.57976548436
 20
3377.899649440522
 30
0.0
 40
6.5
  0
LINE
  5
1B4F5
330
2
100
AcDbEntity
  8
VLB
100
AcDbLine
 10
-11735.07976548436
 20
3120.89964944053
 30
0.0
 11
-11445.57976548437
 21
3120.899649440529
 31
0.0
  0
LINE
  5
1B4F6
330
2
100
AcDbEntity
  8
VLB
100
AcDbLine
 10
-10996.07976548438
 20
3121.89964944053
 30
0.0
 11
-10996.07976548438
 21
3859.899649440514
 31
0.0
  0
LINE
  5
1B4F7
330
2
100
AcDbEntity
  8
VLB
100
AcDbLine
 10
-10997.07976548438
 20
3860.899649440514
 30
0.0
 11
-11286.57976548436
 21
3860.899649440515
 31
0.0
  0
LINE
  5
1B4F8
330
2
100
AcDbEntity
  8
VLB
100
AcDbLine
 10
-10996.07976548438
 20
3859.899649440515
 30
0.0
 11
-11286.57976548436
 21
3859.899649440515
 31
0.0
  0
LINE
  5
1B4F9
330
2
100
AcDbEntity
  8
VLB
100
AcDbLine
 10
-11735.07976548436
 20
3860.899649440516
 30
0.0
 11
-11735.07976548436
 21
3120.89964944053
 31
0.0
  0
LINE
  5
1B4FA
330
2
100
AcDbEntity
  8
VLB
100
AcDbLine
 10
-11736.07976548436
 20
3121.89964944053
 30
0.0
 11
-11445.57976548437
 21
3121.899649440529
 31
0.0
  0
LINE
  5
1B4FB
330
2
100
AcDbEntity
  8
VLB
100
AcDbLine
 10
-10997.07976548438
 20
3120.899649440529
 30
0.0
 11
-10997.07976548438
 21
3860.899649440515
 31
0.0
  0
LINE
  5
1B4FE
330
2
100
AcDbEntity
  8
VLB
100
AcDbLine
 10
-11286.07976548437
 20
4050.899649440514
 30
0.0
 11
-11286.07976548437
 21
3860.899649440515
 31
0.0
  0
LINE
  5
1B4FF
330
2
100
AcDbEntity
  8
VLB
100
AcDbLine
 10
-11284.57976548437
 20
4050.899649440514
 30
0.0
 11
-11284.57976548437
 21
3860.899649440515
 31
0.0
  0
LINE
  5
1B500
330
2
100
AcDbEntity
  8
VLB
100
AcDbLine
 10
-11446.07976548437
 20
3860.899649440515
 30
0.0
 11
-11446.07976548437
 21
4050.899649440514
 31
0.0
  0
LINE
  5
1B501
330
2
100
AcDbEntity
  8
VLB
100
AcDbLine
 10
-11447.57976548437
 20
3860.899649440515
 30
0.0
 11
-11447.57976548437
 21
4050.899649440514
 31
0.0
  0
LINE
  5
1B503
330
2
100
AcDbEntity
  8
VLB
100
AcDbLine
 10
-11284.57976548437
 20
3860.899649440515
 30
0.0
 11
-11286.57976548436
 21
3860.899649440515
 31
0.0
  0
CIRCLE
  5
1B504
330
2
100
AcDbEntity
  8
VLB
100
AcDbCircle
 10
-11316.07976548437
 20
3869.199649440514
 30
0.0
 40
5.000000000001818
  0
CIRCLE
  5
1B505
330
2
100
AcDbEntity
  8
VLB
100
AcDbCircle
 10
-11316.07976548437
 20
3869.199649440514
 30
0.0
 40
2.550000000006548
  0
LINE
  5
1B506
330
2
100
AcDbEntity
  8
SPS
100
AcDbLine
 10
-11309.76840892729
 20
3869.199649440514
 30
0.0
 11
-11323.10909507193
 21
3869.199649440514
 31
0.0
  0
LINE
  5
1B507
330
2
100
AcDbEntity
  8
VLB
100
AcDbLine
 10
-11286.57976548436
 20
3859.899649440515
 30
0.0
 11
-11286.57976548436
 21
3879.199649440515
 31
0.0
  0
LINE
  5
1B508
330
2
100
AcDbEntity
  8
SPS
100
AcDbLine
 10
-11316.07976548437
 20
3876.607892294477
 30
0.0
 11
-11316.07976548437
 21
3860.715040216634
 31
0.0
  0
LINE
  5
1B509
330
2
100
AcDbEntity
  8
VLB
100
AcDbLine
 10
-11445.57976548436
 20
3860.899649440515
 30
0.0
 11
-11447.57976548437
 21
3860.899649440515
 31
0.0
  0
CIRCLE
  5
1B50A
330
2
100
AcDbEntity
  8
VLB
100
AcDbCircle
 10
-11416.07976548437
 20
3869.199649440514
 30
0.0
 40
2.550000000006548
  0
LINE
  5
1B50B
330
2
100
AcDbEntity
  8
VLB
100
AcDbLine
 10
-11445.57976548437
 20
3859.899649440515
 30
0.0
 11
-11445.57976548437
 21
3879.199649440515
 31
0.0
  0
LINE
  5
1B50C
330
2
100
AcDbEntity
  8
SPS
100
AcDbLine
 10
-11416.07976548437
 20
3876.607892294477
 30
0.0
 11
-11416.07976548437
 21
3860.715040216634
 31
0.0
  0
CIRCLE
  5
1B50D
330
2
100
AcDbEntity
  8
VLB
100
AcDbCircle
 10
-11416.07976548437
 20
3869.199649440514
 30
0.0
 40
5.000000000001818
  0
LINE
  5
1B50E
330
2
100
AcDbEntity
  8
SPS
100
AcDbLine
 10
-11409.76840892729
 20
3869.199649440514
 30
0.0
 11
-11423.10909507193
 21
3869.199649440514
 31
0.0
  0
LINE
  5
1B50F
330
2
100
AcDbEntity
  8
VLB
100
AcDbLine
 10
-11445.57976548437
 20
3879.199649440515
 30
0.0
 11
-11286.57976548437
 21
3879.199649440515
 31
0.0
  0
LINE
  5
1B510
330
2
100
AcDbEntity
  8
VLB
100
AcDbLine
 10
-11284.57976548437
 20
4029.399649440512
 30
0.0
 11
-11286.07976548437
 21
4029.399649440515
 31
0.0
  0
LINE
  5
1B511
330
2
100
AcDbEntity
  8
VLB
100
AcDbLine
 10
-11446.07976548437
 20
4029.399649440515
 30
0.0
 11
-11447.57976548437
 21
4029.399649440515
 31
0.0
  0
LINE
  5
1B512
330
2
100
AcDbEntity
  8
VLB
100
AcDbLine
 10
-11447.57976548437
 20
4050.899649440514
 30
0.0
 11
-11284.57976548437
 21
4050.899649440514
 31
0.0
  0
LINE
  5
1B513
330
2
100
AcDbEntity
  8
VLB
100
AcDbLine
 10
-11445.57976548437
 20
3860.899649440515
 30
0.0
 11
-11735.07976548436
 21
3860.899649440515
 31
0.0
  0
LINE
  5
1B514
330
2
100
AcDbEntity
  8
VLB
100
AcDbLine
 10
-11445.57976548437
 20
3859.899649440515
 30
0.0
 11
-11736.07976548436
 21
3859.899649440516
 31
0.0
  0
LINE
  5
1B515
330
2
100
AcDbEntity
  8
VLB
100
AcDbLine
 10
-11447.57976548437
 20
3120.899649440529
 30
0.0
 11
-11447.57976548437
 21
2930.899649440529
 31
0.0
  0
LINE
  5
1B516
330
2
100
AcDbEntity
  8
VLB
100
AcDbLine
 10
-11446.07976548437
 20
3120.899649440529
 30
0.0
 11
-11446.07976548437
 21
2930.899649440529
 31
0.0
  0
LINE
  5
1B517
330
2
100
AcDbEntity
  8
VLB
100
AcDbLine
 10
-11284.57976548437
 20
2930.899649440529
 30
0.0
 11
-11284.57976548437
 21
3120.899649440529
 31
0.0
  0
LINE
  5
1B518
330
2
100
AcDbEntity
  8
VLB
100
AcDbLine
 10
-11286.07976548437
 20
2930.899649440529
 30
0.0
 11
-11286.07976548437
 21
3120.899649440529
 31
0.0
  0
LINE
  5
1B519
330
2
100
AcDbEntity
  8
VLB
100
AcDbLine
 10
-11445.57976548437
 20
3102.599649440529
 30
0.0
 11
-11286.57976548437
 21
3102.599649440529
 31
0.0
  0
LINE
  5
1B51A
330
2
100
AcDbEntity
  8
VLB
100
AcDbLine
 10
-11445.57976548437
 20
3121.899649440529
 30
0.0
 11
-11445.57976548437
 21
3102.599649440529
 31
0.0
  0
LINE
  5
1B51B
330
2
100
AcDbEntity
  8
SPS
100
AcDbLine
 10
-11409.76840892729
 20
3112.599649440529
 30
0.0
 11
-11423.10909507193
 21
3112.599649440529
 31
0.0
  0
CIRCLE
  5
1B51C
330
2
100
AcDbEntity
  8
VLB
100
AcDbCircle
 10
-11416.07976548437
 20
3112.599649440529
 30
0.0
 40
5.000000000001818
  0
LINE
  5
1B51D
330
2
100
AcDbEntity
  8
SPS
100
AcDbLine
 10
-11416.07976548437
 20
3105.191406586567
 30
0.0
 11
-11416.07976548437
 21
3121.08425866441
 31
0.0
  0
CIRCLE
  5
1B51E
330
2
100
AcDbEntity
  8
VLB
100
AcDbCircle
 10
-11416.07976548437
 20
3112.599649440529
 30
0.0
 40
2.550000000006548
  0
LINE
  5
1B51F
330
2
100
AcDbEntity
  8
VLB
100
AcDbLine
 10
-11445.57976548436
 20
3120.899649440529
 30
0.0
 11
-11447.57976548437
 21
3120.899649440529
 31
0.0
  0
LINE
  5
1B520
330
2
100
AcDbEntity
  8
VLB
100
AcDbLine
 10
-11286.57976548436
 20
3121.899649440529
 30
0.0
 11
-11286.57976548436
 21
3102.599649440529
 31
0.0
  0
LINE
  5
1B521
330
2
100
AcDbEntity
  8
SPS
100
AcDbLine
 10
-11316.07976548437
 20
3105.191406586567
 30
0.0
 11
-11316.07976548437
 21
3121.08425866441
 31
0.0
  0
LINE
  5
1B522
330
2
100
AcDbEntity
  8
SPS
100
AcDbLine
 10
-11309.76840892729
 20
3112.599649440529
 30
0.0
 11
-11323.10909507193
 21
3112.599649440529
 31
0.0
  0
CIRCLE
  5
1B523
330
2
100
AcDbEntity
  8
VLB
100
AcDbCircle
 10
-11316.07976548437
 20
3112.599649440529
 30
0.0
 40
2.550000000006548
  0
CIRCLE
  5
1B524
330
2
100
AcDbEntity
  8
VLB
100
AcDbCircle
 10
-11316.07976548437
 20
3112.599649440529
 30
0.0
 40
5.000000000001818
  0
LINE
  5
1B525
330
2
100
AcDbEntity
  8
VLB
100
AcDbLine
 10
-11284.57976548437
 20
3120.899649440529
 30
0.0
 11
-11286.57976548436
 21
3120.899649440529
 31
0.0
  0
LINE
  5
1B526
330
2
100
AcDbEntity
  8
VLB
100
AcDbLine
 10
-11447.57976548437
 20
2930.899649440529
 30
0.0
 11
-11284.57976548437
 21
2930.899649440529
 31
0.0
  0
LINE
  5
1B527
330
2
100
AcDbEntity
  8
VLB
100
AcDbLine
 10
-11446.07976548437
 20
2952.399649440529
 30
0.0
 11
-11447.57976548437
 21
2952.399649440529
 31
0.0
  0
LINE
  5
1B528
330
2
100
AcDbEntity
  8
VLB
100
AcDbLine
 10
-11284.57976548437
 20
2952.399649440531
 30
0.0
 11
-11286.07976548437
 21
2952.399649440529
 31
0.0
  0
LINE
  5
1B529
330
2
100
AcDbEntity
  8
VLB
100
AcDbLine
 10
-11284.57976548437
 20
3998.899649440522
 30
0.0
 11
-10859.57976548437
 21
3998.899649440522
 31
0.0
  0
LINE
  5
1B52A
330
2
100
AcDbEntity
  8
VLB
100
AcDbLine
 10
-11447.57976548437
 20
3945.899649440515
 30
0.0
 11
-11820.07976548436
 21
3945.899649440512
 31
0.0
  0
LINE
  5
1B52B
330
2
100
AcDbEntity
  8
VLB
100
AcDbLine
 10
-11284.57976548436
 20
2982.899649440522
 30
0.0
 11
-10859.07976548438
 21
2982.899649440521
 31
0.0
  0
LINE
  5
1B52C
330
2
100
AcDbEntity
  8
VLB
100
AcDbLine
 10
-11284.57976548437
 20
3035.89964944053
 30
0.0
 11
-10912.07976548438
 21
3035.899649440533
 31
0.0
  0
LINE
  5
1B52D
330
2
100
AcDbEntity
  8
VLB
100
AcDbLine
 10
-11286.57976548436
 20
3120.899649440529
 30
0.0
 11
-10997.07976548438
 21
3120.89964944053
 31
0.0
  0
LINE
  5
1B52E
330
2
100
AcDbEntity
  8
VLB
100
AcDbLine
 10
-11286.57976548436
 20
3121.899649440529
 30
0.0
 11
-10996.07976548438
 21
3121.89964944053
 31
0.0
  0
LINE
  5
1B531
330
2
100
AcDbEntity
  8
VLB
100
AcDbLine
 10
-11724.53606306981
 20
3839.540998025969
 30
0.0
 11
-11719.62858476981
 21
3831.040998025969
 31
0.0
  0
LINE
  5
1B532
330
2
100
AcDbEntity
  8
SPS
100
AcDbLine
 10
-11714.72111406981
 20
3839.540998025969
 30
0.0
 11
-11714.72111406981
 21
3829.040998025969
 31
0.0
  0
LINE
  5
1B533
330
2
100
AcDbEntity
  8
SPS
100
AcDbLine
 10
-11714.72111406981
 20
3839.540998025969
 30
0.0
 11
-11725.22111406981
 21
3839.540998025969
 31
0.0
  0
LINE
  5
1B534
330
2
100
AcDbEntity
  8
VLB
100
AcDbLine
 10
-11719.62858476981
 20
3848.040998025969
 30
0.0
 11
-11724.53606306981
 21
3839.540998025969
 31
0.0
  0
LINE
  5
1B535
330
2
100
AcDbEntity
  8
SPS
100
AcDbLine
 10
-11714.72111406981
 20
3839.540998025969
 30
0.0
 11
-11714.72111406981
 21
3850.040998025969
 31
0.0
  0
LINE
  5
1B536
330
2
100
AcDbEntity
  8
VLB
100
AcDbLine
 10
-11709.81364336981
 20
3831.040998025969
 30
0.0
 11
-11704.90616506981
 21
3839.540998025969
 31
0.0
  0
LINE
  5
1B537
330
2
100
AcDbEntity
  8
VLB
100
AcDbLine
 10
-11704.90616506981
 20
3839.540998025969
 30
0.0
 11
-11709.81364336981
 21
3848.040998025969
 31
0.0
  0
LINE
  5
1B538
330
2
100
AcDbEntity
  8
VLB
100
AcDbLine
 10
-11709.81364336981
 20
3848.040998025969
 30
0.0
 11
-11719.62858476981
 21
3848.040998025969
 31
0.0
  0
LINE
  5
1B539
330
2
100
AcDbEntity
  8
SPS
100
AcDbLine
 10
-11714.72111406981
 20
3839.540998025969
 30
0.0
 11
-11704.22111406981
 21
3839.540998025969
 31
0.0
  0
LINE
  5
1B53A
330
2
100
AcDbEntity
  8
VLB
100
AcDbLine
 10
-11719.62858476981
 20
3831.040998025969
 30
0.0
 11
-11709.81364336981
 21
3831.040998025969
 31
0.0
  0
CIRCLE
  5
1B53B
330
2
100
AcDbEntity
  8
VLB
100
AcDbCircle
 10
-11714.72111406981
 20
3839.540998025969
 30
0.0
 40
8.5
  0
ARC
  5
1B53C
330
2
100
AcDbEntity
  8
VLB
100
AcDbCircle
 10
-11725.07976548436
 20
3850.693415742179
 30
0.0
 40
12.99999999999925
100
AcDbArc
 50
157.380135051969
 51
202.6198649480308
  0
LINE
  5
1B53D
330
2
100
AcDbEntity
  8
VLB
100
AcDbLine
 10
-11737.07976548436
 20
3855.693415742179
 30
0.0
 11
-11736.07976548436
 21
3855.693415742175
 31
0.0
  0
LINE
  5
1B53E
330
2
100
AcDbEntity
  8
VLB
100
AcDbLine
 10
-11737.07976548436
 20
3845.693415742179
 30
0.0
 11
-11736.07976548436
 21
3845.693415742179
 31
0.0
  0
LINE
  5
1B53F
330
2
100
AcDbEntity
  8
SPS
100
AcDbLine
 10
-11727.28506097463
 20
3850.693415742179
 30
0.0
 11
-11740.32425158064
 21
3850.693415742179
 31
0.0
  0
LINE
  5
1B540
330
2
100
AcDbEntity
  8
SPS
100
AcDbLine
 10
-11723.32529056097
 20
3852.104944930786
 30
0.0
 11
-11723.32529056097
 21
3865.144135536797
 31
0.0
  0
LINE
  5
1B541
330
2
100
AcDbEntity
  8
VLB
100
AcDbLine
 10
-11728.32529056097
 20
3861.899649440511
 30
0.0
 11
-11728.32529056097
 21
3860.899649440512
 31
0.0
  0
ARC
  5
1B542
330
2
100
AcDbEntity
  8
VLB
100
AcDbCircle
 10
-11723.32529056097
 20
3849.899649440512
 30
0.0
 40
12.99999999999925
100
AcDbArc
 50
74.0576313944422
 51
105.9423686055577
  0
ARC
  5
1B543
330
2
100
AcDbEntity
  8
VLB
100
AcDbCircle
 10
-11723.325290561
 20
3849.899649440629
 30
0.0
 40
12.9999999998802
100
AcDbArc
 50
105.9423686055577
 51
112.6198649481446
  0
ARC
  5
1B544
330
2
100
AcDbEntity
  8
VLB
100
AcDbCircle
 10
-11723.32529056103
 20
3849.899649440392
 30
0.0
 40
13.00000000013173
100
AcDbArc
 50
67.38013505192149
 51
74.0576313944422
  0
LINE
  5
1B545
330
2
100
AcDbEntity
  8
VLB
100
AcDbLine
 10
-11718.32529056097
 20
3861.899649440511
 30
0.0
 11
-11718.32529056098
 21
3860.899649440512
 31
0.0
  0
LINE
  5
1B546
330
2
100
AcDbEntity
  8
VLS
100
AcDbLine
 10
-11735.07976548436
 20
3859.899649440516
 30
0.0
 11
-11720.94354192935
 21
3845.763425885501
 31
0.0
  0
LINE
  5
1B547
330
2
100
AcDbEntity
  8
VLS
100
AcDbLine
 10
-11708.49868621028
 20
3833.318570166435
 30
0.0
 11
-11366.07976548437
 21
3490.899649440523
 31
0.0
  0
LINE
  5
1B548
330
2
100
AcDbEntity
  8
VLS
100
AcDbLine
 10
-11708.49868621028
 20
3148.48072871461
 30
0.0
 11
-11366.07976548437
 21
3490.899649440523
 31
0.0
  0
LINE
  5
1B549
330
2
100
AcDbEntity
  8
VLS
100
AcDbLine
 10
-11735.07976548436
 20
3121.89964944053
 30
0.0
 11
-11720.94354192935
 21
3136.035872995545
 31
0.0
  0
LINE
  5
1B54A
330
2
100
AcDbEntity
  8
VLB
100
AcDbLine
 10
-11737.07976548436
 20
3138.654124363919
 30
0.0
 11
-11736.07976548436
 21
3138.654124363915
 31
0.0
  0
ARC
  5
1B54B
330
2
100
AcDbEntity
  8
VLB
100
AcDbCircle
 10
-11725.07976548424
 20
3133.654124363866
 30
0.0
 40
13.00000000013173
100
AcDbArc
 50
157.3801350519214
 51
164.0576313944421
  0
ARC
  5
1B54C
330
2
100
AcDbEntity
  8
VLB
100
AcDbCircle
 10
-11725.07976548448
 20
3133.654124363889
 30
0.0
 40
12.9999999998802
100
AcDbArc
 50
195.9423686055577
 51
202.6198649481446
  0
ARC
  5
1B54D
330
2
100
AcDbEntity
  8
VLB
100
AcDbCircle
 10
-11725.07976548436
 20
3133.654124363919
 30
0.0
 40
12.99999999999925
100
AcDbArc
 50
164.0576313944421
 51
195.9423686055577
  0
LINE
  5
1B54E
330
2
100
AcDbEntity
  8
VLB
100
AcDbLine
 10
-11737.07976548436
 20
3128.654124363919
 30
0.0
 11
-11736.07976548436
 21
3128.654124363919
 31
0.0
  0
LINE
  5
1B54F
330
2
100
AcDbEntity
  8
SPS
100
AcDbLine
 10
-11727.28506097463
 20
3133.654124363919
 30
0.0
 11
-11740.32425158064
 21
3133.654124363919
 31
0.0
  0
LINE
  5
1B550
330
2
100
AcDbEntity
  8
SPS
100
AcDbLine
 10
-11725.87353178603
 20
3129.694353950258
 30
0.0
 11
-11725.87353178603
 21
3116.655163344248
 31
0.0
  0
LINE
  5
1B551
330
2
100
AcDbEntity
  8
VLB
100
AcDbLine
 10
-11720.87353178603
 20
3119.899649440533
 30
0.0
 11
-11720.87353178603
 21
3120.899649440533
 31
0.0
  0
LINE
  5
1B552
330
2
100
AcDbEntity
  8
VLB
100
AcDbLine
 10
-11730.87353178603
 20
3119.899649440533
 30
0.0
 11
-11730.87353178602
 21
3120.899649440533
 31
0.0
  0
ARC
  5
1B553
330
2
100
AcDbEntity
  8
VLB
100
AcDbCircle
 10
-11725.87353178603
 20
3131.899649440533
 30
0.0
 40
12.99999999999925
100
AcDbArc
 50
247.380135051969
 51
292.6198649480308
  0
CIRCLE
  5
1B554
330
2
100
AcDbEntity
  8
VLB
100
AcDbCircle
 10
-11714.72111406982
 20
3142.258300855079
 30
0.0
 40
8.5
  0
LINE
  5
1B555
330
2
100
AcDbEntity
  8
VLB
100
AcDbLine
 10
-11706.22111406982
 20
3137.350830155078
 30
0.0
 11
-11706.22111406982
 21
3147.165771555078
 31
0.0
  0
LINE
  5
1B556
330
2
100
AcDbEntity
  8
SPS
100
AcDbLine
 10
-11714.72111406982
 20
3142.258300855078
 30
0.0
 11
-11714.72111406982
 21
3152.758300855078
 31
0.0
  0
LINE
  5
1B557
330
2
100
AcDbEntity
  8
VLB
100
AcDbLine
 10
-11723.22111406982
 20
3147.165771555078
 30
0.0
 11
-11723.22111406982
 21
3137.350830155078
 31
0.0
  0
LINE
  5
1B558
330
2
100
AcDbEntity
  8
VLB
100
AcDbLine
 10
-11714.72111406982
 20
3152.073249855079
 30
0.0
 11
-11723.22111406982
 21
3147.165771555078
 31
0.0
  0
LINE
  5
1B559
330
2
100
AcDbEntity
  8
VLB
100
AcDbLine
 10
-11706.22111406982
 20
3147.165771555078
 30
0.0
 11
-11714.72111406982
 21
3152.073249855079
 31
0.0
  0
LINE
  5
1B55A
330
2
100
AcDbEntity
  8
SPS
100
AcDbLine
 10
-11714.72111406982
 20
3142.258300855078
 30
0.0
 11
-11725.22111406982
 21
3142.258300855078
 31
0.0
  0
LINE
  5
1B55B
330
2
100
AcDbEntity
  8
VLB
100
AcDbLine
 10
-11723.22111406982
 20
3137.350830155078
 30
0.0
 11
-11714.72111406982
 21
3132.443351855078
 31
0.0
  0
LINE
  5
1B55C
330
2
100
AcDbEntity
  8
SPS
100
AcDbLine
 10
-11714.72111406982
 20
3142.258300855078
 30
0.0
 11
-11714.72111406982
 21
3131.758300855078
 31
0.0
  0
LINE
  5
1B55D
330
2
100
AcDbEntity
  8
SPS
100
AcDbLine
 10
-11714.72111406982
 20
3142.258300855078
 30
0.0
 11
-11704.22111406982
 21
3142.258300855078
 31
0.0
  0
LINE
  5
1B55E
330
2
100
AcDbEntity
  8
VLB
100
AcDbLine
 10
-11714.72111406982
 20
3132.443351855078
 30
0.0
 11
-11706.22111406982
 21
3137.350830155078
 31
0.0
  0
LINE
  5
1B55F
330
2
100
AcDbEntity
  8
VLS
100
AcDbLine
 10
-11023.66084475846
 20
3148.480728714608
 30
0.0
 11
-11366.07976548437
 21
3490.899649440521
 31
0.0
  0
LINE
  5
1B560
330
2
100
AcDbEntity
  8
VLS
100
AcDbLine
 10
-10997.07976548438
 20
3121.899649440528
 30
0.0
 11
-11011.21598903939
 21
3136.035872995542
 31
0.0
  0
LINE
  5
1B561
330
2
100
AcDbEntity
  8
VLB
100
AcDbLine
 10
-11013.83424040777
 20
3119.899649440532
 30
0.0
 11
-11013.83424040776
 21
3120.89964944053
 31
0.0
  0
ARC
  5
1B562
330
2
100
AcDbEntity
  8
VLB
100
AcDbCircle
 10
-11008.83424040771
 20
3131.89964944065
 30
0.0
 40
13.00000000013173
100
AcDbArc
 50
247.3801350519214
 51
254.0576313944421
  0
ARC
  5
1B563
330
2
100
AcDbEntity
  8
VLB
100
AcDbCircle
 10
-11008.83424040774
 20
3131.899649440413
 30
0.0
 40
12.9999999998802
100
AcDbArc
 50
285.9423686055577
 51
292.6198649481445
  0
ARC
  5
1B564
330
2
100
AcDbEntity
  8
VLB
100
AcDbCircle
 10
-11008.83424040776
 20
3131.89964944053
 30
0.0
 40
12.99999999999925
100
AcDbArc
 50
254.0576313944421
 51
285.9423686055577
  0
LINE
  5
1B565
330
2
100
AcDbEntity
  8
VLB
100
AcDbLine
 10
-11003.83424040777
 20
3119.899649440532
 30
0.0
 11
-11003.83424040777
 21
3120.89964944053
 31
0.0
  0
LINE
  5
1B566
330
2
100
AcDbEntity
  8
SPS
100
AcDbLine
 10
-11008.83424040776
 20
3129.694353950256
 30
0.0
 11
-11008.83424040776
 21
3116.655163344246
 31
0.0
  0
LINE
  5
1B567
330
2
100
AcDbEntity
  8
SPS
100
AcDbLine
 10
-11004.87446999411
 20
3131.105883138864
 30
0.0
 11
-10991.83527938809
 21
3131.105883138864
 31
0.0
  0
LINE
  5
1B568
330
2
100
AcDbEntity
  8
VLB
100
AcDbLine
 10
-10995.07976548438
 20
3136.105883138864
 30
0.0
 11
-10996.07976548438
 21
3136.105883138864
 31
0.0
  0
LINE
  5
1B569
330
2
100
AcDbEntity
  8
VLB
100
AcDbLine
 10
-10995.07976548438
 20
3126.105883138864
 30
0.0
 11
-10996.07976548438
 21
3126.105883138867
 31
0.0
  0
ARC
  5
1B56A
330
2
100
AcDbEntity
  8
VLB
100
AcDbCircle
 10
-11007.07976548438
 20
3131.105883138864
 30
0.0
 40
12.99999999999925
100
AcDbArc
 50
337.380135051969
 51
22.61986494803085
  0
CIRCLE
  5
1B56B
330
2
100
AcDbEntity
  8
VLB
100
AcDbCircle
 10
-11017.43841689893
 20
3142.258300855074
 30
0.0
 40
8.5
  0
LINE
  5
1B56C
330
2
100
AcDbEntity
  8
VLB
100
AcDbLine
 10
-11012.53094619893
 20
3150.758300855074
 30
0.0
 11
-11022.34588759892
 21
3150.758300855074
 31
0.0
  0
LINE
  5
1B56D
330
2
100
AcDbEntity
  8
SPS
100
AcDbLine
 10
-11017.43841689893
 20
3142.258300855074
 30
0.0
 11
-11027.93841689893
 21
3142.258300855074
 31
0.0
  0
LINE
  5
1B56E
330
2
100
AcDbEntity
  8
VLB
100
AcDbLine
 10
-11022.34588759892
 20
3133.758300855074
 30
0.0
 11
-11012.53094619893
 21
3133.758300855074
 31
0.0
  0
LINE
  5
1B56F
330
2
100
AcDbEntity
  8
VLB
100
AcDbLine
 10
-11027.25336589893
 20
3142.258300855074
 30
0.0
 11
-11022.34588759892
 21
3133.758300855074
 31
0.0
  0
LINE
  5
1B570
330
2
100
AcDbEntity
  8
VLB
100
AcDbLine
 10
-11022.34588759892
 20
3150.758300855074
 30
0.0
 11
-11027.25336589893
 21
3142.258300855074
 31
0.0
  0
LINE
  5
1B571
330
2
100
AcDbEntity
  8
SPS
100
AcDbLine
 10
-11017.43841689893
 20
3142.258300855074
 30
0.0
 11
-11017.43841689893
 21
3131.758300855074
 31
0.0
  0
LINE
  5
1B572
330
2
100
AcDbEntity
  8
VLB
100
AcDbLine
 10
-11012.53094619893
 20
3133.758300855074
 30
0.0
 11
-11007.62346789893
 21
3142.258300855074
 31
0.0
  0
LINE
  5
1B573
330
2
100
AcDbEntity
  8
SPS
100
AcDbLine
 10
-11017.43841689893
 20
3142.258300855074
 30
0.0
 11
-11006.93841689893
 21
3142.258300855074
 31
0.0
  0
LINE
  5
1B574
330
2
100
AcDbEntity
  8
SPS
100
AcDbLine
 10
-11017.43841689893
 20
3142.258300855074
 30
0.0
 11
-11017.43841689893
 21
3152.758300855074
 31
0.0
  0
LINE
  5
1B575
330
2
100
AcDbEntity
  8
VLB
100
AcDbLine
 10
-11007.62346789893
 20
3142.258300855074
 30
0.0
 11
-11012.53094619893
 21
3150.758300855074
 31
0.0
  0
LINE
  5
1B576
330
2
100
AcDbEntity
  8
VLS
100
AcDbLine
 10
-11023.66084475846
 20
3833.318570166434
 30
0.0
 11
-11366.07976548437
 21
3490.899649440522
 31
0.0
  0
LINE
  5
1B577
330
2
100
AcDbEntity
  8
VLS
100
AcDbLine
 10
-10997.07976548437
 20
3859.899649440515
 30
0.0
 11
-11011.21598903939
 21
3845.763425885499
 31
0.0
  0
LINE
  5
1B578
330
2
100
AcDbEntity
  8
VLB
100
AcDbLine
 10
-10995.07976548438
 20
3843.145174517125
 30
0.0
 11
-10996.07976548438
 21
3843.145174517129
 31
0.0
  0
ARC
  5
1B579
330
2
100
AcDbEntity
  8
VLB
100
AcDbCircle
 10
-11007.0797654845
 20
3848.145174517178
 30
0.0
 40
13.00000000013173
100
AcDbArc
 50
337.3801350519214
 51
344.0576313944421
  0
ARC
  5
1B57A
330
2
100
AcDbEntity
  8
VLB
100
AcDbCircle
 10
-11007.07976548426
 20
3848.145174517155
 30
0.0
 40
12.9999999998802
100
AcDbArc
 50
15.9423686055577
 51
22.61986494814455
  0
ARC
  5
1B57B
330
2
100
AcDbEntity
  8
VLB
100
AcDbCircle
 10
-11007.07976548438
 20
3848.145174517125
 30
0.0
 40
12.99999999999925
100
AcDbArc
 50
344.0576313944421
 51
15.9423686055577
  0
LINE
  5
1B57C
330
2
100
AcDbEntity
  8
VLB
100
AcDbLine
 10
-10995.07976548438
 20
3853.145174517125
 30
0.0
 11
-10996.07976548438
 21
3853.145174517125
 31
0.0
  0
LINE
  5
1B57D
330
2
100
AcDbEntity
  8
SPS
100
AcDbLine
 10
-11004.87446999411
 20
3848.145174517125
 30
0.0
 11
-10991.83527938809
 21
3848.145174517125
 31
0.0
  0
LINE
  5
1B57E
330
2
100
AcDbEntity
  8
SPS
100
AcDbLine
 10
-11006.28599918271
 20
3852.104944930786
 30
0.0
 11
-11006.28599918271
 21
3865.144135536797
 31
0.0
  0
LINE
  5
1B57F
330
2
100
AcDbEntity
  8
VLB
100
AcDbLine
 10
-11011.28599918271
 20
3861.899649440511
 30
0.0
 11
-11011.28599918271
 21
3860.899649440511
 31
0.0
  0
LINE
  5
1B580
330
2
100
AcDbEntity
  8
VLB
100
AcDbLine
 10
-11001.28599918271
 20
3861.899649440511
 30
0.0
 11
-11001.28599918271
 21
3860.899649440511
 31
0.0
  0
ARC
  5
1B581
330
2
100
AcDbEntity
  8
VLB
100
AcDbCircle
 10
-11006.28599918271
 20
3849.899649440511
 30
0.0
 40
12.99999999999925
100
AcDbArc
 50
67.380135051969
 51
112.6198649480307
  0
CIRCLE
  5
1B582
330
2
100
AcDbEntity
  8
VLB
100
AcDbCircle
 10
-11017.43841689892
 20
3839.540998025965
 30
0.0
 40
8.5
  0
LINE
  5
1B583
330
2
100
AcDbEntity
  8
VLB
100
AcDbLine
 10
-11025.93841689892
 20
3844.448468725966
 30
0.0
 11
-11025.93841689892
 21
3834.633527325967
 31
0.0
  0
LINE
  5
1B584
330
2
100
AcDbEntity
  8
SPS
100
AcDbLine
 10
-11017.43841689892
 20
3839.540998025966
 30
0.0
 11
-11017.43841689892
 21
3829.040998025966
 31
0.0
  0
LINE
  5
1B585
330
2
100
AcDbEntity
  8
VLB
100
AcDbLine
 10
-11008.93841689892
 20
3834.633527325967
 30
0.0
 11
-11008.93841689892
 21
3844.448468725966
 31
0.0
  0
LINE
  5
1B586
330
2
100
AcDbEntity
  8
VLB
100
AcDbLine
 10
-11017.43841689892
 20
3829.726049025965
 30
0.0
 11
-11008.93841689892
 21
3834.633527325967
 31
0.0
  0
LINE
  5
1B587
330
2
100
AcDbEntity
  8
VLB
100
AcDbLine
 10
-11025.93841689892
 20
3834.633527325967
 30
0.0
 11
-11017.43841689892
 21
3829.726049025965
 31
0.0
  0
LINE
  5
1B588
330
2
100
AcDbEntity
  8
SPS
100
AcDbLine
 10
-11017.43841689892
 20
3839.540998025966
 30
0.0
 11
-11006.93841689892
 21
3839.540998025966
 31
0.0
  0
LINE
  5
1B589
330
2
100
AcDbEntity
  8
VLB
100
AcDbLine
 10
-11008.93841689892
 20
3844.448468725966
 30
0.0
 11
-11017.43841689892
 21
3849.355947025966
 31
0.0
  0
LINE
  5
1B58A
330
2
100
AcDbEntity
  8
SPS
100
AcDbLine
 10
-11017.43841689892
 20
3839.540998025966
 30
0.0
 11
-11017.43841689892
 21
3850.040998025967
 31
0.0
  0
LINE
  5
1B58B
330
2
100
AcDbEntity
  8
SPS
100
AcDbLine
 10
-11017.43841689892
 20
3839.540998025966
 30
0.0
 11
-11027.93841689892
 21
3839.540998025966
 31
0.0
  0
LINE
  5
1B58C
330
2
100
AcDbEntity
  8
VLB
100
AcDbLine
 10
-11017.43841689892
 20
3849.355947025966
 30
0.0
 11
-11025.93841689892
 21
3844.448468725966
 31
0.0
  0
TEXT
  5
1B58D
330
2
100
AcDbEntity
  8
VLB
100
AcDbText
 10
-11059.85995724208
 20
5816.851113222138
 30
0.0
 40
80.0
  1
FDA 31-45..-..
  7
ROMANS8
100
AcDbText
  0
LINE
  5
1F4B7
330
2
100
AcDbEntity
  8
VLB
100
AcDbLine
 10
-10073.9739238506
 20
4386.822750874606
 30
0.0
 11
-9057.973923850608
 21
4386.822750874606
 31
0.0
  0
LINE
  5
1F4B8
330
2
100
AcDbEntity
  8
VLB
100
AcDbLine
 10
-9057.973923850608
 20
4386.822750874606
 30
0.0
 11
-9057.973923850608
 21
5386.822750874606
 31
0.0
  0
LINE
  5
1F4B9
330
2
100
AcDbEntity
  8
VLB
100
AcDbLine
 10
-9057.973923850608
 20
5386.822750874606
 30
0.0
 11
-10073.9739238506
 21
5386.822750874606
 31
0.0
  0
LINE
  5
1F4BA
330
2
100
AcDbEntity
  8
VLB
100
AcDbLine
 10
-10073.9739238506
 20
5386.822750874606
 30
0.0
 11
-10073.9739238506
 21
4386.822750874606
 31
0.0
  0
LINE
  5
1F4BB
330
2
100
AcDbEntity
  8
VLB
100
AcDbLine
 10
-11874.07976548437
 20
4386.822750874606
 30
0.0
 11
-10858.07976548436
 21
4386.822750874606
 31
0.0
  0
LINE
  5
1F4BC
330
2
100
AcDbEntity
  8
VLB
100
AcDbLine
 10
-10858.07976548436
 20
4386.822750874606
 30
0.0
 11
-10858.07976548436
 21
5386.822750874606
 31
0.0
  0
LINE
  5
1F4BD
330
2
100
AcDbEntity
  8
VLB
100
AcDbLine
 10
-10858.07976548436
 20
5386.822750874606
 30
0.0
 11
-11874.07976548437
 21
5386.822750874606
 31
0.0
  0
LINE
  5
1F4BE
330
2
100
AcDbEntity
  8
VLB
100
AcDbLine
 10
-11874.07976548437
 20
5386.822750874606
 30
0.0
 11
-11874.07976548437
 21
4386.822750874606
 31
0.0
  0
LINE
  5
1F4BF
330
2
100
AcDbEntity
  8
SPS
100
AcDbLine
 10
-11554.82575790528
 20
4401.822750874606
 30
0.0
 11
-11537.33377306347
 21
4401.822750874606
 31
0.0
  0
LWPOLYLINE
  5
1F4C0
330
2
100
AcDbEntity
  8
VLB
100
AcDbPolyline
 90
        6
 70
     1
 43
0.0
 10
-11549.83254223411
 20
4408.322750874606
 10
-11553.58531898384
 20
4401.822750874606
 10
-11549.83254223411
 20
4395.322750874606
 10
-11542.32698873464
 20
4395.322750874606
 10
-11538.57421198491
 20
4401.822750874606
 10
-11542.32698873464
 20
4408.322750874606
  0
CIRCLE
  5
1F4C1
330
2
100
AcDbEntity
  8
VLB
100
AcDbCircle
 10
-11546.07976548438
 20
4401.822750874606
 30
0.0
 40
6.5
  0
LINE
  5
1F4C2
330
2
100
AcDbEntity
  8
SPS
100
AcDbLine
 10
-11546.07976548438
 20
4410.568743295507
 30
0.0
 11
-11546.07976548438
 21
4393.076758453704
 31
0.0
  0
LINE
  5
1F4C3
330
2
100
AcDbEntity
  8
SPS
100
AcDbLine
 10
-11194.82575790527
 20
4401.822750874606
 30
0.0
 11
-11177.33377306347
 21
4401.822750874606
 31
0.0
  0
LWPOLYLINE
  5
1F4C4
330
2
100
AcDbEntity
  8
VLB
100
AcDbPolyline
 90
        6
 70
     1
 43
0.0
 10
-11189.8325422341
 20
4408.322750874606
 10
-11193.58531898383
 20
4401.822750874606
 10
-11189.8325422341
 20
4395.322750874606
 10
-11182.32698873464
 20
4395.322750874606
 10
-11178.5742119849
 20
4401.822750874606
 10
-11182.32698873464
 20
4408.322750874606
  0
CIRCLE
  5
1F4C5
330
2
100
AcDbEntity
  8
VLB
100
AcDbCircle
 10
-11186.07976548437
 20
4401.822750874606
 30
0.0
 40
6.5
  0
LINE
  5
1F4C6
330
2
100
AcDbEntity
  8
SPS
100
AcDbLine
 10
-11186.07976548437
 20
4410.568743295507
 30
0.0
 11
-11186.07976548437
 21
4393.076758453704
 31
0.0
  0
LINE
  5
1F4C7
330
2
100
AcDbEntity
  8
SPS
100
AcDbLine
 10
-9754.719916271518
 20
4401.822750874606
 30
0.0
 11
-9737.227931429716
 21
4401.822750874606
 31
0.0
  0
LWPOLYLINE
  5
1F4C8
330
2
100
AcDbEntity
  8
VLB
100
AcDbPolyline
 90
        6
 70
     1
 43
0.0
 10
-9749.72670060035
 20
4408.322750874606
 10
-9753.479477350083
 20
4401.822750874606
 10
-9749.72670060035
 20
4395.322750874606
 10
-9742.221147100885
 20
4395.322750874606
 10
-9738.468370351151
 20
4401.822750874606
 10
-9742.221147100885
 20
4408.322750874606
  0
CIRCLE
  5
1F4C9
330
2
100
AcDbEntity
  8
VLB
100
AcDbCircle
 10
-9745.973923850618
 20
4401.822750874606
 30
0.0
 40
6.5
  0
LINE
  5
1F4CA
330
2
100
AcDbEntity
  8
SPS
100
AcDbLine
 10
-9745.973923850618
 20
4410.568743295507
 30
0.0
 11
-9745.973923850618
 21
4393.076758453704
 31
0.0
  0
LINE
  5
1F4CB
330
2
100
AcDbEntity
  8
SPS
100
AcDbLine
 10
-9394.719916271512
 20
4401.822750874606
 30
0.0
 11
-9377.227931429708
 21
4401.822750874606
 31
0.0
  0
LWPOLYLINE
  5
1F4CC
330
2
100
AcDbEntity
  8
VLB
100
AcDbPolyline
 90
        6
 70
     1
 43
0.0
 10
-9389.726700600341
 20
4408.322750874606
 10
-9393.479477350075
 20
4401.822750874606
 10
-9389.726700600341
 20
4395.322750874606
 10
-9382.221147100878
 20
4395.322750874606
 10
-9378.468370351143
 20
4401.822750874606
 10
-9382.221147100878
 20
4408.322750874606
  0
CIRCLE
  5
1F4CD
330
2
100
AcDbEntity
  8
VLB
100
AcDbCircle
 10
-9385.97392385061
 20
4401.822750874606
 30
0.0
 40
6.5
  0
LINE
  5
1F4CE
330
2
100
AcDbEntity
  8
SPS
100
AcDbLine
 10
-9385.97392385061
 20
4410.568743295507
 30
0.0
 11
-9385.97392385061
 21
4393.076758453704
 31
0.0
  0
LINE
  5
1F952
330
2
100
AcDbEntity
  8
VLB
100
AcDbLine
 10
-10859.07976548436
 20
4386.822750874606
 30
0.0
 11
-10859.07976548436
 21
5386.822750874606
 31
0.0
  0
LINE
  5
1F953
330
2
100
AcDbEntity
  8
VLB
100
AcDbLine
 10
-9058.973923850608
 20
4386.822750874606
 30
0.0
 11
-9058.973923850608
 21
5386.822750874606
 31
0.0
  0
LINE
  5
1F956
330
2
100
AcDbEntity
  8
VLB
100
AcDbLine
 10
-11872.07976548437
 20
5386.822750874606
 30
0.0
 11
-11872.07976548437
 21
4386.822750874606
 31
0.0
  0
LINE
  5
1F957
330
2
100
AcDbEntity
  8
VLB
100
AcDbLine
 10
-10071.9739238506
 20
5386.822750874606
 30
0.0
 11
-10071.9739238506
 21
4386.822750874606
 31
0.0
  0
LINE
  5
1F9E7
330
2
100
AcDbEntity
  8
SPS
100
AcDbLine
 10
-11870.31630993931
 20
4427.510541454307
 30
0.0
 11
-11856.97562379467
 21
4427.510541454307
 31
0.0
  0
LINE
  5
1F9E8
330
2
100
AcDbEntity
  8
SPS
100
AcDbLine
 10
-11864.00495338224
 20
4420.102298600344
 30
0.0
 11
-11864.00495338224
 21
4435.995150678187
 31
0.0
  0
CIRCLE
  5
1F9E9
330
2
100
AcDbEntity
  8
VLB
100
AcDbCircle
 10
-11864.00495338224
 20
4427.510541454307
 30
0.0
 40
5.000000000001818
  0
CIRCLE
  5
1F9EA
330
2
100
AcDbEntity
  8
VLB
100
AcDbCircle
 10
-11864.00495338224
 20
4427.510541454307
 30
0.0
 40
2.550000000006548
  0
LINE
  5
1FB9D
330
2
100
AcDbEntity
  8
VLB
100
AcDbLine
 10
-9933.973923850608
 20
5409.322750874607
 30
0.0
 11
-9933.973923850608
 21
5386.822750874606
 31
0.0
  0
LINE
  5
1FB9E
330
2
100
AcDbEntity
  8
VLB
100
AcDbLine
 10
-11734.07976548437
 20
5409.322750874607
 30
0.0
 11
-11734.07976548437
 21
5386.822750874606
 31
0.0
  0
LINE
  5
1FBAD
330
2
100
AcDbEntity
  8
VLB
100
AcDbLine
 10
-11735.07976548436
 20
5409.322750874607
 30
0.0
 11
-11735.07976548436
 21
5424.322750874607
 31
0.0
  0
LINE
  5
1FBAE
330
2
100
AcDbEntity
  8
VLB
100
AcDbLine
 10
-10997.07976548436
 20
5424.322750874607
 30
0.0
 11
-10997.07976548436
 21
5409.322750874607
 31
0.0
  0
LINE
  5
1FBAF
330
2
100
AcDbEntity
  8
VLB
100
AcDbLine
 10
-10997.07976548437
 20
5409.322750874607
 30
0.0
 11
-10997.07976548437
 21
5386.822750874606
 31
0.0
  0
LINE
  5
1FBB0
330
2
100
AcDbEntity
  8
VLB
100
AcDbLine
 10
-9934.973923850611
 20
5424.322750874607
 30
0.0
 11
-9934.973923850611
 21
5409.322750874607
 31
0.0
  0
LINE
  5
1FBB1
330
2
100
AcDbEntity
  8
VLB
100
AcDbLine
 10
-9196.973923850608
 20
5409.322750874607
 30
0.0
 11
-9196.973923850608
 21
5386.822750874606
 31
0.0
  0
LINE
  5
1FBB2
330
2
100
AcDbEntity
  8
VLB
100
AcDbLine
 10
-9196.973923850606
 20
5424.322750874607
 30
0.0
 11
-9196.973923850606
 21
5409.322750874607
 31
0.0
  0
VIEWPORT
  5
51E
330
7
100
AcDbEntity
 67
     1
  8
0
100
AcDbViewport
 10
222.9989965408922
 20
359.8485954918802
 30
0.0
 40
1687.01080625753
 41
963.3348615119601
 68
     1
 69
     1
1001
ACAD
1000
MVIEW
1002
{
1070
    16
1010
0.0
1020
0.0
1030
0.0
1010
0.0
1020
0.0
1030
1.0
1040
0.0
1040
963.3348615119601
1040
222.9989965408922
1040
359.8485954918802
1040
50.0
1040
0.0
1040
0.0
1070
     0
1070
   100
1070
     1
1070
     1
1070
     0
1070
     0
1070
     0
1070
     0
1040
0.0
1040
0.0
1040
0.0
1040
1.0
1040
1.0
1040
10.0
1040
10.0
1070
     0
1002
{
1002
}
1002
}
  0
ENDSEC
  0
SECTION
  2
OBJECTS
  0
DICTIONARY
  5
1A
330
0
100
AcDbDictionary
  3
ACAD_GROUP
350
18
  3
ACAD_LAYOUT
350
EDC7
  3
ACAD_MLINESTYLE
350
19
  3
ACAD_PLOTSETTINGS
350
EDC8
  3
ACAD_PLOTSTYLENAME
350
EDC5
  3
ACDBHEADERROUNDTRIPXREC
350
1FE46
  3
ACDBVARIABLEDICTIONARY
350
EDE7
  3
CONTENTDICTIONARY
350
81A
  0
DICTIONARY
  5
1FE67
330
2
100
AcDbDictionary
280
     1
  3
ACAD_LAYOUTSELFREF
360
1FE68
  0
DICTIONARY
  5
1FE69
330
7
100
AcDbDictionary
280
     1
  3
ACAD_LAYOUTSELFREF
360
1FE6A
  0
DICTIONARY
  5
18
102
{ACAD_REACTORS
330
1A
102
}
330
1A
100
AcDbDictionary
  3
*A1
350
63B1
  3
*A10
350
1C0C
  3
*A100
350
6291
  3
*A1000
350
4833
  3
*A1001
350
4975
  3
*A1002
350
6313
  3
*A1003
350
6382
  3
*A1004
350
637D
  3
*A1005
350
4978
  3
*A1006
350
62D4
  3
*A1007
350
63B5
  3
*A1008
350
49D4
  3
*A1009
350
495D
  3
*A101
350
1BA2
  3
*A1010
350
63E6
  3
*A1011
350
625C
  3
*A1012
350
1C61
  3
*A1013
350
4858
  3
*A1014
350
63B3
  3
*A1015
350
1BE4
  3
*A1016
350
49BE
  3
*A1017
350
493F
  3
*A1018
350
4913
  3
*A1019
350
6245
  3
*A102
350
1B3B
  3
*A1020
350
48C6
  3
*A1021
350
62D8
  3
*A1022
350
37C1
  3
*A1023
350
1BEF
  3
*A1024
350
49F1
  3
*A1025
350
37BC
  3
*A1026
350
489D
  3
*A1027
350
630A
  3
*A1028
350
1B7B
  3
*A1029
350
1457
  3
*A103
350
1B7E
  3
*A1030
350
1B19
  3
*A1031
350
6282
  3
*A1032
350
4898
  3
*A1033
350
6333
  3
*A1034
350
1C28
  3
*A1035
350
63BA
  3
*A1036
350
6398
  3
*A104
350
49AD
  3
*A105
350
48A5
  3
*A106
350
62C1
  3
*A107
350
6292
  3
*A108
350
492A
  3
*A109
350
1B60
  3
*A11
350
1AEF
  3
*A110
350
489B
  3
*A111
350
63FF
  3
*A112
350
4817
  3
*A113
350
4871
  3
*A114
350
49E2
  3
*A115
350
1465
  3
*A116
350
629F
  3
*A117
350
1BEE
  3
*A118
350
63EC
  3
*A119
350
1BEB
  3
*A12
350
4815
  3
*A120
350
4998
  3
*A121
350
480B
  3
*A122
350
625A
  3
*A123
350
493A
  3
*A124
350
1B42
  3
*A125
350
63B0
  3
*A126
350
48AF
  3
*A127
350
49D6
  3
*A128
350
62A3
  3
*A129
350
634B
  3
*A13
350
62A8
  3
*A130
350
490A
  3
*A131
350
4943
  3
*A132
350
6281
  3
*A133
350
62DC
  3
*A134
350
48B0
  3
*A135
350
379D
  3
*A136
350
6385
  3
*A137
350
1AFC
  3
*A138
350
6271
  3
*A139
350
4959
  3
*A14
350
6239
  3
*A140
350
49D9
  3
*A141
350
1C32
  3
*A142
350
491E
  3
*A143
350
1AE9
  3
*A144
350
1B2C
  3
*A145
350
1C36
  3
*A146
350
49C2
  3
*A147
350
6396
  3
*A148
350
6425
  3
*A149
350
49ED
  3
*A15
350
626D
  3
*A150
350
4843
  3
*A151
350
4A11
  3
*A152
350
494A
  3
*A153
350
62FF
  3
*A154
350
6352
  3
*A155
350
1BAE
  3
*A156
350
1AEB
  3
*A157
350
63CF
  3
*A158
350
622C
  3
*A159
350
1C1A
  3
*A16
350
63DE
  3
*A160
350
1B6C
  3
*A161
350
1469
  3
*A162
350
1B6F
  3
*A163
350
1BB5
  3
*A164
350
62DF
  3
*A165
350
6294
  3
*A166
350
62CD
  3
*A167
350
4A15
  3
*A168
350
628C
  3
*A169
350
49B3
  3
*A17
350
62AC
  3
*A170
350
1AFA
  3
*A171
350
48A9
  3
*A172
350
496A
  3
*A173
350
4891
  3
*A174
350
4A06
  3
*A175
350
37B3
  3
*A176
350
483D
  3
*A177
350
37B2
  3
*A178
350
1AD8
  3
*A179
350
37AB
  3
*A18
350
63E2
  3
*A180
350
495C
  3
*A181
350
62C4
  3
*A182
350
4834
  3
*A183
350
6365
  3
*A184
350
488D
  3
*A185
350
635F
  3
*A186
350
48B1
  3
*A187
350
1B1D
  3
*A188
350
1C5A
  3
*A189
350
63B2
  3
*A19
350
496B
  3
*A190
350
1B82
  3
*A191
350
48A2
  3
*A192
350
1B0A
  3
*A193
350
6229
  3
*A194
350
1C59
  3
*A195
350
1B88
  3
*A196
350
625B
  3
*A197
350
1B04
  3
*A198
350
487A
  3
*A199
350
1B2B
  3
*A2
350
6232
  3
*A20
350
487E
  3
*A200
350
63A2
  3
*A201
350
4844
  3
*A202
350
1B35
  3
*A203
350
6402
  3
*A204
350
63D6
  3
*A205
350
62A2
  3
*A206
350
6350
  3
*A207
350
6400
  3
*A208
350
6399
  3
*A209
350
1ACE
  3
*A21
350
1BA6
  3
*A210
350
1BB4
  3
*A211
350
1C03
  3
*A212
350
4995
  3
*A213
350
1C45
  3
*A214
350
49FC
  3
*A215
350
6283
  3
*A216
350
6284
  3
*A217
350
6341
  3
*A218
350
1BA8
  3
*A219
350
63F0
  3
*A22
350
482D
  3
*A220
350
49D8
  3
*A221
350
4990
  3
*A222
350
629B
  3
*A223
350
1C0E
  3
*A224
350
1460
  3
*A225
350
6381
  3
*A226
350
37B9
  3
*A227
350
1C51
  3
*A228
350
1AD1
  3
*A229
350
1AF3
  3
*A23
350
4886
  3
*A230
350
635B
  3
*A231
350
1BBD
  3
*A232
350
1B16
  3
*A233
350
1B62
  3
*A234
350
494D
  3
*A235
350
1AFD
  3
*A236
350
37C2
  3
*A237
350
49D5
  3
*A238
350
6298
  3
*A239
350
4A0F
  3
*A24
350
1BC2
  3
*A240
350
6392
  3
*A241
350
1BED
  3
*A242
350
1BF5
  3
*A243
350
62E9
  3
*A244
350
48B3
  3
*A245
350
62C8
  3
*A246
350
638B
  3
*A247
350
48E3
  3
*A248
350
4929
  3
*A249
350
4909
  3
*A25
350
1BFC
  3
*A250
350
6316
  3
*A251
350
37BF
  3
*A252
350
1BBB
  3
*A253
350
6304
  3
*A254
350
1BE1
  3
*A255
350
49F0
  3
*A256
350
1AEC
  3
*A257
350
498C
  3
*A258
350
1B0C
  3
*A259
350
1BB6
  3
*A26
350
487F
  3
*A260
350
48CC
  3
*A261
350
1B2F
  3
*A262
350
488F
  3
*A263
350
625E
  3
*A264
350
4989
  3
*A265
350
4899
  3
*A266
350
1BBF
  3
*A267
350
63C9
  3
*A268
350
6375
  3
*A269
350
4911
  3
*A27
350
4968
  3
*A270
350
635C
  3
*A271
350
487D
  3
*A272
350
493C
  3
*A273
350
1B5D
  3
*A274
350
63BB
  3
*A275
350
637A
  3
*A276
350
6261
  3
*A277
350
49CF
  3
*A278
350
6262
  3
*A279
350
1C02
  3
*A28
350
49C3
  3
*A280
350
6394
  3
*A281
350
1BB1
  3
*A282
350
48E8
  3
*A283
350
62A6
  3
*A284
350
37A3
  3
*A285
350
49AA
  3
*A286
350
63BC
  3
*A287
350
62AF
  3
*A288
350
48E1
  3
*A289
350
6311
  3
*A29
350
49EF
  3
*A290
350
6369
  3
*A291
350
1C53
  3
*A292
350
499A
  3
*A293
350
4874
  3
*A294
350
1C39
  3
*A295
350
4896
  3
*A296
350
481F
  3
*A297
350
1459
  3
*A298
350
49F8
  3
*A299
350
4974
  3
*A3
350
4895
  3
*A30
350
6322
  3
*A300
350
497E
  3
*A301
350
1AD0
  3
*A302
350
639E
  3
*A303
350
6220
  3
*A304
350
63E1
  3
*A305
350
6300
  3
*A306
350
48B4
  3
*A307
350
4A17
  3
*A308
350
1B92
  3
*A309
350
1B2A
  3
*A31
350
4991
  3
*A310
350
48D2
  3
*A311
350
1C15
  3
*A312
350
1C58
  3
*A313
350
49BD
  3
*A314
350
1B8B
  3
*A315
350
1C1B
  3
*A316
350
634C
  3
*A317
350
495E
  3
*A318
350
1C20
  3
*A319
350
1C3A
  3
*A32
350
48C8
  3
*A320
350
49E8
  3
*A321
350
37A6
  3
*A322
350
635A
  3
*A323
350
1BD4
  3
*A324
350
62A0
  3
*A325
350
4997
  3
*A326
350
6317
  3
*A327
350
1C47
  3
*A328
350
1C21
  3
*A329
350
1AEE
  3
*A33
350
62B2
  3
*A330
350
6248
  3
*A331
350
1AED
  3
*A332
350
497F
  3
*A333
350
1C48
  3
*A334
350
1BD3
  3
*A335
350
48BB
  3
*A336
350
1C37
  3
*A337
350
1C44
  3
*A338
350
633C
  3
*A339
350
49F6
  3
*A34
350
62CA
  3
*A340
350
496F
  3
*A341
350
62AA
  3
*A342
350
49D3
  3
*A343
350
4955
  3
*A344
350
1BE9
  3
*A345
350
49C7
  3
*A346
350
48AC
  3
*A347
350
6327
  3
*A348
350
4973
  3
*A349
350
1B4A
  3
*A35
350
1B3E
  3
*A350
350
1C08
  3
*A351
350
62F1
  3
*A352
350
1BBA
  3
*A353
350
484C
  3
*A354
350
1462
  3
*A355
350
1B13
  3
*A356
350
62C2
  3
*A357
350
1C46
  3
*A358
350
63AC
  3
*A359
350
62F5
  3
*A36
350
633A
  3
*A360
350
628F
  3
*A361
350
1BF9
  3
*A362
350
1466
  3
*A363
350
1B69
  3
*A364
350
48F2
  3
*A365
350
49DD
  3
*A366
350
4894
  3
*A367
350
1B75
  3
*A368
350
48E6
  3
*A369
350
1C2B
  3
*A37
350
1C27
  3
*A370
350
629C
  3
*A371
350
4937
  3
*A372
350
1458
  3
*A373
350
1BC4
  3
*A374
350
63D2
  3
*A375
350
1C4D
  3
*A376
350
48F5
  3
*A377
350
4813
  3
*A378
350
63B6
  3
*A379
350
49EB
  3
*A38
350
486C
  3
*A380
350
37C0
  3
*A381
350
1BCC
  3
*A382
350
4A03
  3
*A383
350
6242
  3
*A384
350
48B7
  3
*A385
350
497D
  3
*A386
350
4912
  3
*A387
350
48FF
  3
*A388
350
630E
  3
*A389
350
6370
  3
*A39
350
1C56
  3
*A390
350
622D
  3
*A391
350
4988
  3
*A392
350
62BE
  3
*A393
350
6241
  3
*A394
350
48FC
  3
*A395
350
4958
  3
*A396
350
63EA
  3
*A397
350
1BDF
  3
*A398
350
6307
  3
*A399
350
4824
  3
*A4
350
63DD
  3
*A40
350
489E
  3
*A400
350
49C9
  3
*A401
350
499B
  3
*A402
350
37A5
  3
*A403
350
6236
  3
*A404
350
6264
  3
*A405
350
1B70
  3
*A406
350
37B5
  3
*A407
350
63C2
  3
*A408
350
4952
  3
*A409
350
49B1
  3
*A41
350
48BD
  3
*A410
350
49A5
  3
*A411
350
1BD1
  3
*A412
350
1B99
  3
*A413
350
4993
  3
*A414
350
4948
  3
*A415
350
63FC
  3
*A416
350
62F9
  3
*A417
350
4981
  3
*A418
350
4962
  3
*A419
350
4931
  3
*A42
350
1B22
  3
*A420
350
4932
  3
*A421
350
1C23
  3
*A422
350
1BF6
  3
*A423
350
63A8
  3
*A424
350
63A5
  3
*A425
350
379B
  3
*A426
350
62A5
  3
*A427
350
6227
  3
*A428
350
1B79
  3
*A429
350
4880
  3
*A43
350
1AE0
  3
*A430
350
1B8C
  3
*A431
350
49AB
  3
*A432
350
1B72
  3
*A433
350
621A
  3
*A434
350
1BDE
  3
*A435
350
48EC
  3
*A436
350
638A
  3
*A437
350
4890
  3
*A438
350
6309
  3
*A439
350
1BFB
  3
*A44
350
4864
  3
*A440
350
497B
  3
*A441
350
62D3
  3
*A442
350
6233
  3
*A443
350
1BB7
  3
*A444
350
1C01
  3
*A445
350
62AE
  3
*A446
350
48E0
  3
*A447
350
633E
  3
*A448
350
63D9
  3
*A449
350
6424
  3
*A45
350
492D
  3
*A450
350
48B5
  3
*A451
350
4964
  3
*A452
350
4884
  3
*A453
350
1B41
  3
*A454
350
1BB2
  3
*A455
350
49CB
  3
*A456
350
145B
  3
*A457
350
1AE5
  3
*A458
350
4950
  3
*A459
350
1B5F
  3
*A46
350
6308
  3
*A460
350
4845
  3
*A461
350
1C05
  3
*A462
350
1C4E
  3
*A463
350
49B9
  3
*A464
350
63E3
  3
*A465
350
1BF3
  3
*A466
350
1C35
  3
*A467
350
4946
  3
*A468
350
62C3
  3
*A469
350
6219
  3
*A47
350
63F7
  3
*A470
350
631E
  3
*A471
350
49AE
  3
*A472
350
4A01
  3
*A473
350
4847
  3
*A474
350
37A9
  3
*A475
350
6395
  3
*A476
350
1B24
  3
*A477
350
49EA
  3
*A478
350
497C
  3
*A479
350
63B7
  3
*A48
350
63CA
  3
*A480
350
1B12
  3
*A481
350
37B7
  3
*A482
350
63D1
  3
*A483
350
1C22
  3
*A484
350
638C
  3
*A485
350
6362
  3
*A486
350
62C0
  3
*A487
350
1C3F
  3
*A488
350
1B07
  3
*A489
350
636B
  3
*A49
350
1BD5
  3
*A490
350
1B51
  3
*A491
350
4967
  3
*A492
350
482C
  3
*A493
350
634D
  3
*A494
350
49E4
  3
*A495
350
49BC
  3
*A496
350
49A9
  3
*A497
350
6359
  3
*A498
350
4926
  3
*A499
350
1ACF
  3
*A5
350
1B7F
  3
*A50
350
4A18
  3
*A500
350
1B09
  3
*A501
350
634E
  3
*A502
350
4872
  3
*A503
350
6404
  3
*A504
350
1B6A
  3
*A505
350
63D4
  3
*A506
350
63FA
  3
*A507
350
63F8
  3
*A508
350
1B8D
  3
*A509
350
6357
  3
*A51
350
49B2
  3
*A510
350
1B03
  3
*A511
350
6224
  3
*A512
350
1C24
  3
*A513
350
1C07
  3
*A514
350
6417
  3
*A515
350
1B53
  3
*A516
350
63FE
  3
*A517
350
486F
  3
*A518
350
1BBE
  3
*A519
350
62ED
  3
*A52
350
1BC0
  3
*A520
350
62B9
  3
*A521
350
49E6
  3
*A522
350
632B
  3
*A523
350
6406
  3
*A524
350
6240
  3
*A525
350
482E
  3
*A526
350
48E4
  3
*A527
350
1B98
  3
*A528
350
4811
  3
*A529
350
1C18
  3
*A53
350
37AD
  3
*A530
350
623F
  3
*A531
350
49D2
  3
*A532
350
4903
  3
*A533
350
63CB
  3
*A534
350
1BD8
  3
*A535
350
6393
  3
*A536
350
6383
  3
*A537
350
63E5
  3
*A538
350
639D
  3
*A539
350
6277
  3
*A54
350
1BD6
  3
*A540
350
1BB8
  3
*A541
350
489F
  3
*A542
350
49CA
  3
*A543
350
1B58
  3
*A544
350
62EE
  3
*A545
350
63E7
  3
*A546
350
48D3
  3
*A547
350
4905
  3
*A548
350
6415
  3
*A549
350
49CE
  3
*A55
350
1C1C
  3
*A550
350
48DC
  3
*A551
350
379A
  3
*A552
350
49FA
  3
*A553
350
37AC
  3
*A554
350
49A6
  3
*A555
350
636F
  3
*A556
350
1B7D
  3
*A557
350
4882
  3
*A558
350
637C
  3
*A559
350
4957
  3
*A56
350
1B52
  3
*A560
350
484D
  3
*A561
350
49B7
  3
*A562
350
49BA
  3
*A563
350
1BCD
  3
*A564
350
6223
  3
*A565
350
4A08
  3
*A566
350
1BEC
  3
*A567
350
488B
  3
*A568
350
1ACD
  3
*A569
350
4999
  3
*A57
350
48DA
  3
*A570
350
629A
  3
*A571
350
1B45
  3
*A572
350
6222
  3
*A573
350
6218
  3
*A574
350
4915
  3
*A575
350
491A
  3
*A576
350
48FE
  3
*A577
350
1C29
  3
*A578
350
1BF8
  3
*A579
350
624F
  3
*A58
350
1B1A
  3
*A580
350
1AF2
  3
*A581
350
48B2
  3
*A582
350
37AE
  3
*A583
350
63D7
  3
*A584
350
6216
  3
*A585
350
1B37
  3
*A586
350
4986
  3
*A587
350
1B54
  3
*A588
350
4821
  3
*A589
350
37A1
  3
*A59
350
1B80
  3
*A590
350
6378
  3
*A591
350
1B34
  3
*A592
350
1B8E
  3
*A593
350
1B9F
  3
*A594
350
63D3
  3
*A595
350
1B49
  3
*A596
350
1B9D
  3
*A597
350
4893
  3
*A598
350
63BF
  3
*A599
350
6364
  3
*A6
350
62E0
  3
*A60
350
6348
  3
*A600
350
623D
  3
*A601
350
627C
  3
*A602
350
4839
  3
*A603
350
1B36
  3
*A604
350
62A9
  3
*A605
350
494C
  3
*A606
350
1454
  3
*A607
350
62BF
  3
*A608
350
4830
  3
*A609
350
63C7
  3
*A61
350
1B28
  3
*A610
350
4944
  3
*A611
350
6263
  3
*A612
350
1B65
  3
*A613
350
1BD7
  3
*A614
350
49FF
  3
*A615
350
49F3
  3
*A616
350
62F3
  3
*A617
350
1AF6
  3
*A618
350
1C0D
  3
*A619
350
480C
  3
*A62
350
484E
  3
*A620
350
49E5
  3
*A621
350
4825
  3
*A622
350
1C10
  3
*A623
350
1BDC
  3
*A624
350
37B4
  3
*A625
350
1B57
  3
*A626
350
4A09
  3
*A627
350
4970
  3
*A628
350
1C3E
  3
*A629
350
1C4F
  3
*A63
350
1B87
  3
*A630
350
62FB
  3
*A631
350
627E
  3
*A632
350
6237
  3
*A633
350
1C1F
  3
*A634
350
6320
  3
*A635
350
631F
  3
*A636
350
379C
  3
*A637
350
1B46
  3
*A638
350
37A0
  3
*A639
350
1C04
  3
*A64
350
1BE5
  3
*A640
350
63AB
  3
*A641
350
49C5
  3
*A642
350
1B6B
  3
*A643
350
495F
  3
*A644
350
1AFB
  3
*A645
350
1ADC
  3
*A646
350
1B97
  3
*A647
350
624B
  3
*A648
350
4A19
  3
*A649
350
1B85
  3
*A65
350
1ADE
  3
*A650
350
4818
  3
*A651
350
63A6
  3
*A652
350
4910
  3
*A653
350
6389
  3
*A654
350
145C
  3
*A655
350
1B44
  3
*A656
350
490E
  3
*A657
350
1C40
  3
*A658
350
1C33
  3
*A659
350
1C0F
  3
*A66
350
1B23
  3
*A660
350
635D
  3
*A661
350
48CD
  3
*A662
350
6358
  3
*A663
350
1C2C
  3
*A664
350
49BF
  3
*A665
350
1BC3
  3
*A666
350
4838
  3
*A667
350
1B17
  3
*A668
350
1B71
  3
*A669
350
145D
  3
*A67
350
62E7
  3
*A670
350
4820
  3
*A671
350
638E
  3
*A672
350
1C31
  3
*A673
350
6416
  3
*A674
350
62D6
  3
*A675
350
640E
  3
*A676
350
1B5A
  3
*A677
350
631B
  3
*A678
350
48F7
  3
*A679
350
1B40
  3
*A68
350
1B66
  3
*A680
350
1C2E
  3
*A681
350
4885
  3
*A682
350
1B1C
  3
*A683
350
62D5
  3
*A684
350
6344
  3
*A685
350
486A
  3
*A686
350
1B3F
  3
*A687
350
628B
  3
*A688
350
494E
  3
*A689
350
6312
  3
*A69
350
49A8
  3
*A690
350
48C7
  3
*A691
350
1BAC
  3
*A692
350
493B
  3
*A693
350
4A13
  3
*A694
350
62A1
  3
*A695
350
1B11
  3
*A696
350
633F
  3
*A697
350
1464
  3
*A698
350
48EE
  3
*A699
350
4877
  3
*A7
350
6407
  3
*A70
350
1BD2
  3
*A700
350
49D0
  3
*A701
350
1B61
  3
*A702
350
63B8
  3
*A703
350
48DE
  3
*A704
350
62D9
  3
*A705
350
6310
  3
*A706
350
492F
  3
*A707
350
145F
  3
*A708
350
63AA
  3
*A709
350
48E2
  3
*A71
350
48CA
  3
*A710
350
48A1
  3
*A711
350
499F
  3
*A712
350
6388
  3
*A713
350
4860
  3
*A714
350
1BF1
  3
*A715
350
1468
  3
*A716
350
62B6
  3
*A717
350
4828
  3
*A718
350
4938
  3
*A719
350
4940
  3
*A72
350
1BFD
  3
*A720
350
48D8
  3
*A721
350
63F1
  3
*A722
350
48ED
  3
*A723
350
1B15
  3
*A724
350
62BD
  3
*A725
350
1C2F
  3
*A726
350
1B7C
  3
*A727
350
3798
  3
*A728
350
1AE3
  3
*A729
350
636C
  3
*A73
350
37B1
  3
*A730
350
4889
  3
*A731
350
63C4
  3
*A732
350
1B33
  3
*A733
350
629E
  3
*A734
350
623C
  3
*A735
350
484B
  3
*A736
350
1B76
  3
*A737
350
1BA1
  3
*A738
350
1B63
  3
*A739
350
63DB
  3
*A74
350
4816
  3
*A740
350
4851
  3
*A741
350
62E2
  3
*A742
350
1AE4
  3
*A743
350
628D
  3
*A744
350
641E
  3
*A745
350
639B
  3
*A746
350
6259
  3
*A747
350
62BC
  3
*A748
350
4985
  3
*A749
350
481C
  3
*A75
350
63B4
  3
*A750
350
495A
  3
*A751
350
48F3
  3
*A752
350
622E
  3
*A753
350
1B90
  3
*A754
350
4A0A
  3
*A755
350
632A
  3
*A756
350
1C06
  3
*A757
350
62EB
  3
*A758
350
1B21
  3
*A759
350
1BA4
  3
*A76
350
640F
  3
*A760
350
62FA
  3
*A761
350
6366
  3
*A762
350
1C0B
  3
*A763
350
49A3
  3
*A764
350
1B0F
  3
*A765
350
1ADB
  3
*A766
350
494F
  3
*A767
350
6235
  3
*A768
350
48FD
  3
*A769
350
1B9B
  3
*A77
350
4906
  3
*A770
350
6380
  3
*A771
350
49A4
  3
*A772
350
486D
  3
*A773
350
482A
  3
*A774
350
4835
  3
*A775
350
1C11
  3
*A776
350
483B
  3
*A777
350
4965
  3
*A778
350
4904
  3
*A779
350
1AEA
  3
*A78
350
1C0A
  3
*A780
350
1AD3
  3
*A781
350
6296
  3
*A782
350
48CF
  3
*A783
350
6257
  3
*A784
350
1ACB
  3
*A785
350
1B05
  3
*A786
350
48B6
  3
*A787
350
498E
  3
*A788
350
4876
  3
*A789
350
62FC
  3
*A79
350
48C0
  3
*A790
350
484F
  3
*A791
350
4976
  3
*A792
350
1BA0
  3
*A793
350
63A0
  3
*A794
350
1BA9
  3
*A795
350
48A6
  3
*A796
350
6411
  3
*A797
350
6374
  3
*A798
350
1C55
  3
*A799
350
1B81
  3
*A8
350
498B
  3
*A80
350
627A
  3
*A800
350
1B29
  3
*A801
350
48FB
  3
*A802
350
63A7
  3
*A803
350
4854
  3
*A804
350
1AFE
  3
*A805
350
6265
  3
*A806
350
37C3
  3
*A807
350
480D
  3
*A808
350
49C6
  3
*A809
350
6254
  3
*A81
350
1C5F
  3
*A810
350
1BC5
  3
*A811
350
1455
  3
*A812
350
48CE
  3
*A813
350
6345
  3
*A814
350
6287
  3
*A815
350
63F3
  3
*A816
350
63E0
  3
*A817
350
37A2
  3
*A818
350
1B32
  3
*A819
350
6367
  3
*A82
350
62E4
  3
*A820
350
494B
  3
*A821
350
1C49
  3
*A822
350
1B30
  3
*A823
350
49DF
  3
*A824
350
629D
  3
*A825
350
6419
  3
*A826
350
49F7
  3
*A827
350
641C
  3
*A828
350
6355
  3
*A829
350
63C0
  3
*A83
350
63CC
  3
*A830
350
62DB
  3
*A831
350
4826
  3
*A832
350
6305
  3
*A833
350
6293
  3
*A834
350
1AE7
  3
*A835
350
6426
  3
*A836
350
6410
  3
*A837
350
1B4E
  3
*A838
350
1C16
  3
*A839
350
48D7
  3
*A84
350
1C26
  3
*A840
350
1BE7
  3
*A841
350
6376
  3
*A842
350
49F9
  3
*A843
350
37B8
  3
*A844
350
1AF9
  3
*A845
350
4994
  3
*A846
350
1BA7
  3
*A847
350
1B67
  3
*A848
350
37AF
  3
*A849
350
4941
  3
*A85
350
624A
  3
*A850
350
1B31
  3
*A851
350
6336
  3
*A852
350
1B4D
  3
*A853
350
1AF8
  3
*A854
350
63DF
  3
*A855
350
63D8
  3
*A856
350
6251
  3
*A857
350
482F
  3
*A858
350
488E
  3
*A859
350
1BC6
  3
*A86
350
1C2A
  3
*A860
350
1B96
  3
*A861
350
49A7
  3
*A862
350
489A
  3
*A863
350
6246
  3
*A864
350
496D
  3
*A865
350
62DA
  3
*A866
350
499E
  3
*A867
350
640D
  3
*A868
350
1BAF
  3
*A869
350
6349
  3
*A87
350
48A7
  3
*A870
350
1C30
  3
*A871
350
1B2D
  3
*A872
350
49D1
  3
*A873
350
4969
  3
*A874
350
48EA
  3
*A875
350
493E
  3
*A876
350
49F2
  3
*A877
350
62E8
  3
*A878
350
6225
  3
*A879
350
62D7
  3
*A88
350
62F0
  3
*A880
350
1B01
  3
*A881
350
1C38
  3
*A882
350
4939
  3
*A883
350
623E
  3
*A884
350
48DB
  3
*A885
350
63A4
  3
*A886
350
49AF
  3
*A887
350
623A
  3
*A888
350
6403
  3
*A889
350
62B3
  3
*A89
350
4987
  3
*A890
350
1B9C
  3
*A891
350
1AF1
  3
*A892
350
6250
  3
*A893
350
6372
  3
*A894
350
4963
  3
*A895
350
4832
  3
*A896
350
6351
  3
*A897
350
6243
  3
*A898
350
48EF
  3
*A899
350
62D0
  3
*A9
350
1AE6
  3
*A90
350
6409
  3
*A900
350
48D5
  3
*A901
350
6422
  3
*A902
350
63FD
  3
*A903
350
628A
  3
*A904
350
4A00
  3
*A905
350
6258
  3
*A906
350
1BC8
  3
*A907
350
491D
  3
*A908
350
37BA
  3
*A909
350
1BE6
  3
*A91
350
4934
  3
*A910
350
4875
  3
*A911
350
4831
  3
*A912
350
630B
  3
*A913
350
6353
  3
*A914
350
62A7
  3
*A915
350
1B0D
  3
*A916
350
1B39
  3
*A917
350
1AD5
  3
*A918
350
489C
  3
*A919
350
1AF7
  3
*A92
350
623B
  3
*A920
350
1B4C
  3
*A921
350
627F
  3
*A922
350
6252
  3
*A923
350
48C3
  3
*A924
350
1BFF
  3
*A925
350
63D0
  3
*A926
350
621E
  3
*A927
350
6371
  3
*A928
350
49CC
  3
*A929
350
63A1
  3
*A93
350
62AB
  3
*A930
350
481A
  3
*A931
350
1BDB
  3
*A932
350
1B6D
  3
*A933
350
63F2
  3
*A934
350
4855
  3
*A935
350
1ADD
  3
*A936
350
1C12
  3
*A937
350
1C57
  3
*A938
350
484A
  3
*A939
350
4908
  3
*A94
350
6231
  3
*A940
350
4836
  3
*A941
350
4856
  3
*A942
350
48CB
  3
*A943
350
483E
  3
*A944
350
4809
  3
*A945
350
1BD9
  3
*A946
350
62E5
  3
*A947
350
63F5
  3
*A948
350
1AD6
  3
*A949
350
6420
  3
*A95
350
499D
  3
*A950
350
62B4
  3
*A951
350
49DA
  3
*A952
350
63BE
  3
*A953
350
1C5B
  3
*A954
350
6315
  3
*A955
350
4892
  3
*A956
350
630C
  3
*A957
350
4901
  3
*A958
350
1C60
  3
*A959
350
6413
  3
*A96
350
63C6
  3
*A960
350
1BA5
  3
*A961
350
4829
  3
*A962
350
48A3
  3
*A963
350
62EF
  3
*A964
350
6377
  3
*A965
350
4857
  3
*A966
350
4945
  3
*A967
350
1B94
  3
*A968
350
49B5
  3
*A969
350
1BFE
  3
*A97
350
63EF
  3
*A970
350
1BF0
  3
*A971
350
6405
  3
*A972
350
1C1D
  3
*A973
350
1BCF
  3
*A974
350
48C9
  3
*A975
350
1B6E
  3
*A976
350
6279
  3
*A977
350
63DC
  3
*A978
350
4842
  3
*A979
350
4A02
  3
*A98
350
1BEA
  3
*A980
350
1C5D
  3
*A981
350
631D
  3
*A982
350
1C25
  3
*A983
350
1B77
  3
*A984
350
49E3
  3
*A985
350
6337
  3
*A986
350
1B50
  3
*A987
350
48F8
  3
*A988
350
4A04
  3
*A989
350
636A
  3
*A99
350
6346
  3
*A990
350
6347
  3
*A991
350
4A0C
  3
*A992
350
640C
  3
*A993
350
49C4
  3
*A994
350
4887
  3
*A995
350
62B0
  3
*A996
350
48FA
  3
*A997
350
49F5
  3
*A998
350
6302
  3
*A999
350
62F7
  0
DICTIONARY
  5
EDC7
102
{ACAD_REACTORS
330
1A
102
}
330
1A
100
AcDbDictionary
  0
DICTIONARY
  5
19
102
{ACAD_REACTORS
330
1A
102
}
330
1A
100
AcDbDictionary
  3
STANDARD
350
1D
  0
DICTIONARY
  5
EDC8
102
{ACAD_REACTORS
330
1A
102
}
330
1A
100
AcDbDictionary
  0
ACDBDICTIONARYWDFLT
  5
EDC5
102
{ACAD_REACTORS
330
1A
102
}
330
1A
100
AcDbDictionary
281
     1
  3
Normal
350
EDC6
100
AcDbDictionaryWithDefault
340
EDC6
  0
DICTIONARY
  5
1FE46
102
{ACAD_REACTORS
330
1A
102
}
330
1A
100
AcDbDictionary
  3
CEPSNTYPE
350
1FE50
  3
DIMSTYLEDATA
350
1FE54
  3
FINGERPRINTGUID
350
1FE51
  3
HYPERLINKBASE
350
1FE49
  3
INSUNITS
350
1FE4F
  3
LAYOUTDICT
350
1FE4B
  3
LWETCUNION
350
1FE4E
  3
PLOTSETDICT
350
1FE4C
  3
PLOTSTYLNAMDICT
350
1FE4D
  3
PSVPSCALE
350
1FE53
  3
PUCSBASE
350
1FE57
  3
PUCSORGBACK
350
1FE5D
  3
PUCSORGBOTTOM
350
1FE59
  3
PUCSORGFRONT
350
1FE5C
  3
PUCSORGLEFT
350
1FE5A
  3
PUCSORGRIGHT
350
1FE5B
  3
PUCSORGTOP
350
1FE58
  3
PUCSORTHOREF
350
1FE55
  3
PUCSORTHOVIEW
350
1FE56
  3
STYLESHEET
350
1FE4A
  3
TSTACKALIGN
350
1FE47
  3
TSTACKSIZE
350
1FE48
  3
UCSBASE
350
1FE60
  3
UCSORGBACK
350
1FE66
  3
UCSORGBOTTOM
350
1FE62
  3
UCSORGFRONT
350
1FE65
  3
UCSORGLEFT
350
1FE63
  3
UCSORGRIGHT
350
1FE64
  3
UCSORGTOP
350
1FE61
  3
UCSORTHOREF
350
1FE5E
  3
UCSORTHOVIEW
350
1FE5F
  3
VERSIONGUID
350
1FE52
  0
DICTIONARY
  5
EDE7
102
{ACAD_REACTORS
330
1A
102
}
330
1A
100
AcDbDictionary
  3
DIMASSOC
350
EDE8
  0
DICTIONARY
  5
81A
102
{ACAD_REACTORS
330
1A
102
}
330
1A
100
AcDbDictionary
  0
XRECORD
  5
1FE68
102
{ACAD_REACTORS
330
1FE67
102
}
330
1FE67
100
AcDbXrecord
340
2
  0
XRECORD
  5
1FE6A
102
{ACAD_REACTORS
330
1FE69
102
}
330
1FE69
100
AcDbXrecord
340
7
  0
GROUP
  5
63B1
102
{ACAD_REACTORS
330
18
102
}
330
18
100
AcDbGroup
300

 70
     3
 71
     0
  0
GROUP
  5
1C0C
102
{ACAD_REACTORS
330
18
102
}
330
18
100
AcDbGroup
300

 70
     3
 71
     0
  0
GROUP
  5
6291
102
{ACAD_REACTORS
330
18
102
}
330
18
100
AcDbGroup
300

 70
     3
 71
     0
  0
GROUP
  5
4833
102
{ACAD_REACTORS
330
18
102
}
330
18
100
AcDbGroup
300

 70
     3
 71
     0
  0
GROUP
  5
4975
102
{ACAD_REACTORS
330
18
102
}
330
18
100
AcDbGroup
300

 70
     3
 71
     0
  0
GROUP
  5
6313
102
{ACAD_REACTORS
330
18
102
}
330
18
100
AcDbGroup
300

 70
     3
 71
     0
  0
GROUP
  5
6382
102
{ACAD_REACTORS
330
18
102
}
330
18
100
AcDbGroup
300

 70
     3
 71
     0
  0
GROUP
  5
637D
102
{ACAD_REACTORS
330
18
102
}
330
18
100
AcDbGroup
300

 70
     3
 71
     0
  0
GROUP
  5
4978
102
{ACAD_REACTORS
330
18
102
}
330
18
100
AcDbGroup
300

 70
     3
 71
     0
  0
GROUP
  5
62D4
102
{ACAD_REACTORS
330
18
102
}
330
18
100
AcDbGroup
300

 70
     3
 71
     1
  0
GROUP
  5
63B5
102
{ACAD_REACTORS
330
18
102
}
330
18
100
AcDbGroup
300

 70
     3
 71
     0
  0
GROUP
  5
49D4
102
{ACAD_REACTORS
330
18
102
}
330
18
100
AcDbGroup
300

 70
     3
 71
     0
  0
GROUP
  5
495D
102
{ACAD_REACTORS
330
18
102
}
330
18
100
AcDbGroup
300

 70
     3
 71
     0
  0
GROUP
  5
1BA2
102
{ACAD_REACTORS
330
18
102
}
330
18
100
AcDbGroup
300

 70
     3
 71
     0
  0
GROUP
  5
63E6
102
{ACAD_REACTORS
330
18
102
}
330
18
100
AcDbGroup
300

 70
     3
 71
     0
  0
GROUP
  5
625C
102
{ACAD_REACTORS
330
18
102
}
330
18
100
AcDbGroup
300

 70
     3
 71
     0
  0
GROUP
  5
1C61
102
{ACAD_REACTORS
330
18
102
}
330
18
100
AcDbGroup
300

 70
     3
 71
     0
  0
GROUP
  5
4858
102
{ACAD_REACTORS
330
18
102
}
330
18
100
AcDbGroup
300

 70
     3
 71
     0
  0
GROUP
  5
63B3
102
{ACAD_REACTORS
330
18
102
}
330
18
100
AcDbGroup
300

 70
     3
 71
     0
  0
GROUP
  5
1BE4
102
{ACAD_REACTORS
330
18
102
}
330
18
100
AcDbGroup
300

 70
     3
 71
     0
  0
GROUP
  5
49BE
102
{ACAD_REACTORS
330
18
102
}
330
18
100
AcDbGroup
300

 70
     3
 71
     0
  0
GROUP
  5
493F
102
{ACAD_REACTORS
330
18
102
}
330
18
100
AcDbGroup
300

 70
     3
 71
     0
  0
GROUP
  5
4913
102
{ACAD_REACTORS
330
18
102
}
330
18
100
AcDbGroup
300

 70
     3
 71
     0
  0
GROUP
  5
6245
102
{ACAD_REACTORS
330
18
102
}
330
18
100
AcDbGroup
300

 70
     3
 71
     0
  0
GROUP
  5
1B3B
102
{ACAD_REACTORS
330
18
102
}
330
18
100
AcDbGroup
300

 70
     3
 71
     0
  0
GROUP
  5
48C6
102
{ACAD_REACTORS
330
18
102
}
330
18
100
AcDbGroup
300

 70
     3
 71
     1
  0
GROUP
  5
62D8
102
{ACAD_REACTORS
330
18
102
}
330
18
100
AcDbGroup
300

 70
     3
 71
     0
  0
GROUP
  5
37C1
102
{ACAD_REACTORS
330
18
102
}
330
18
100
AcDbGroup
300

 70
     3
 71
     0
  0
GROUP
  5
1BEF
102
{ACAD_REACTORS
330
18
102
}
330
18
100
AcDbGroup
300

 70
     3
 71
     0
  0
GROUP
  5
49F1
102
{ACAD_REACTORS
330
18
102
}
330
18
100
AcDbGroup
300

 70
     3
 71
     0
  0
GROUP
  5
37BC
102
{ACAD_REACTORS
330
18
102
}
330
18
100
AcDbGroup
300

 70
     3
 71
     0
  0
GROUP
  5
489D
102
{ACAD_REACTORS
330
18
102
}
330
18
100
AcDbGroup
300

 70
     3
 71
     0
  0
GROUP
  5
630A
102
{ACAD_REACTORS
330
18
102
}
330
18
100
AcDbGroup
300

 70
     3
 71
     0
  0
GROUP
  5
1B7B
102
{ACAD_REACTORS
330
18
102
}
330
18
100
AcDbGroup
300

 70
     3
 71
     0
  0
GROUP
  5
1457
102
{ACAD_REACTORS
330
18
102
}
330
18
100
AcDbGroup
300

 70
     3
 71
     0
  0
GROUP
  5
1B7E
102
{ACAD_REACTORS
330
18
102
}
330
18
100
AcDbGroup
300

 70
     3
 71
     0
  0
GROUP
  5
1B19
102
{ACAD_REACTORS
330
18
102
}
330
18
100
AcDbGroup
300

 70
     3
 71
     0
  0
GROUP
  5
6282
102
{ACAD_REACTORS
330
18
102
}
330
18
100
AcDbGroup
300

 70
     3
 71
     0
  0
GROUP
  5
4898
102
{ACAD_REACTORS
330
18
102
}
330
18
100
AcDbGroup
300

 70
     3
 71
     0
  0
GROUP
  5
6333
102
{ACAD_REACTORS
330
18
102
}
330
18
100
AcDbGroup
300

 70
     3
 71
     0
  0
GROUP
  5
1C28
102
{ACAD_REACTORS
330
18
102
}
330
18
100
AcDbGroup
300

 70
     3
 71
     0
  0
GROUP
  5
63BA
102
{ACAD_REACTORS
330
18
102
}
330
18
100
AcDbGroup
300

 70
     3
 71
     0
  0
GROUP
  5
6398
102
{ACAD_REACTORS
330
18
102
}
330
18
100
AcDbGroup
300

 70
     3
 71
     0
  0
GROUP
  5
49AD
102
{ACAD_REACTORS
330
18
102
}
330
18
100
AcDbGroup
300

 70
     3
 71
     0
  0
GROUP
  5
48A5
102
{ACAD_REACTORS
330
18
102
}
330
18
100
AcDbGroup
300

 70
     3
 71
     0
  0
GROUP
  5
62C1
102
{ACAD_REACTORS
330
18
102
}
330
18
100
AcDbGroup
300

 70
     3
 71
     0
  0
GROUP
  5
6292
102
{ACAD_REACTORS
330
18
102
}
330
18
100
AcDbGroup
300

 70
     3
 71
     0
  0
GROUP
  5
492A
102
{ACAD_REACTORS
330
18
102
}
330
18
100
AcDbGroup
300

 70
     3
 71
     0
  0
GROUP
  5
1B60
102
{ACAD_REACTORS
330
18
102
}
330
18
100
AcDbGroup
300

 70
     3
 71
     0
  0
GROUP
  5
1AEF
102
{ACAD_REACTORS
330
18
102
}
330
18
100
AcDbGroup
300

 70
     3
 71
     0
  0
GROUP
  5
489B
102
{ACAD_REACTORS
330
18
102
}
330
18
100
AcDbGroup
300

 70
     3
 71
     0
  0
GROUP
  5
63FF
102
{ACAD_REACTORS
330
18
102
}
330
18
100
AcDbGroup
300

 70
     3
 71
     0
  0
GROUP
  5
4817
102
{ACAD_REACTORS
330
18
102
}
330
18
100
AcDbGroup
300

 70
     3
 71
     0
  0
GROUP
  5
4871
102
{ACAD_REACTORS
330
18
102
}
330
18
100
AcDbGroup
300

 70
     3
 71
     0
  0
GROUP
  5
49E2
102
{ACAD_REACTORS
330
18
102
}
330
18
100
AcDbGroup
300

 70
     3
 71
     0
  0
GROUP
  5
1465
102
{ACAD_REACTORS
330
18
102
}
330
18
100
AcDbGroup
300

 70
     3
 71
     0
  0
GROUP
  5
629F
102
{ACAD_REACTORS
330
18
102
}
330
18
100
AcDbGroup
300

 70
     3
 71
     0
  0
GROUP
  5
1BEE
102
{ACAD_REACTORS
330
18
102
}
330
18
100
AcDbGroup
300

 70
     3
 71
     0
  0
GROUP
  5
63EC
102
{ACAD_REACTORS
330
18
102
}
330
18
100
AcDbGroup
300

 70
     3
 71
     0
  0
GROUP
  5
1BEB
102
{ACAD_REACTORS
330
18
102
}
330
18
100
AcDbGroup
300

 70
     3
 71
     0
  0
GROUP
  5
4815
102
{ACAD_REACTORS
330
18
102
}
330
18
100
AcDbGroup
300

 70
     3
 71
     0
  0
GROUP
  5
4998
102
{ACAD_REACTORS
330
18
102
}
330
18
100
AcDbGroup
300

 70
     3
 71
     0
  0
GROUP
  5
480B
102
{ACAD_REACTORS
330
18
102
}
330
18
100
AcDbGroup
300

 70
     3
 71
     0
  0
GROUP
  5
625A
102
{ACAD_REACTORS
330
18
102
}
330
18
100
AcDbGroup
300

 70
     3
 71
     0
  0
GROUP
  5
493A
102
{ACAD_REACTORS
330
18
102
}
330
18
100
AcDbGroup
300

 70
     3
 71
     0
  0
GROUP
  5
1B42
102
{ACAD_REACTORS
330
18
102
}
330
18
100
AcDbGroup
300

 70
     3
 71
     0
  0
GROUP
  5
63B0
102
{ACAD_REACTORS
330
18
102
}
330
18
100
AcDbGroup
300

 70
     3
 71
     0
  0
GROUP
  5
48AF
102
{ACAD_REACTORS
330
18
102
}
330
18
100
AcDbGroup
300

 70
     3
 71
     0
  0
GROUP
  5
49D6
102
{ACAD_REACTORS
330
18
102
}
330
18
100
AcDbGroup
300

 70
     3
 71
     0
  0
GROUP
  5
62A3
102
{ACAD_REACTORS
330
18
102
}
330
18
100
AcDbGroup
300

 70
     3
 71
     0
  0
GROUP
  5
634B
102
{ACAD_REACTORS
330
18
102
}
330
18
100
AcDbGroup
300

 70
     3
 71
     0
  0
GROUP
  5
62A8
102
{ACAD_REACTORS
330
18
102
}
330
18
100
AcDbGroup
300

 70
     3
 71
     0
  0
GROUP
  5
490A
102
{ACAD_REACTORS
330
18
102
}
330
18
100
AcDbGroup
300

 70
     3
 71
     0
  0
GROUP
  5
4943
102
{ACAD_REACTORS
330
18
102
}
330
18
100
AcDbGroup
300

 70
     3
 71
     0
  0
GROUP
  5
6281
102
{ACAD_REACTORS
330
18
102
}
330
18
100
AcDbGroup
300

 70
     3
 71
     0
  0
GROUP
  5
62DC
102
{ACAD_REACTORS
330
18
102
}
330
18
100
AcDbGroup
300

 70
     3
 71
     0
  0
GROUP
  5
48B0
102
{ACAD_REACTORS
330
18
102
}
330
18
100
AcDbGroup
300

 70
     3
 71
     0
  0
GROUP
  5
379D
102
{ACAD_REACTORS
330
18
102
}
330
18
100
AcDbGroup
300

 70
     3
 71
     0
  0
GROUP
  5
6385
102
{ACAD_REACTORS
330
18
102
}
330
18
100
AcDbGroup
300

 70
     3
 71
     0
  0
GROUP
  5
1AFC
102
{ACAD_REACTORS
330
18
102
}
330
18
100
AcDbGroup
300

 70
     3
 71
     0
  0
GROUP
  5
6271
102
{ACAD_REACTORS
330
18
102
}
330
18
100
AcDbGroup
300

 70
     3
 71
     0
  0
GROUP
  5
4959
102
{ACAD_REACTORS
330
18
102
}
330
18
100
AcDbGroup
300

 70
     3
 71
     0
  0
GROUP
  5
6239
102
{ACAD_REACTORS
330
18
102
}
330
18
100
AcDbGroup
300

 70
     3
 71
     0
  0
GROUP
  5
49D9
102
{ACAD_REACTORS
330
18
102
}
330
18
100
AcDbGroup
300

 70
     3
 71
     0
  0
GROUP
  5
1C32
102
{ACAD_REACTORS
330
18
102
}
330
18
100
AcDbGroup
300

 70
     3
 71
     0
  0
GROUP
  5
491E
102
{ACAD_REACTORS
330
18
102
}
330
18
100
AcDbGroup
300

 70
     3
 71
     0
  0
GROUP
  5
1AE9
102
{ACAD_REACTORS
330
18
102
}
330
18
100
AcDbGroup
300

 70
     3
 71
     0
  0
GROUP
  5
1B2C
102
{ACAD_REACTORS
330
18
102
}
330
18
100
AcDbGroup
300

 70
     3
 71
     0
  0
GROUP
  5
1C36
102
{ACAD_REACTORS
330
18
102
}
330
18
100
AcDbGroup
300

 70
     3
 71
     0
  0
GROUP
  5
49C2
102
{ACAD_REACTORS
330
18
102
}
330
18
100
AcDbGroup
300

 70
     3
 71
     0
  0
GROUP
  5
6396
102
{ACAD_REACTORS
330
18
102
}
330
18
100
AcDbGroup
300

 70
     3
 71
     0
  0
GROUP
  5
6425
102
{ACAD_REACTORS
330
18
102
}
330
18
100
AcDbGroup
300

 70
     3
 71
     0
  0
GROUP
  5
49ED
102
{ACAD_REACTORS
330
18
102
}
330
18
100
AcDbGroup
300

 70
     3
 71
     0
  0
GROUP
  5
626D
102
{ACAD_REACTORS
330
18
102
}
330
18
100
AcDbGroup
300

 70
     3
 71
     0
  0
GROUP
  5
4843
102
{ACAD_REACTORS
330
18
102
}
330
18
100
AcDbGroup
300

 70
     3
 71
     0
  0
GROUP
  5
4A11
102
{ACAD_REACTORS
330
18
102
}
330
18
100
AcDbGroup
300

 70
     3
 71
     0
  0
GROUP
  5
494A
102
{ACAD_REACTORS
330
18
102
}
330
18
100
AcDbGroup
300

 70
     3
 71
     0
  0
GROUP
  5
62FF
102
{ACAD_REACTORS
330
18
102
}
330
18
100
AcDbGroup
300

 70
     3
 71
     0
  0
GROUP
  5
6352
102
{ACAD_REACTORS
330
18
102
}
330
18
100
AcDbGroup
300

 70
     3
 71
     0
  0
GROUP
  5
1BAE
102
{ACAD_REACTORS
330
18
102
}
330
18
100
AcDbGroup
300

 70
     3
 71
     0
  0
GROUP
  5
1AEB
102
{ACAD_REACTORS
330
18
102
}
330
18
100
AcDbGroup
300

 70
     3
 71
     0
  0
GROUP
  5
63CF
102
{ACAD_REACTORS
330
18
102
}
330
18
100
AcDbGroup
300

 70
     3
 71
     0
  0
GROUP
  5
622C
102
{ACAD_REACTORS
330
18
102
}
330
18
100
AcDbGroup
300

 70
     3
 71
     0
  0
GROUP
  5
1C1A
102
{ACAD_REACTORS
330
18
102
}
330
18
100
AcDbGroup
300

 70
     3
 71
     0
  0
GROUP
  5
63DE
102
{ACAD_REACTORS
330
18
102
}
330
18
100
AcDbGroup
300

 70
     3
 71
     0
  0
GROUP
  5
1B6C
102
{ACAD_REACTORS
330
18
102
}
330
18
100
AcDbGroup
300

 70
     3
 71
     0
  0
GROUP
  5
1469
102
{ACAD_REACTORS
330
18
102
}
330
18
100
AcDbGroup
300

 70
     3
 71
     0
  0
GROUP
  5
1B6F
102
{ACAD_REACTORS
330
18
102
}
330
18
100
AcDbGroup
300

 70
     3
 71
     0
  0
GROUP
  5
1BB5
102
{ACAD_REACTORS
330
18
102
}
330
18
100
AcDbGroup
300

 70
     3
 71
     0
  0
GROUP
  5
62DF
102
{ACAD_REACTORS
330
18
102
}
330
18
100
AcDbGroup
300

 70
     3
 71
     0
  0
GROUP
  5
6294
102
{ACAD_REACTORS
330
18
102
}
330
18
100
AcDbGroup
300

 70
     3
 71
     0
  0
GROUP
  5
62CD
102
{ACAD_REACTORS
330
18
102
}
330
18
100
AcDbGroup
300

 70
     3
 71
     0
  0
GROUP
  5
4A15
102
{ACAD_REACTORS
330
18
102
}
330
18
100
AcDbGroup
300

 70
     3
 71
     0
  0
GROUP
  5
628C
102
{ACAD_REACTORS
330
18
102
}
330
18
100
AcDbGroup
300

 70
     3
 71
     0
  0
GROUP
  5
49B3
102
{ACAD_REACTORS
330
18
102
}
330
18
100
AcDbGroup
300

 70
     3
 71
     0
  0
GROUP
  5
62AC
102
{ACAD_REACTORS
330
18
102
}
330
18
100
AcDbGroup
300

 70
     3
 71
     0
  0
GROUP
  5
1AFA
102
{ACAD_REACTORS
330
18
102
}
330
18
100
AcDbGroup
300

 70
     3
 71
     0
  0
GROUP
  5
48A9
102
{ACAD_REACTORS
330
18
102
}
330
18
100
AcDbGroup
300

 70
     3
 71
     0
  0
GROUP
  5
496A
102
{ACAD_REACTORS
330
18
102
}
330
18
100
AcDbGroup
300

 70
     3
 71
     0
  0
GROUP
  5
4891
102
{ACAD_REACTORS
330
18
102
}
330
18
100
AcDbGroup
300

 70
     3
 71
     0
  0
GROUP
  5
4A06
102
{ACAD_REACTORS
330
18
102
}
330
18
100
AcDbGroup
300

 70
     3
 71
     0
  0
GROUP
  5
37B3
102
{ACAD_REACTORS
330
18
102
}
330
18
100
AcDbGroup
300

 70
     3
 71
     0
  0
GROUP
  5
483D
102
{ACAD_REACTORS
330
18
102
}
330
18
100
AcDbGroup
300

 70
     3
 71
     0
  0
GROUP
  5
37B2
102
{ACAD_REACTORS
330
18
102
}
330
18
100
AcDbGroup
300

 70
     3
 71
     0
  0
GROUP
  5
1AD8
102
{ACAD_REACTORS
330
18
102
}
330
18
100
AcDbGroup
300

 70
     3
 71
     0
  0
GROUP
  5
37AB
102
{ACAD_REACTORS
330
18
102
}
330
18
100
AcDbGroup
300

 70
     3
 71
     0
  0
GROUP
  5
63E2
102
{ACAD_REACTORS
330
18
102
}
330
18
100
AcDbGroup
300

 70
     3
 71
     0
  0
GROUP
  5
495C
102
{ACAD_REACTORS
330
18
102
}
330
18
100
AcDbGroup
300

 70
     3
 71
     0
  0
GROUP
  5
62C4
102
{ACAD_REACTORS
330
18
102
}
330
18
100
AcDbGroup
300

 70
     3
 71
     0
  0
GROUP
  5
4834
102
{ACAD_REACTORS
330
18
102
}
330
18
100
AcDbGroup
300

 70
     3
 71
     0
  0
GROUP
  5
6365
102
{ACAD_REACTORS
330
18
102
}
330
18
100
AcDbGroup
300

 70
     3
 71
     0
  0
GROUP
  5
488D
102
{ACAD_REACTORS
330
18
102
}
330
18
100
AcDbGroup
300

 70
     3
 71
     0
  0
GROUP
  5
635F
102
{ACAD_REACTORS
330
18
102
}
330
18
100
AcDbGroup
300

 70
     3
 71
     0
  0
GROUP
  5
48B1
102
{ACAD_REACTORS
330
18
102
}
330
18
100
AcDbGroup
300

 70
     3
 71
     0
  0
GROUP
  5
1B1D
102
{ACAD_REACTORS
330
18
102
}
330
18
100
AcDbGroup
300

 70
     3
 71
     0
  0
GROUP
  5
1C5A
102
{ACAD_REACTORS
330
18
102
}
330
18
100
AcDbGroup
300

 70
     3
 71
     0
  0
GROUP
  5
63B2
102
{ACAD_REACTORS
330
18
102
}
330
18
100
AcDbGroup
300

 70
     3
 71
     0
  0
GROUP
  5
496B
102
{ACAD_REACTORS
330
18
102
}
330
18
100
AcDbGroup
300

 70
     3
 71
     0
  0
GROUP
  5
1B82
102
{ACAD_REACTORS
330
18
102
}
330
18
100
AcDbGroup
300

 70
     3
 71
     0
  0
GROUP
  5
48A2
102
{ACAD_REACTORS
330
18
102
}
330
18
100
AcDbGroup
300

 70
     3
 71
     0
  0
GROUP
  5
1B0A
102
{ACAD_REACTORS
330
18
102
}
330
18
100
AcDbGroup
300

 70
     3
 71
     0
  0
GROUP
  5
6229
102
{ACAD_REACTORS
330
18
102
}
330
18
100
AcDbGroup
300

 70
     3
 71
     0
  0
GROUP
  5
1C59
102
{ACAD_REACTORS
330
18
102
}
330
18
100
AcDbGroup
300

 70
     3
 71
     0
  0
GROUP
  5
1B88
102
{ACAD_REACTORS
330
18
102
}
330
18
100
AcDbGroup
300

 70
     3
 71
     0
  0
GROUP
  5
625B
102
{ACAD_REACTORS
330
18
102
}
330
18
100
AcDbGroup
300

 70
     3
 71
     0
  0
GROUP
  5
1B04
102
{ACAD_REACTORS
330
18
102
}
330
18
100
AcDbGroup
300

 70
     3
 71
     0
  0
GROUP
  5
487A
102
{ACAD_REACTORS
330
18
102
}
330
18
100
AcDbGroup
300

 70
     3
 71
     0
  0
GROUP
  5
1B2B
102
{ACAD_REACTORS
330
18
102
}
330
18
100
AcDbGroup
300

 70
     3
 71
     0
  0
GROUP
  5
6232
102
{ACAD_REACTORS
330
18
102
}
330
18
100
AcDbGroup
300

 70
     3
 71
     0
  0
GROUP
  5
487E
102
{ACAD_REACTORS
330
18
102
}
330
18
100
AcDbGroup
300

 70
     3
 71
     0
  0
GROUP
  5
63A2
102
{ACAD_REACTORS
330
18
102
}
330
18
100
AcDbGroup
300

 70
     3
 71
     0
  0
GROUP
  5
4844
102
{ACAD_REACTORS
330
18
102
}
330
18
100
AcDbGroup
300

 70
     3
 71
     0
  0
GROUP
  5
1B35
102
{ACAD_REACTORS
330
18
102
}
330
18
100
AcDbGroup
300

 70
     3
 71
     0
  0
GROUP
  5
6402
102
{ACAD_REACTORS
330
18
102
}
330
18
100
AcDbGroup
300

 70
     3
 71
     0
  0
GROUP
  5
63D6
102
{ACAD_REACTORS
330
18
102
}
330
18
100
AcDbGroup
300

 70
     3
 71
     0
  0
GROUP
  5
62A2
102
{ACAD_REACTORS
330
18
102
}
330
18
100
AcDbGroup
300

 70
     3
 71
     0
  0
GROUP
  5
6350
102
{ACAD_REACTORS
330
18
102
}
330
18
100
AcDbGroup
300

 70
     3
 71
     0
  0
GROUP
  5
6400
102
{ACAD_REACTORS
330
18
102
}
330
18
100
AcDbGroup
300

 70
     3
 71
     0
  0
GROUP
  5
6399
102
{ACAD_REACTORS
330
18
102
}
330
18
100
AcDbGroup
300

 70
     3
 71
     0
  0
GROUP
  5
1ACE
102
{ACAD_REACTORS
330
18
102
}
330
18
100
AcDbGroup
300

 70
     3
 71
     0
  0
GROUP
  5
1BA6
102
{ACAD_REACTORS
330
18
102
}
330
18
100
AcDbGroup
300

 70
     3
 71
     0
  0
GROUP
  5
1BB4
102
{ACAD_REACTORS
330
18
102
}
330
18
100
AcDbGroup
300

 70
     3
 71
     0
  0
GROUP
  5
1C03
102
{ACAD_REACTORS
330
18
102
}
330
18
100
AcDbGroup
300

 70
     3
 71
     0
  0
GROUP
  5
4995
102
{ACAD_REACTORS
330
18
102
}
330
18
100
AcDbGroup
300

 70
     3
 71
     0
  0
GROUP
  5
1C45
102
{ACAD_REACTORS
330
18
102
}
330
18
100
AcDbGroup
300

 70
     3
 71
     0
  0
GROUP
  5
49FC
102
{ACAD_REACTORS
330
18
102
}
330
18
100
AcDbGroup
300

 70
     3
 71
     0
  0
GROUP
  5
6283
102
{ACAD_REACTORS
330
18
102
}
330
18
100
AcDbGroup
300

 70
     3
 71
     0
  0
GROUP
  5
6284
102
{ACAD_REACTORS
330
18
102
}
330
18
100
AcDbGroup
300

 70
     3
 71
     0
  0
GROUP
  5
6341
102
{ACAD_REACTORS
330
18
102
}
330
18
100
AcDbGroup
300

 70
     3
 71
     0
  0
GROUP
  5
1BA8
102
{ACAD_REACTORS
330
18
102
}
330
18
100
AcDbGroup
300

 70
     3
 71
     0
  0
GROUP
  5
63F0
102
{ACAD_REACTORS
330
18
102
}
330
18
100
AcDbGroup
300

 70
     3
 71
     0
  0
GROUP
  5
482D
102
{ACAD_REACTORS
330
18
102
}
330
18
100
AcDbGroup
300

 70
     3
 71
     0
  0
GROUP
  5
49D8
102
{ACAD_REACTORS
330
18
102
}
330
18
100
AcDbGroup
300

 70
     3
 71
     0
  0
GROUP
  5
4990
102
{ACAD_REACTORS
330
18
102
}
330
18
100
AcDbGroup
300

 70
     3
 71
     0
  0
GROUP
  5
629B
102
{ACAD_REACTORS
330
18
102
}
330
18
100
AcDbGroup
300

 70
     3
 71
     0
  0
GROUP
  5
1C0E
102
{ACAD_REACTORS
330
18
102
}
330
18
100
AcDbGroup
300

 70
     3
 71
     0
  0
GROUP
  5
1460
102
{ACAD_REACTORS
330
18
102
}
330
18
100
AcDbGroup
300

 70
     3
 71
     0
  0
GROUP
  5
6381
102
{ACAD_REACTORS
330
18
102
}
330
18
100
AcDbGroup
300

 70
     3
 71
     0
  0
GROUP
  5
37B9
102
{ACAD_REACTORS
330
18
102
}
330
18
100
AcDbGroup
300

 70
     3
 71
     0
  0
GROUP
  5
1C51
102
{ACAD_REACTORS
330
18
102
}
330
18
100
AcDbGroup
300

 70
     3
 71
     0
  0
GROUP
  5
1AD1
102
{ACAD_REACTORS
330
18
102
}
330
18
100
AcDbGroup
300

 70
     3
 71
     0
  0
GROUP
  5
1AF3
102
{ACAD_REACTORS
330
18
102
}
330
18
100
AcDbGroup
300

 70
     3
 71
     0
  0
GROUP
  5
4886
102
{ACAD_REACTORS
330
18
102
}
330
18
100
AcDbGroup
300

 70
     3
 71
     0
  0
GROUP
  5
635B
102
{ACAD_REACTORS
330
18
102
}
330
18
100
AcDbGroup
300

 70
     3
 71
     0
  0
GROUP
  5
1BBD
102
{ACAD_REACTORS
330
18
102
}
330
18
100
AcDbGroup
300

 70
     3
 71
     0
  0
GROUP
  5
1B16
102
{ACAD_REACTORS
330
18
102
}
330
18
100
AcDbGroup
300

 70
     3
 71
     0
  0
GROUP
  5
1B62
102
{ACAD_REACTORS
330
18
102
}
330
18
100
AcDbGroup
300

 70
     3
 71
     0
  0
GROUP
  5
494D
102
{ACAD_REACTORS
330
18
102
}
330
18
100
AcDbGroup
300

 70
     3
 71
     0
  0
GROUP
  5
1AFD
102
{ACAD_REACTORS
330
18
102
}
330
18
100
AcDbGroup
300

 70
     3
 71
     0
  0
GROUP
  5
37C2
102
{ACAD_REACTORS
330
18
102
}
330
18
100
AcDbGroup
300

 70
     3
 71
     0
  0
GROUP
  5
49D5
102
{ACAD_REACTORS
330
18
102
}
330
18
100
AcDbGroup
300

 70
     3
 71
     0
  0
GROUP
  5
6298
102
{ACAD_REACTORS
330
18
102
}
330
18
100
AcDbGroup
300

 70
     3
 71
     0
  0
GROUP
  5
4A0F
102
{ACAD_REACTORS
330
18
102
}
330
18
100
AcDbGroup
300

 70
     3
 71
     0
  0
GROUP
  5
1BC2
102
{ACAD_REACTORS
330
18
102
}
330
18
100
AcDbGroup
300

 70
     3
 71
     0
  0
GROUP
  5
6392
102
{ACAD_REACTORS
330
18
102
}
330
18
100
AcDbGroup
300

 70
     3
 71
     0
  0
GROUP
  5
1BED
102
{ACAD_REACTORS
330
18
102
}
330
18
100
AcDbGroup
300

 70
     3
 71
     0
  0
GROUP
  5
1BF5
102
{ACAD_REACTORS
330
18
102
}
330
18
100
AcDbGroup
300

 70
     3
 71
     0
  0
GROUP
  5
62E9
102
{ACAD_REACTORS
330
18
102
}
330
18
100
AcDbGroup
300

 70
     3
 71
     0
  0
GROUP
  5
48B3
102
{ACAD_REACTORS
330
18
102
}
330
18
100
AcDbGroup
300

 70
     3
 71
     0
  0
GROUP
  5
62C8
102
{ACAD_REACTORS
330
18
102
}
330
18
100
AcDbGroup
300

 70
     3
 71
     0
  0
GROUP
  5
638B
102
{ACAD_REACTORS
330
18
102
}
330
18
100
AcDbGroup
300

 70
     3
 71
     0
  0
GROUP
  5
48E3
102
{ACAD_REACTORS
330
18
102
}
330
18
100
AcDbGroup
300

 70
     3
 71
     0
  0
GROUP
  5
4929
102
{ACAD_REACTORS
330
18
102
}
330
18
100
AcDbGroup
300

 70
     3
 71
     0
  0
GROUP
  5
4909
102
{ACAD_REACTORS
330
18
102
}
330
18
100
AcDbGroup
300

 70
     3
 71
     0
  0
GROUP
  5
1BFC
102
{ACAD_REACTORS
330
18
102
}
330
18
100
AcDbGroup
300

 70
     3
 71
     0
  0
GROUP
  5
6316
102
{ACAD_REACTORS
330
18
102
}
330
18
100
AcDbGroup
300

 70
     3
 71
     0
  0
GROUP
  5
37BF
102
{ACAD_REACTORS
330
18
102
}
330
18
100
AcDbGroup
300

 70
     3
 71
     0
  0
GROUP
  5
1BBB
102
{ACAD_REACTORS
330
18
102
}
330
18
100
AcDbGroup
300

 70
     3
 71
     0
  0
GROUP
  5
6304
102
{ACAD_REACTORS
330
18
102
}
330
18
100
AcDbGroup
300

 70
     3
 71
     0
  0
GROUP
  5
1BE1
102
{ACAD_REACTORS
330
18
102
}
330
18
100
AcDbGroup
300

 70
     3
 71
     0
  0
GROUP
  5
49F0
102
{ACAD_REACTORS
330
18
102
}
330
18
100
AcDbGroup
300

 70
     3
 71
     0
  0
GROUP
  5
1AEC
102
{ACAD_REACTORS
330
18
102
}
330
18
100
AcDbGroup
300

 70
     3
 71
     0
  0
GROUP
  5
498C
102
{ACAD_REACTORS
330
18
102
}
330
18
100
AcDbGroup
300

 70
     3
 71
     0
  0
GROUP
  5
1B0C
102
{ACAD_REACTORS
330
18
102
}
330
18
100
AcDbGroup
300

 70
     3
 71
     0
  0
GROUP
  5
1BB6
102
{ACAD_REACTORS
330
18
102
}
330
18
100
AcDbGroup
300

 70
     3
 71
     0
  0
GROUP
  5
487F
102
{ACAD_REACTORS
330
18
102
}
330
18
100
AcDbGroup
300

 70
     3
 71
     0
  0
GROUP
  5
48CC
102
{ACAD_REACTORS
330
18
102
}
330
18
100
AcDbGroup
300

 70
     3
 71
     0
  0
GROUP
  5
1B2F
102
{ACAD_REACTORS
330
18
102
}
330
18
100
AcDbGroup
300

 70
     3
 71
     0
  0
GROUP
  5
488F
102
{ACAD_REACTORS
330
18
102
}
330
18
100
AcDbGroup
300

 70
     3
 71
     0
  0
GROUP
  5
625E
102
{ACAD_REACTORS
330
18
102
}
330
18
100
AcDbGroup
300

 70
     3
 71
     0
  0
GROUP
  5
4989
102
{ACAD_REACTORS
330
18
102
}
330
18
100
AcDbGroup
300

 70
     3
 71
     0
  0
GROUP
  5
4899
102
{ACAD_REACTORS
330
18
102
}
330
18
100
AcDbGroup
300

 70
     3
 71
     0
  0
GROUP
  5
1BBF
102
{ACAD_REACTORS
330
18
102
}
330
18
100
AcDbGroup
300

 70
     3
 71
     0
  0
GROUP
  5
63C9
102
{ACAD_REACTORS
330
18
102
}
330
18
100
AcDbGroup
300

 70
     3
 71
     0
  0
GROUP
  5
6375
102
{ACAD_REACTORS
330
18
102
}
330
18
100
AcDbGroup
300

 70
     3
 71
     0
  0
GROUP
  5
4911
102
{ACAD_REACTORS
330
18
102
}
330
18
100
AcDbGroup
300

 70
     3
 71
     0
  0
GROUP
  5
4968
102
{ACAD_REACTORS
330
18
102
}
330
18
100
AcDbGroup
300

 70
     3
 71
     0
  0
GROUP
  5
635C
102
{ACAD_REACTORS
330
18
102
}
330
18
100
AcDbGroup
300

 70
     3
 71
     0
  0
GROUP
  5
487D
102
{ACAD_REACTORS
330
18
102
}
330
18
100
AcDbGroup
300

 70
     3
 71
     0
  0
GROUP
  5
493C
102
{ACAD_REACTORS
330
18
102
}
330
18
100
AcDbGroup
300

 70
     3
 71
     0
  0
GROUP
  5
1B5D
102
{ACAD_REACTORS
330
18
102
}
330
18
100
AcDbGroup
300

 70
     3
 71
     0
  0
GROUP
  5
63BB
102
{ACAD_REACTORS
330
18
102
}
330
18
100
AcDbGroup
300

 70
     3
 71
     0
  0
GROUP
  5
637A
102
{ACAD_REACTORS
330
18
102
}
330
18
100
AcDbGroup
300

 70
     3
 71
     0
  0
GROUP
  5
6261
102
{ACAD_REACTORS
330
18
102
}
330
18
100
AcDbGroup
300

 70
     3
 71
     0
  0
GROUP
  5
49CF
102
{ACAD_REACTORS
330
18
102
}
330
18
100
AcDbGroup
300

 70
     3
 71
     0
  0
GROUP
  5
6262
102
{ACAD_REACTORS
330
18
102
}
330
18
100
AcDbGroup
300

 70
     3
 71
     0
  0
GROUP
  5
1C02
102
{ACAD_REACTORS
330
18
102
}
330
18
100
AcDbGroup
300

 70
     3
 71
     0
  0
GROUP
  5
49C3
102
{ACAD_REACTORS
330
18
102
}
330
18
100
AcDbGroup
300

 70
     3
 71
     0
  0
GROUP
  5
6394
102
{ACAD_REACTORS
330
18
102
}
330
18
100
AcDbGroup
300

 70
     3
 71
     0
  0
GROUP
  5
1BB1
102
{ACAD_REACTORS
330
18
102
}
330
18
100
AcDbGroup
300

 70
     3
 71
     0
  0
GROUP
  5
48E8
102
{ACAD_REACTORS
330
18
102
}
330
18
100
AcDbGroup
300

 70
     3
 71
     0
  0
GROUP
  5
62A6
102
{ACAD_REACTORS
330
18
102
}
330
18
100
AcDbGroup
300

 70
     3
 71
     0
  0
GROUP
  5
37A3
102
{ACAD_REACTORS
330
18
102
}
330
18
100
AcDbGroup
300

 70
     3
 71
     0
  0
GROUP
  5
49AA
102
{ACAD_REACTORS
330
18
102
}
330
18
100
AcDbGroup
300

 70
     3
 71
     0
  0
GROUP
  5
63BC
102
{ACAD_REACTORS
330
18
102
}
330
18
100
AcDbGroup
300

 70
     3
 71
     0
  0
GROUP
  5
62AF
102
{ACAD_REACTORS
330
18
102
}
330
18
100
AcDbGroup
300

 70
     3
 71
     0
  0
GROUP
  5
48E1
102
{ACAD_REACTORS
330
18
102
}
330
18
100
AcDbGroup
300

 70
     3
 71
     0
  0
GROUP
  5
6311
102
{ACAD_REACTORS
330
18
102
}
330
18
100
AcDbGroup
300

 70
     3
 71
     0
  0
GROUP
  5
49EF
102
{ACAD_REACTORS
330
18
102
}
330
18
100
AcDbGroup
300

 70
     3
 71
     0
  0
GROUP
  5
6369
102
{ACAD_REACTORS
330
18
102
}
330
18
100
AcDbGroup
300

 70
     3
 71
     0
  0
GROUP
  5
1C53
102
{ACAD_REACTORS
330
18
102
}
330
18
100
AcDbGroup
300

 70
     3
 71
     0
  0
GROUP
  5
499A
102
{ACAD_REACTORS
330
18
102
}
330
18
100
AcDbGroup
300

 70
     3
 71
     0
  0
GROUP
  5
4874
102
{ACAD_REACTORS
330
18
102
}
330
18
100
AcDbGroup
300

 70
     3
 71
     0
  0
GROUP
  5
1C39
102
{ACAD_REACTORS
330
18
102
}
330
18
100
AcDbGroup
300

 70
     3
 71
     0
  0
GROUP
  5
4896
102
{ACAD_REACTORS
330
18
102
}
330
18
100
AcDbGroup
300

 70
     3
 71
     0
  0
GROUP
  5
481F
102
{ACAD_REACTORS
330
18
102
}
330
18
100
AcDbGroup
300

 70
     3
 71
     0
  0
GROUP
  5
1459
102
{ACAD_REACTORS
330
18
102
}
330
18
100
AcDbGroup
300

 70
     3
 71
     0
  0
GROUP
  5
49F8
102
{ACAD_REACTORS
330
18
102
}
330
18
100
AcDbGroup
300

 70
     3
 71
     0
  0
GROUP
  5
4974
102
{ACAD_REACTORS
330
18
102
}
330
18
100
AcDbGroup
300

 70
     3
 71
     0
  0
GROUP
  5
4895
102
{ACAD_REACTORS
330
18
102
}
330
18
100
AcDbGroup
300

 70
     3
 71
     0
  0
GROUP
  5
6322
102
{ACAD_REACTORS
330
18
102
}
330
18
100
AcDbGroup
300

 70
     3
 71
     0
  0
GROUP
  5
497E
102
{ACAD_REACTORS
330
18
102
}
330
18
100
AcDbGroup
300

 70
     3
 71
     0
  0
GROUP
  5
1AD0
102
{ACAD_REACTORS
330
18
102
}
330
18
100
AcDbGroup
300

 70
     3
 71
     0
  0
GROUP
  5
639E
102
{ACAD_REACTORS
330
18
102
}
330
18
100
AcDbGroup
300

 70
     3
 71
     0
  0
GROUP
  5
6220
102
{ACAD_REACTORS
330
18
102
}
330
18
100
AcDbGroup
300

 70
     3
 71
     0
  0
GROUP
  5
63E1
102
{ACAD_REACTORS
330
18
102
}
330
18
100
AcDbGroup
300

 70
     3
 71
     0
  0
GROUP
  5
6300
102
{ACAD_REACTORS
330
18
102
}
330
18
100
AcDbGroup
300

 70
     3
 71
     0
  0
GROUP
  5
48B4
102
{ACAD_REACTORS
330
18
102
}
330
18
100
AcDbGroup
300

 70
     3
 71
     0
  0
GROUP
  5
4A17
102
{ACAD_REACTORS
330
18
102
}
330
18
100
AcDbGroup
300

 70
     3
 71
     0
  0
GROUP
  5
1B92
102
{ACAD_REACTORS
330
18
102
}
330
18
100
AcDbGroup
300

 70
     3
 71
     0
  0
GROUP
  5
1B2A
102
{ACAD_REACTORS
330
18
102
}
330
18
100
AcDbGroup
300

 70
     3
 71
     0
  0
GROUP
  5
4991
102
{ACAD_REACTORS
330
18
102
}
330
18
100
AcDbGroup
300

 70
     3
 71
     0
  0
GROUP
  5
48D2
102
{ACAD_REACTORS
330
18
102
}
330
18
100
AcDbGroup
300

 70
     3
 71
     0
  0
GROUP
  5
1C15
102
{ACAD_REACTORS
330
18
102
}
330
18
100
AcDbGroup
300

 70
     3
 71
     0
  0
GROUP
  5
1C58
102
{ACAD_REACTORS
330
18
102
}
330
18
100
AcDbGroup
300

 70
     3
 71
     0
  0
GROUP
  5
49BD
102
{ACAD_REACTORS
330
18
102
}
330
18
100
AcDbGroup
300

 70
     3
 71
     0
  0
GROUP
  5
1B8B
102
{ACAD_REACTORS
330
18
102
}
330
18
100
AcDbGroup
300

 70
     3
 71
     0
  0
GROUP
  5
1C1B
102
{ACAD_REACTORS
330
18
102
}
330
18
100
AcDbGroup
300

 70
     3
 71
     0
  0
GROUP
  5
634C
102
{ACAD_REACTORS
330
18
102
}
330
18
100
AcDbGroup
300

 70
     3
 71
     0
  0
GROUP
  5
495E
102
{ACAD_REACTORS
330
18
102
}
330
18
100
AcDbGroup
300

 70
     3
 71
     0
  0
GROUP
  5
1C20
102
{ACAD_REACTORS
330
18
102
}
330
18
100
AcDbGroup
300

 70
     3
 71
     0
  0
GROUP
  5
1C3A
102
{ACAD_REACTORS
330
18
102
}
330
18
100
AcDbGroup
300

 70
     3
 71
     0
  0
GROUP
  5
48C8
102
{ACAD_REACTORS
330
18
102
}
330
18
100
AcDbGroup
300

 70
     3
 71
     0
  0
GROUP
  5
49E8
102
{ACAD_REACTORS
330
18
102
}
330
18
100
AcDbGroup
300

 70
     3
 71
     0
  0
GROUP
  5
37A6
102
{ACAD_REACTORS
330
18
102
}
330
18
100
AcDbGroup
300

 70
     3
 71
     0
  0
GROUP
  5
635A
102
{ACAD_REACTORS
330
18
102
}
330
18
100
AcDbGroup
300

 70
     3
 71
     0
  0
GROUP
  5
1BD4
102
{ACAD_REACTORS
330
18
102
}
330
18
100
AcDbGroup
300

 70
     3
 71
     0
  0
GROUP
  5
62A0
102
{ACAD_REACTORS
330
18
102
}
330
18
100
AcDbGroup
300

 70
     3
 71
     0
  0
GROUP
  5
4997
102
{ACAD_REACTORS
330
18
102
}
330
18
100
AcDbGroup
300

 70
     3
 71
     0
  0
GROUP
  5
6317
102
{ACAD_REACTORS
330
18
102
}
330
18
100
AcDbGroup
300

 70
     3
 71
     0
  0
GROUP
  5
1C47
102
{ACAD_REACTORS
330
18
102
}
330
18
100
AcDbGroup
300

 70
     3
 71
     0
  0
GROUP
  5
1C21
102
{ACAD_REACTORS
330
18
102
}
330
18
100
AcDbGroup
300

 70
     3
 71
     0
  0
GROUP
  5
1AEE
102
{ACAD_REACTORS
330
18
102
}
330
18
100
AcDbGroup
300

 70
     3
 71
     0
  0
GROUP
  5
62B2
102
{ACAD_REACTORS
330
18
102
}
330
18
100
AcDbGroup
300

 70
     3
 71
     0
  0
GROUP
  5
6248
102
{ACAD_REACTORS
330
18
102
}
330
18
100
AcDbGroup
300

 70
     3
 71
     0
  0
GROUP
  5
1AED
102
{ACAD_REACTORS
330
18
102
}
330
18
100
AcDbGroup
300

 70
     3
 71
     0
  0
GROUP
  5
497F
102
{ACAD_REACTORS
330
18
102
}
330
18
100
AcDbGroup
300

 70
     3
 71
     0
  0
GROUP
  5
1C48
102
{ACAD_REACTORS
330
18
102
}
330
18
100
AcDbGroup
300

 70
     3
 71
     0
  0
GROUP
  5
1BD3
102
{ACAD_REACTORS
330
18
102
}
330
18
100
AcDbGroup
300

 70
     3
 71
     0
  0
GROUP
  5
48BB
102
{ACAD_REACTORS
330
18
102
}
330
18
100
AcDbGroup
300

 70
     3
 71
     0
  0
GROUP
  5
1C37
102
{ACAD_REACTORS
330
18
102
}
330
18
100
AcDbGroup
300

 70
     3
 71
     0
  0
GROUP
  5
1C44
102
{ACAD_REACTORS
330
18
102
}
330
18
100
AcDbGroup
300

 70
     3
 71
     0
  0
GROUP
  5
633C
102
{ACAD_REACTORS
330
18
102
}
330
18
100
AcDbGroup
300

 70
     3
 71
     0
  0
GROUP
  5
49F6
102
{ACAD_REACTORS
330
18
102
}
330
18
100
AcDbGroup
300

 70
     3
 71
     0
  0
GROUP
  5
62CA
102
{ACAD_REACTORS
330
18
102
}
330
18
100
AcDbGroup
300

 70
     3
 71
     0
  0
GROUP
  5
496F
102
{ACAD_REACTORS
330
18
102
}
330
18
100
AcDbGroup
300

 70
     3
 71
     0
  0
GROUP
  5
62AA
102
{ACAD_REACTORS
330
18
102
}
330
18
100
AcDbGroup
300

 70
     3
 71
     0
  0
GROUP
  5
49D3
102
{ACAD_REACTORS
330
18
102
}
330
18
100
AcDbGroup
300

 70
     3
 71
     0
  0
GROUP
  5
4955
102
{ACAD_REACTORS
330
18
102
}
330
18
100
AcDbGroup
300

 70
     3
 71
     0
  0
GROUP
  5
1BE9
102
{ACAD_REACTORS
330
18
102
}
330
18
100
AcDbGroup
300

 70
     3
 71
     0
  0
GROUP
  5
49C7
102
{ACAD_REACTORS
330
18
102
}
330
18
100
AcDbGroup
300

 70
     3
 71
     0
  0
GROUP
  5
48AC
102
{ACAD_REACTORS
330
18
102
}
330
18
100
AcDbGroup
300

 70
     3
 71
     0
  0
GROUP
  5
6327
102
{ACAD_REACTORS
330
18
102
}
330
18
100
AcDbGroup
300

 70
     3
 71
     0
  0
GROUP
  5
4973
102
{ACAD_REACTORS
330
18
102
}
330
18
100
AcDbGroup
300

 70
     3
 71
     0
  0
GROUP
  5
1B4A
102
{ACAD_REACTORS
330
18
102
}
330
18
100
AcDbGroup
300

 70
     3
 71
     0
  0
GROUP
  5
1B3E
102
{ACAD_REACTORS
330
18
102
}
330
18
100
AcDbGroup
300

 70
     3
 71
     0
  0
GROUP
  5
1C08
102
{ACAD_REACTORS
330
18
102
}
330
18
100
AcDbGroup
300

 70
     3
 71
     0
  0
GROUP
  5
62F1
102
{ACAD_REACTORS
330
18
102
}
330
18
100
AcDbGroup
300

 70
     3
 71
     0
  0
GROUP
  5
1BBA
102
{ACAD_REACTORS
330
18
102
}
330
18
100
AcDbGroup
300

 70
     3
 71
     0
  0
GROUP
  5
484C
102
{ACAD_REACTORS
330
18
102
}
330
18
100
AcDbGroup
300

 70
     3
 71
     0
  0
GROUP
  5
1462
102
{ACAD_REACTORS
330
18
102
}
330
18
100
AcDbGroup
300

 70
     3
 71
     0
  0
GROUP
  5
1B13
102
{ACAD_REACTORS
330
18
102
}
330
18
100
AcDbGroup
300

 70
     3
 71
     0
  0
GROUP
  5
62C2
102
{ACAD_REACTORS
330
18
102
}
330
18
100
AcDbGroup
300

 70
     3
 71
     0
  0
GROUP
  5
1C46
102
{ACAD_REACTORS
330
18
102
}
330
18
100
AcDbGroup
300

 70
     3
 71
     0
  0
GROUP
  5
63AC
102
{ACAD_REACTORS
330
18
102
}
330
18
100
AcDbGroup
300

 70
     3
 71
     0
  0
GROUP
  5
62F5
102
{ACAD_REACTORS
330
18
102
}
330
18
100
AcDbGroup
300

 70
     3
 71
     0
  0
GROUP
  5
633A
102
{ACAD_REACTORS
330
18
102
}
330
18
100
AcDbGroup
300

 70
     3
 71
     0
  0
GROUP
  5
628F
102
{ACAD_REACTORS
330
18
102
}
330
18
100
AcDbGroup
300

 70
     3
 71
     0
  0
GROUP
  5
1BF9
102
{ACAD_REACTORS
330
18
102
}
330
18
100
AcDbGroup
300

 70
     3
 71
     0
  0
GROUP
  5
1466
102
{ACAD_REACTORS
330
18
102
}
330
18
100
AcDbGroup
300

 70
     3
 71
     0
  0
GROUP
  5
1B69
102
{ACAD_REACTORS
330
18
102
}
330
18
100
AcDbGroup
300

 70
     3
 71
     0
  0
GROUP
  5
48F2
102
{ACAD_REACTORS
330
18
102
}
330
18
100
AcDbGroup
300

 70
     3
 71
     0
  0
GROUP
  5
49DD
102
{ACAD_REACTORS
330
18
102
}
330
18
100
AcDbGroup
300

 70
     3
 71
     0
  0
GROUP
  5
4894
102
{ACAD_REACTORS
330
18
102
}
330
18
100
AcDbGroup
300

 70
     3
 71
     0
  0
GROUP
  5
1B75
102
{ACAD_REACTORS
330
18
102
}
330
18
100
AcDbGroup
300

 70
     3
 71
     0
  0
GROUP
  5
48E6
102
{ACAD_REACTORS
330
18
102
}
330
18
100
AcDbGroup
300

 70
     3
 71
     0
  0
GROUP
  5
1C2B
102
{ACAD_REACTORS
330
18
102
}
330
18
100
AcDbGroup
300

 70
     3
 71
     0
  0
GROUP
  5
1C27
102
{ACAD_REACTORS
330
18
102
}
330
18
100
AcDbGroup
300

 70
     3
 71
     0
  0
GROUP
  5
629C
102
{ACAD_REACTORS
330
18
102
}
330
18
100
AcDbGroup
300

 70
     3
 71
     0
  0
GROUP
  5
4937
102
{ACAD_REACTORS
330
18
102
}
330
18
100
AcDbGroup
300

 70
     3
 71
     0
  0
GROUP
  5
1458
102
{ACAD_REACTORS
330
18
102
}
330
18
100
AcDbGroup
300

 70
     3
 71
     0
  0
GROUP
  5
1BC4
102
{ACAD_REACTORS
330
18
102
}
330
18
100
AcDbGroup
300

 70
     3
 71
     0
  0
GROUP
  5
63D2
102
{ACAD_REACTORS
330
18
102
}
330
18
100
AcDbGroup
300

 70
     3
 71
     0
  0
GROUP
  5
1C4D
102
{ACAD_REACTORS
330
18
102
}
330
18
100
AcDbGroup
300

 70
     3
 71
     0
  0
GROUP
  5
48F5
102
{ACAD_REACTORS
330
18
102
}
330
18
100
AcDbGroup
300

 70
     3
 71
     0
  0
GROUP
  5
4813
102
{ACAD_REACTORS
330
18
102
}
330
18
100
AcDbGroup
300

 70
     3
 71
     0
  0
GROUP
  5
63B6
102
{ACAD_REACTORS
330
18
102
}
330
18
100
AcDbGroup
300

 70
     3
 71
     0
  0
GROUP
  5
49EB
102
{ACAD_REACTORS
330
18
102
}
330
18
100
AcDbGroup
300

 70
     3
 71
     0
  0
GROUP
  5
486C
102
{ACAD_REACTORS
330
18
102
}
330
18
100
AcDbGroup
300

 70
     3
 71
     0
  0
GROUP
  5
37C0
102
{ACAD_REACTORS
330
18
102
}
330
18
100
AcDbGroup
300

 70
     3
 71
     0
  0
GROUP
  5
1BCC
102
{ACAD_REACTORS
330
18
102
}
330
18
100
AcDbGroup
300

 70
     3
 71
     0
  0
GROUP
  5
4A03
102
{ACAD_REACTORS
330
18
102
}
330
18
100
AcDbGroup
300

 70
     3
 71
     0
  0
GROUP
  5
6242
102
{ACAD_REACTORS
330
18
102
}
330
18
100
AcDbGroup
300

 70
     3
 71
     0
  0
GROUP
  5
48B7
102
{ACAD_REACTORS
330
18
102
}
330
18
100
AcDbGroup
300

 70
     3
 71
     0
  0
GROUP
  5
497D
102
{ACAD_REACTORS
330
18
102
}
330
18
100
AcDbGroup
300

 70
     3
 71
     0
  0
GROUP
  5
4912
102
{ACAD_REACTORS
330
18
102
}
330
18
100
AcDbGroup
300

 70
     3
 71
     0
  0
GROUP
  5
48FF
102
{ACAD_REACTORS
330
18
102
}
330
18
100
AcDbGroup
300

 70
     3
 71
     0
  0
GROUP
  5
630E
102
{ACAD_REACTORS
330
18
102
}
330
18
100
AcDbGroup
300

 70
     3
 71
     0
  0
GROUP
  5
6370
102
{ACAD_REACTORS
330
18
102
}
330
18
100
AcDbGroup
300

 70
     3
 71
     0
  0
GROUP
  5
1C56
102
{ACAD_REACTORS
330
18
102
}
330
18
100
AcDbGroup
300

 70
     3
 71
     0
  0
GROUP
  5
622D
102
{ACAD_REACTORS
330
18
102
}
330
18
100
AcDbGroup
300

 70
     3
 71
     0
  0
GROUP
  5
4988
102
{ACAD_REACTORS
330
18
102
}
330
18
100
AcDbGroup
300

 70
     3
 71
     0
  0
GROUP
  5
62BE
102
{ACAD_REACTORS
330
18
102
}
330
18
100
AcDbGroup
300

 70
     3
 71
     0
  0
GROUP
  5
6241
102
{ACAD_REACTORS
330
18
102
}
330
18
100
AcDbGroup
300

 70
     3
 71
     0
  0
GROUP
  5
48FC
102
{ACAD_REACTORS
330
18
102
}
330
18
100
AcDbGroup
300

 70
     3
 71
     0
  0
GROUP
  5
4958
102
{ACAD_REACTORS
330
18
102
}
330
18
100
AcDbGroup
300

 70
     3
 71
     0
  0
GROUP
  5
63EA
102
{ACAD_REACTORS
330
18
102
}
330
18
100
AcDbGroup
300

 70
     3
 71
     0
  0
GROUP
  5
1BDF
102
{ACAD_REACTORS
330
18
102
}
330
18
100
AcDbGroup
300

 70
     3
 71
     0
  0
GROUP
  5
6307
102
{ACAD_REACTORS
330
18
102
}
330
18
100
AcDbGroup
300

 70
     3
 71
     0
  0
GROUP
  5
4824
102
{ACAD_REACTORS
330
18
102
}
330
18
100
AcDbGroup
300

 70
     3
 71
     0
  0
GROUP
  5
63DD
102
{ACAD_REACTORS
330
18
102
}
330
18
100
AcDbGroup
300

 70
     3
 71
     0
  0
GROUP
  5
489E
102
{ACAD_REACTORS
330
18
102
}
330
18
100
AcDbGroup
300

 70
     3
 71
     0
  0
GROUP
  5
49C9
102
{ACAD_REACTORS
330
18
102
}
330
18
100
AcDbGroup
300

 70
     3
 71
     0
  0
GROUP
  5
499B
102
{ACAD_REACTORS
330
18
102
}
330
18
100
AcDbGroup
300

 70
     3
 71
     0
  0
GROUP
  5
37A5
102
{ACAD_REACTORS
330
18
102
}
330
18
100
AcDbGroup
300

 70
     3
 71
     0
  0
GROUP
  5
6236
102
{ACAD_REACTORS
330
18
102
}
330
18
100
AcDbGroup
300

 70
     3
 71
     0
  0
GROUP
  5
6264
102
{ACAD_REACTORS
330
18
102
}
330
18
100
AcDbGroup
300

 70
     3
 71
     0
  0
GROUP
  5
1B70
102
{ACAD_REACTORS
330
18
102
}
330
18
100
AcDbGroup
300

 70
     3
 71
     0
  0
GROUP
  5
37B5
102
{ACAD_REACTORS
330
18
102
}
330
18
100
AcDbGroup
300

 70
     3
 71
     0
  0
GROUP
  5
63C2
102
{ACAD_REACTORS
330
18
102
}
330
18
100
AcDbGroup
300

 70
     3
 71
     0
  0
GROUP
  5
4952
102
{ACAD_REACTORS
330
18
102
}
330
18
100
AcDbGroup
300

 70
     3
 71
     0
  0
GROUP
  5
49B1
102
{ACAD_REACTORS
330
18
102
}
330
18
100
AcDbGroup
300

 70
     3
 71
     0
  0
GROUP
  5
48BD
102
{ACAD_REACTORS
330
18
102
}
330
18
100
AcDbGroup
300

 70
     3
 71
     0
  0
GROUP
  5
49A5
102
{ACAD_REACTORS
330
18
102
}
330
18
100
AcDbGroup
300

 70
     3
 71
     0
  0
GROUP
  5
1BD1
102
{ACAD_REACTORS
330
18
102
}
330
18
100
AcDbGroup
300

 70
     3
 71
     0
  0
GROUP
  5
1B99
102
{ACAD_REACTORS
330
18
102
}
330
18
100
AcDbGroup
300

 70
     3
 71
     0
  0
GROUP
  5
4993
102
{ACAD_REACTORS
330
18
102
}
330
18
100
AcDbGroup
300

 70
     3
 71
     0
  0
GROUP
  5
4948
102
{ACAD_REACTORS
330
18
102
}
330
18
100
AcDbGroup
300

 70
     3
 71
     0
  0
GROUP
  5
63FC
102
{ACAD_REACTORS
330
18
102
}
330
18
100
AcDbGroup
300

 70
     3
 71
     0
  0
GROUP
  5
62F9
102
{ACAD_REACTORS
330
18
102
}
330
18
100
AcDbGroup
300

 70
     3
 71
     0
  0
GROUP
  5
4981
102
{ACAD_REACTORS
330
18
102
}
330
18
100
AcDbGroup
300

 70
     3
 71
     0
  0
GROUP
  5
4962
102
{ACAD_REACTORS
330
18
102
}
330
18
100
AcDbGroup
300

 70
     3
 71
     0
  0
GROUP
  5
4931
102
{ACAD_REACTORS
330
18
102
}
330
18
100
AcDbGroup
300

 70
     3
 71
     0
  0
GROUP
  5
1B22
102
{ACAD_REACTORS
330
18
102
}
330
18
100
AcDbGroup
300

 70
     3
 71
     0
  0
GROUP
  5
4932
102
{ACAD_REACTORS
330
18
102
}
330
18
100
AcDbGroup
300

 70
     3
 71
     0
  0
GROUP
  5
1C23
102
{ACAD_REACTORS
330
18
102
}
330
18
100
AcDbGroup
300

 70
     3
 71
     0
  0
GROUP
  5
1BF6
102
{ACAD_REACTORS
330
18
102
}
330
18
100
AcDbGroup
300

 70
     3
 71
     0
  0
GROUP
  5
63A8
102
{ACAD_REACTORS
330
18
102
}
330
18
100
AcDbGroup
300

 70
     3
 71
     0
  0
GROUP
  5
63A5
102
{ACAD_REACTORS
330
18
102
}
330
18
100
AcDbGroup
300

 70
     3
 71
     0
  0
GROUP
  5
379B
102
{ACAD_REACTORS
330
18
102
}
330
18
100
AcDbGroup
300

 70
     3
 71
     0
  0
GROUP
  5
62A5
102
{ACAD_REACTORS
330
18
102
}
330
18
100
AcDbGroup
300

 70
     3
 71
     0
  0
GROUP
  5
6227
102
{ACAD_REACTORS
330
18
102
}
330
18
100
AcDbGroup
300

 70
     3
 71
     0
  0
GROUP
  5
1B79
102
{ACAD_REACTORS
330
18
102
}
330
18
100
AcDbGroup
300

 70
     3
 71
     0
  0
GROUP
  5
4880
102
{ACAD_REACTORS
330
18
102
}
330
18
100
AcDbGroup
300

 70
     3
 71
     0
  0
GROUP
  5
1AE0
102
{ACAD_REACTORS
330
18
102
}
330
18
100
AcDbGroup
300

 70
     3
 71
     0
  0
GROUP
  5
1B8C
102
{ACAD_REACTORS
330
18
102
}
330
18
100
AcDbGroup
300

 70
     3
 71
     0
  0
GROUP
  5
49AB
102
{ACAD_REACTORS
330
18
102
}
330
18
100
AcDbGroup
300

 70
     3
 71
     0
  0
GROUP
  5
1B72
102
{ACAD_REACTORS
330
18
102
}
330
18
100
AcDbGroup
300

 70
     3
 71
     0
  0
GROUP
  5
621A
102
{ACAD_REACTORS
330
18
102
}
330
18
100
AcDbGroup
300

 70
     3
 71
     0
  0
GROUP
  5
1BDE
102
{ACAD_REACTORS
330
18
102
}
330
18
100
AcDbGroup
300

 70
     3
 71
     0
  0
GROUP
  5
48EC
102
{ACAD_REACTORS
330
18
102
}
330
18
100
AcDbGroup
300

 70
     3
 71
     0
  0
GROUP
  5
638A
102
{ACAD_REACTORS
330
18
102
}
330
18
100
AcDbGroup
300

 70
     3
 71
     0
  0
GROUP
  5
4890
102
{ACAD_REACTORS
330
18
102
}
330
18
100
AcDbGroup
300

 70
     3
 71
     0
  0
GROUP
  5
6309
102
{ACAD_REACTORS
330
18
102
}
330
18
100
AcDbGroup
300

 70
     3
 71
     0
  0
GROUP
  5
1BFB
102
{ACAD_REACTORS
330
18
102
}
330
18
100
AcDbGroup
300

 70
     3
 71
     0
  0
GROUP
  5
4864
102
{ACAD_REACTORS
330
18
102
}
330
18
100
AcDbGroup
300

 70
     3
 71
     0
  0
GROUP
  5
497B
102
{ACAD_REACTORS
330
18
102
}
330
18
100
AcDbGroup
300

 70
     3
 71
     0
  0
GROUP
  5
62D3
102
{ACAD_REACTORS
330
18
102
}
330
18
100
AcDbGroup
300

 70
     3
 71
     1
  0
GROUP
  5
6233
102
{ACAD_REACTORS
330
18
102
}
330
18
100
AcDbGroup
300

 70
     3
 71
     0
  0
GROUP
  5
1BB7
102
{ACAD_REACTORS
330
18
102
}
330
18
100
AcDbGroup
300

 70
     3
 71
     0
  0
GROUP
  5
1C01
102
{ACAD_REACTORS
330
18
102
}
330
18
100
AcDbGroup
300

 70
     3
 71
     0
  0
GROUP
  5
62AE
102
{ACAD_REACTORS
330
18
102
}
330
18
100
AcDbGroup
300

 70
     3
 71
     0
  0
GROUP
  5
48E0
102
{ACAD_REACTORS
330
18
102
}
330
18
100
AcDbGroup
300

 70
     3
 71
     0
  0
GROUP
  5
633E
102
{ACAD_REACTORS
330
18
102
}
330
18
100
AcDbGroup
300

 70
     3
 71
     0
  0
GROUP
  5
63D9
102
{ACAD_REACTORS
330
18
102
}
330
18
100
AcDbGroup
300

 70
     3
 71
     0
  0
GROUP
  5
6424
102
{ACAD_REACTORS
330
18
102
}
330
18
100
AcDbGroup
300

 70
     3
 71
     0
  0
GROUP
  5
492D
102
{ACAD_REACTORS
330
18
102
}
330
18
100
AcDbGroup
300

 70
     3
 71
     0
  0
GROUP
  5
48B5
102
{ACAD_REACTORS
330
18
102
}
330
18
100
AcDbGroup
300

 70
     3
 71
     0
  0
GROUP
  5
4964
102
{ACAD_REACTORS
330
18
102
}
330
18
100
AcDbGroup
300

 70
     3
 71
     0
  0
GROUP
  5
4884
102
{ACAD_REACTORS
330
18
102
}
330
18
100
AcDbGroup
300

 70
     3
 71
     0
  0
GROUP
  5
1B41
102
{ACAD_REACTORS
330
18
102
}
330
18
100
AcDbGroup
300

 70
     3
 71
     0
  0
GROUP
  5
1BB2
102
{ACAD_REACTORS
330
18
102
}
330
18
100
AcDbGroup
300

 70
     3
 71
     0
  0
GROUP
  5
49CB
102
{ACAD_REACTORS
330
18
102
}
330
18
100
AcDbGroup
300

 70
     3
 71
     0
  0
GROUP
  5
145B
102
{ACAD_REACTORS
330
18
102
}
330
18
100
AcDbGroup
300

 70
     3
 71
     0
  0
GROUP
  5
1AE5
102
{ACAD_REACTORS
330
18
102
}
330
18
100
AcDbGroup
300

 70
     3
 71
     0
  0
GROUP
  5
4950
102
{ACAD_REACTORS
330
18
102
}
330
18
100
AcDbGroup
300

 70
     3
 71
     0
  0
GROUP
  5
1B5F
102
{ACAD_REACTORS
330
18
102
}
330
18
100
AcDbGroup
300

 70
     3
 71
     0
  0
GROUP
  5
6308
102
{ACAD_REACTORS
330
18
102
}
330
18
100
AcDbGroup
300

 70
     3
 71
     0
  0
GROUP
  5
4845
102
{ACAD_REACTORS
330
18
102
}
330
18
100
AcDbGroup
300

 70
     3
 71
     0
  0
GROUP
  5
1C05
102
{ACAD_REACTORS
330
18
102
}
330
18
100
AcDbGroup
300

 70
     3
 71
     0
  0
GROUP
  5
1C4E
102
{ACAD_REACTORS
330
18
102
}
330
18
100
AcDbGroup
300

 70
     3
 71
     0
  0
GROUP
  5
49B9
102
{ACAD_REACTORS
330
18
102
}
330
18
100
AcDbGroup
300

 70
     3
 71
     0
  0
GROUP
  5
63E3
102
{ACAD_REACTORS
330
18
102
}
330
18
100
AcDbGroup
300

 70
     3
 71
     0
  0
GROUP
  5
1BF3
102
{ACAD_REACTORS
330
18
102
}
330
18
100
AcDbGroup
300

 70
     3
 71
     0
  0
GROUP
  5
1C35
102
{ACAD_REACTORS
330
18
102
}
330
18
100
AcDbGroup
300

 70
     3
 71
     0
  0
GROUP
  5
4946
102
{ACAD_REACTORS
330
18
102
}
330
18
100
AcDbGroup
300

 70
     3
 71
     0
  0
GROUP
  5
62C3
102
{ACAD_REACTORS
330
18
102
}
330
18
100
AcDbGroup
300

 70
     3
 71
     0
  0
GROUP
  5
6219
102
{ACAD_REACTORS
330
18
102
}
330
18
100
AcDbGroup
300

 70
     3
 71
     0
  0
GROUP
  5
63F7
102
{ACAD_REACTORS
330
18
102
}
330
18
100
AcDbGroup
300

 70
     3
 71
     0
  0
GROUP
  5
631E
102
{ACAD_REACTORS
330
18
102
}
330
18
100
AcDbGroup
300

 70
     3
 71
     0
  0
GROUP
  5
49AE
102
{ACAD_REACTORS
330
18
102
}
330
18
100
AcDbGroup
300

 70
     3
 71
     0
  0
GROUP
  5
4A01
102
{ACAD_REACTORS
330
18
102
}
330
18
100
AcDbGroup
300

 70
     3
 71
     0
  0
GROUP
  5
4847
102
{ACAD_REACTORS
330
18
102
}
330
18
100
AcDbGroup
300

 70
     3
 71
     0
  0
GROUP
  5
37A9
102
{ACAD_REACTORS
330
18
102
}
330
18
100
AcDbGroup
300

 70
     3
 71
     0
  0
GROUP
  5
6395
102
{ACAD_REACTORS
330
18
102
}
330
18
100
AcDbGroup
300

 70
     3
 71
     0
  0
GROUP
  5
1B24
102
{ACAD_REACTORS
330
18
102
}
330
18
100
AcDbGroup
300

 70
     3
 71
     0
  0
GROUP
  5
49EA
102
{ACAD_REACTORS
330
18
102
}
330
18
100
AcDbGroup
300

 70
     3
 71
     0
  0
GROUP
  5
497C
102
{ACAD_REACTORS
330
18
102
}
330
18
100
AcDbGroup
300

 70
     3
 71
     0
  0
GROUP
  5
63B7
102
{ACAD_REACTORS
330
18
102
}
330
18
100
AcDbGroup
300

 70
     3
 71
     0
  0
GROUP
  5
63CA
102
{ACAD_REACTORS
330
18
102
}
330
18
100
AcDbGroup
300

 70
     3
 71
     0
  0
GROUP
  5
1B12
102
{ACAD_REACTORS
330
18
102
}
330
18
100
AcDbGroup
300

 70
     3
 71
     0
  0
GROUP
  5
37B7
102
{ACAD_REACTORS
330
18
102
}
330
18
100
AcDbGroup
300

 70
     3
 71
     0
  0
GROUP
  5
63D1
102
{ACAD_REACTORS
330
18
102
}
330
18
100
AcDbGroup
300

 70
     3
 71
     0
  0
GROUP
  5
1C22
102
{ACAD_REACTORS
330
18
102
}
330
18
100
AcDbGroup
300

 70
     3
 71
     0
  0
GROUP
  5
638C
102
{ACAD_REACTORS
330
18
102
}
330
18
100
AcDbGroup
300

 70
     3
 71
     0
  0
GROUP
  5
6362
102
{ACAD_REACTORS
330
18
102
}
330
18
100
AcDbGroup
300

 70
     3
 71
     0
  0
GROUP
  5
62C0
102
{ACAD_REACTORS
330
18
102
}
330
18
100
AcDbGroup
300

 70
     3
 71
     0
  0
GROUP
  5
1C3F
102
{ACAD_REACTORS
330
18
102
}
330
18
100
AcDbGroup
300

 70
     3
 71
     0
  0
GROUP
  5
1B07
102
{ACAD_REACTORS
330
18
102
}
330
18
100
AcDbGroup
300

 70
     3
 71
     0
  0
GROUP
  5
636B
102
{ACAD_REACTORS
330
18
102
}
330
18
100
AcDbGroup
300

 70
     3
 71
     0
  0
GROUP
  5
1BD5
102
{ACAD_REACTORS
330
18
102
}
330
18
100
AcDbGroup
300

 70
     3
 71
     0
  0
GROUP
  5
1B51
102
{ACAD_REACTORS
330
18
102
}
330
18
100
AcDbGroup
300

 70
     3
 71
     0
  0
GROUP
  5
4967
102
{ACAD_REACTORS
330
18
102
}
330
18
100
AcDbGroup
300

 70
     3
 71
     0
  0
GROUP
  5
482C
102
{ACAD_REACTORS
330
18
102
}
330
18
100
AcDbGroup
300

 70
     3
 71
     0
  0
GROUP
  5
634D
102
{ACAD_REACTORS
330
18
102
}
330
18
100
AcDbGroup
300

 70
     3
 71
     0
  0
GROUP
  5
49E4
102
{ACAD_REACTORS
330
18
102
}
330
18
100
AcDbGroup
300

 70
     3
 71
     0
  0
GROUP
  5
49BC
102
{ACAD_REACTORS
330
18
102
}
330
18
100
AcDbGroup
300

 70
     3
 71
     0
  0
GROUP
  5
49A9
102
{ACAD_REACTORS
330
18
102
}
330
18
100
AcDbGroup
300

 70
     3
 71
     0
  0
GROUP
  5
6359
102
{ACAD_REACTORS
330
18
102
}
330
18
100
AcDbGroup
300

 70
     3
 71
     0
  0
GROUP
  5
4926
102
{ACAD_REACTORS
330
18
102
}
330
18
100
AcDbGroup
300

 70
     3
 71
     0
  0
GROUP
  5
1ACF
102
{ACAD_REACTORS
330
18
102
}
330
18
100
AcDbGroup
300

 70
     3
 71
     0
  0
GROUP
  5
1B7F
102
{ACAD_REACTORS
330
18
102
}
330
18
100
AcDbGroup
300

 70
     3
 71
     0
  0
GROUP
  5
4A18
102
{ACAD_REACTORS
330
18
102
}
330
18
100
AcDbGroup
300

 70
     3
 71
     0
  0
GROUP
  5
1B09
102
{ACAD_REACTORS
330
18
102
}
330
18
100
AcDbGroup
300

 70
     3
 71
     0
  0
GROUP
  5
634E
102
{ACAD_REACTORS
330
18
102
}
330
18
100
AcDbGroup
300

 70
     3
 71
     0
  0
GROUP
  5
4872
102
{ACAD_REACTORS
330
18
102
}
330
18
100
AcDbGroup
300

 70
     3
 71
     0
  0
GROUP
  5
6404
102
{ACAD_REACTORS
330
18
102
}
330
18
100
AcDbGroup
300

 70
     3
 71
     0
  0
GROUP
  5
1B6A
102
{ACAD_REACTORS
330
18
102
}
330
18
100
AcDbGroup
300

 70
     3
 71
     0
  0
GROUP
  5
63D4
102
{ACAD_REACTORS
330
18
102
}
330
18
100
AcDbGroup
300

 70
     3
 71
     0
  0
GROUP
  5
63FA
102
{ACAD_REACTORS
330
18
102
}
330
18
100
AcDbGroup
300

 70
     3
 71
     0
  0
GROUP
  5
63F8
102
{ACAD_REACTORS
330
18
102
}
330
18
100
AcDbGroup
300

 70
     3
 71
     0
  0
GROUP
  5
1B8D
102
{ACAD_REACTORS
330
18
102
}
330
18
100
AcDbGroup
300

 70
     3
 71
     0
  0
GROUP
  5
6357
102
{ACAD_REACTORS
330
18
102
}
330
18
100
AcDbGroup
300

 70
     3
 71
     0
  0
GROUP
  5
49B2
102
{ACAD_REACTORS
330
18
102
}
330
18
100
AcDbGroup
300

 70
     3
 71
     0
  0
GROUP
  5
1B03
102
{ACAD_REACTORS
330
18
102
}
330
18
100
AcDbGroup
300

 70
     3
 71
     0
  0
GROUP
  5
6224
102
{ACAD_REACTORS
330
18
102
}
330
18
100
AcDbGroup
300

 70
     3
 71
     0
  0
GROUP
  5
1C24
102
{ACAD_REACTORS
330
18
102
}
330
18
100
AcDbGroup
300

 70
     3
 71
     0
  0
GROUP
  5
1C07
102
{ACAD_REACTORS
330
18
102
}
330
18
100
AcDbGroup
300

 70
     3
 71
     0
  0
GROUP
  5
6417
102
{ACAD_REACTORS
330
18
102
}
330
18
100
AcDbGroup
300

 70
     3
 71
     0
  0
GROUP
  5
1B53
102
{ACAD_REACTORS
330
18
102
}
330
18
100
AcDbGroup
300

 70
     3
 71
     0
  0
GROUP
  5
63FE
102
{ACAD_REACTORS
330
18
102
}
330
18
100
AcDbGroup
300

 70
     3
 71
     0
  0
GROUP
  5
486F
102
{ACAD_REACTORS
330
18
102
}
330
18
100
AcDbGroup
300

 70
     3
 71
     0
  0
GROUP
  5
1BBE
102
{ACAD_REACTORS
330
18
102
}
330
18
100
AcDbGroup
300

 70
     3
 71
     0
  0
GROUP
  5
62ED
102
{ACAD_REACTORS
330
18
102
}
330
18
100
AcDbGroup
300

 70
     3
 71
     0
  0
GROUP
  5
1BC0
102
{ACAD_REACTORS
330
18
102
}
330
18
100
AcDbGroup
300

 70
     3
 71
     0
  0
GROUP
  5
62B9
102
{ACAD_REACTORS
330
18
102
}
330
18
100
AcDbGroup
300

 70
     3
 71
     0
  0
GROUP
  5
49E6
102
{ACAD_REACTORS
330
18
102
}
330
18
100
AcDbGroup
300

 70
     3
 71
     0
  0
GROUP
  5
632B
102
{ACAD_REACTORS
330
18
102
}
330
18
100
AcDbGroup
300

 70
     3
 71
     0
  0
GROUP
  5
6406
102
{ACAD_REACTORS
330
18
102
}
330
18
100
AcDbGroup
300

 70
     3
 71
     0
  0
GROUP
  5
6240
102
{ACAD_REACTORS
330
18
102
}
330
18
100
AcDbGroup
300

 70
     3
 71
     0
  0
GROUP
  5
482E
102
{ACAD_REACTORS
330
18
102
}
330
18
100
AcDbGroup
300

 70
     3
 71
     0
  0
GROUP
  5
48E4
102
{ACAD_REACTORS
330
18
102
}
330
18
100
AcDbGroup
300

 70
     3
 71
     0
  0
GROUP
  5
1B98
102
{ACAD_REACTORS
330
18
102
}
330
18
100
AcDbGroup
300

 70
     3
 71
     0
  0
GROUP
  5
4811
102
{ACAD_REACTORS
330
18
102
}
330
18
100
AcDbGroup
300

 70
     3
 71
     0
  0
GROUP
  5
1C18
102
{ACAD_REACTORS
330
18
102
}
330
18
100
AcDbGroup
300

 70
     3
 71
     0
  0
GROUP
  5
37AD
102
{ACAD_REACTORS
330
18
102
}
330
18
100
AcDbGroup
300

 70
     3
 71
     0
  0
GROUP
  5
623F
102
{ACAD_REACTORS
330
18
102
}
330
18
100
AcDbGroup
300

 70
     3
 71
     0
  0
GROUP
  5
49D2
102
{ACAD_REACTORS
330
18
102
}
330
18
100
AcDbGroup
300

 70
     3
 71
     0
  0
GROUP
  5
4903
102
{ACAD_REACTORS
330
18
102
}
330
18
100
AcDbGroup
300

 70
     3
 71
     0
  0
GROUP
  5
63CB
102
{ACAD_REACTORS
330
18
102
}
330
18
100
AcDbGroup
300

 70
     3
 71
     0
  0
GROUP
  5
1BD8
102
{ACAD_REACTORS
330
18
102
}
330
18
100
AcDbGroup
300

 70
     3
 71
     0
  0
GROUP
  5
6393
102
{ACAD_REACTORS
330
18
102
}
330
18
100
AcDbGroup
300

 70
     3
 71
     0
  0
GROUP
  5
6383
102
{ACAD_REACTORS
330
18
102
}
330
18
100
AcDbGroup
300

 70
     3
 71
     0
  0
GROUP
  5
63E5
102
{ACAD_REACTORS
330
18
102
}
330
18
100
AcDbGroup
300

 70
     3
 71
     0
  0
GROUP
  5
639D
102
{ACAD_REACTORS
330
18
102
}
330
18
100
AcDbGroup
300

 70
     3
 71
     0
  0
GROUP
  5
6277
102
{ACAD_REACTORS
330
18
102
}
330
18
100
AcDbGroup
300

 70
     3
 71
     0
  0
GROUP
  5
1BD6
102
{ACAD_REACTORS
330
18
102
}
330
18
100
AcDbGroup
300

 70
     3
 71
     0
  0
GROUP
  5
1BB8
102
{ACAD_REACTORS
330
18
102
}
330
18
100
AcDbGroup
300

 70
     3
 71
     0
  0
GROUP
  5
489F
102
{ACAD_REACTORS
330
18
102
}
330
18
100
AcDbGroup
300

 70
     3
 71
     0
  0
GROUP
  5
49CA
102
{ACAD_REACTORS
330
18
102
}
330
18
100
AcDbGroup
300

 70
     3
 71
     0
  0
GROUP
  5
1B58
102
{ACAD_REACTORS
330
18
102
}
330
18
100
AcDbGroup
300

 70
     3
 71
     0
  0
GROUP
  5
62EE
102
{ACAD_REACTORS
330
18
102
}
330
18
100
AcDbGroup
300

 70
     3
 71
     0
  0
GROUP
  5
63E7
102
{ACAD_REACTORS
330
18
102
}
330
18
100
AcDbGroup
300

 70
     3
 71
     0
  0
GROUP
  5
48D3
102
{ACAD_REACTORS
330
18
102
}
330
18
100
AcDbGroup
300

 70
     3
 71
     0
  0
GROUP
  5
4905
102
{ACAD_REACTORS
330
18
102
}
330
18
100
AcDbGroup
300

 70
     3
 71
     0
  0
GROUP
  5
6415
102
{ACAD_REACTORS
330
18
102
}
330
18
100
AcDbGroup
300

 70
     3
 71
     0
  0
GROUP
  5
49CE
102
{ACAD_REACTORS
330
18
102
}
330
18
100
AcDbGroup
300

 70
     3
 71
     0
  0
GROUP
  5
1C1C
102
{ACAD_REACTORS
330
18
102
}
330
18
100
AcDbGroup
300

 70
     3
 71
     0
  0
GROUP
  5
48DC
102
{ACAD_REACTORS
330
18
102
}
330
18
100
AcDbGroup
300

 70
     3
 71
     0
  0
GROUP
  5
379A
102
{ACAD_REACTORS
330
18
102
}
330
18
100
AcDbGroup
300

 70
     3
 71
     0
  0
GROUP
  5
49FA
102
{ACAD_REACTORS
330
18
102
}
330
18
100
AcDbGroup
300

 70
     3
 71
     0
  0
GROUP
  5
37AC
102
{ACAD_REACTORS
330
18
102
}
330
18
100
AcDbGroup
300

 70
     3
 71
     0
  0
GROUP
  5
49A6
102
{ACAD_REACTORS
330
18
102
}
330
18
100
AcDbGroup
300

 70
     3
 71
     0
  0
GROUP
  5
636F
102
{ACAD_REACTORS
330
18
102
}
330
18
100
AcDbGroup
300

 70
     3
 71
     0
  0
GROUP
  5
1B7D
102
{ACAD_REACTORS
330
18
102
}
330
18
100
AcDbGroup
300

 70
     3
 71
     0
  0
GROUP
  5
4882
102
{ACAD_REACTORS
330
18
102
}
330
18
100
AcDbGroup
300

 70
     3
 71
     0
  0
GROUP
  5
637C
102
{ACAD_REACTORS
330
18
102
}
330
18
100
AcDbGroup
300

 70
     3
 71
     0
  0
GROUP
  5
4957
102
{ACAD_REACTORS
330
18
102
}
330
18
100
AcDbGroup
300

 70
     3
 71
     0
  0
GROUP
  5
1B52
102
{ACAD_REACTORS
330
18
102
}
330
18
100
AcDbGroup
300

 70
     3
 71
     0
  0
GROUP
  5
484D
102
{ACAD_REACTORS
330
18
102
}
330
18
100
AcDbGroup
300

 70
     3
 71
     0
  0
GROUP
  5
49B7
102
{ACAD_REACTORS
330
18
102
}
330
18
100
AcDbGroup
300

 70
     3
 71
     0
  0
GROUP
  5
49BA
102
{ACAD_REACTORS
330
18
102
}
330
18
100
AcDbGroup
300

 70
     3
 71
     0
  0
GROUP
  5
1BCD
102
{ACAD_REACTORS
330
18
102
}
330
18
100
AcDbGroup
300

 70
     3
 71
     0
  0
GROUP
  5
6223
102
{ACAD_REACTORS
330
18
102
}
330
18
100
AcDbGroup
300

 70
     3
 71
     0
  0
GROUP
  5
4A08
102
{ACAD_REACTORS
330
18
102
}
330
18
100
AcDbGroup
300

 70
     3
 71
     0
  0
GROUP
  5
1BEC
102
{ACAD_REACTORS
330
18
102
}
330
18
100
AcDbGroup
300

 70
     3
 71
     0
  0
GROUP
  5
488B
102
{ACAD_REACTORS
330
18
102
}
330
18
100
AcDbGroup
300

 70
     3
 71
     0
  0
GROUP
  5
1ACD
102
{ACAD_REACTORS
330
18
102
}
330
18
100
AcDbGroup
300

 70
     3
 71
     0
  0
GROUP
  5
4999
102
{ACAD_REACTORS
330
18
102
}
330
18
100
AcDbGroup
300

 70
     3
 71
     0
  0
GROUP
  5
48DA
102
{ACAD_REACTORS
330
18
102
}
330
18
100
AcDbGroup
300

 70
     3
 71
     0
  0
GROUP
  5
629A
102
{ACAD_REACTORS
330
18
102
}
330
18
100
AcDbGroup
300

 70
     3
 71
     0
  0
GROUP
  5
1B45
102
{ACAD_REACTORS
330
18
102
}
330
18
100
AcDbGroup
300

 70
     3
 71
     0
  0
GROUP
  5
6222
102
{ACAD_REACTORS
330
18
102
}
330
18
100
AcDbGroup
300

 70
     3
 71
     0
  0
GROUP
  5
6218
102
{ACAD_REACTORS
330
18
102
}
330
18
100
AcDbGroup
300

 70
     3
 71
     0
  0
GROUP
  5
4915
102
{ACAD_REACTORS
330
18
102
}
330
18
100
AcDbGroup
300

 70
     3
 71
     0
  0
GROUP
  5
491A
102
{ACAD_REACTORS
330
18
102
}
330
18
100
AcDbGroup
300

 70
     3
 71
     0
  0
GROUP
  5
48FE
102
{ACAD_REACTORS
330
18
102
}
330
18
100
AcDbGroup
300

 70
     3
 71
     0
  0
GROUP
  5
1C29
102
{ACAD_REACTORS
330
18
102
}
330
18
100
AcDbGroup
300

 70
     3
 71
     0
  0
GROUP
  5
1BF8
102
{ACAD_REACTORS
330
18
102
}
330
18
100
AcDbGroup
300

 70
     3
 71
     0
  0
GROUP
  5
624F
102
{ACAD_REACTORS
330
18
102
}
330
18
100
AcDbGroup
300

 70
     3
 71
     0
  0
GROUP
  5
1B1A
102
{ACAD_REACTORS
330
18
102
}
330
18
100
AcDbGroup
300

 70
     3
 71
     0
  0
GROUP
  5
1AF2
102
{ACAD_REACTORS
330
18
102
}
330
18
100
AcDbGroup
300

 70
     3
 71
     0
  0
GROUP
  5
48B2
102
{ACAD_REACTORS
330
18
102
}
330
18
100
AcDbGroup
300

 70
     3
 71
     0
  0
GROUP
  5
37AE
102
{ACAD_REACTORS
330
18
102
}
330
18
100
AcDbGroup
300

 70
     3
 71
     0
  0
GROUP
  5
63D7
102
{ACAD_REACTORS
330
18
102
}
330
18
100
AcDbGroup
300

 70
     3
 71
     0
  0
GROUP
  5
6216
102
{ACAD_REACTORS
330
18
102
}
330
18
100
AcDbGroup
300

 70
     3
 71
     0
  0
GROUP
  5
1B37
102
{ACAD_REACTORS
330
18
102
}
330
18
100
AcDbGroup
300

 70
     3
 71
     0
  0
GROUP
  5
4986
102
{ACAD_REACTORS
330
18
102
}
330
18
100
AcDbGroup
300

 70
     3
 71
     0
  0
GROUP
  5
1B54
102
{ACAD_REACTORS
330
18
102
}
330
18
100
AcDbGroup
300

 70
     3
 71
     0
  0
GROUP
  5
4821
102
{ACAD_REACTORS
330
18
102
}
330
18
100
AcDbGroup
300

 70
     3
 71
     0
  0
GROUP
  5
37A1
102
{ACAD_REACTORS
330
18
102
}
330
18
100
AcDbGroup
300

 70
     3
 71
     0
  0
GROUP
  5
1B80
102
{ACAD_REACTORS
330
18
102
}
330
18
100
AcDbGroup
300

 70
     3
 71
     0
  0
GROUP
  5
6378
102
{ACAD_REACTORS
330
18
102
}
330
18
100
AcDbGroup
300

 70
     3
 71
     0
  0
GROUP
  5
1B34
102
{ACAD_REACTORS
330
18
102
}
330
18
100
AcDbGroup
300

 70
     3
 71
     0
  0
GROUP
  5
1B8E
102
{ACAD_REACTORS
330
18
102
}
330
18
100
AcDbGroup
300

 70
     3
 71
     0
  0
GROUP
  5
1B9F
102
{ACAD_REACTORS
330
18
102
}
330
18
100
AcDbGroup
300

 70
     3
 71
     0
  0
GROUP
  5
63D3
102
{ACAD_REACTORS
330
18
102
}
330
18
100
AcDbGroup
300

 70
     3
 71
     0
  0
GROUP
  5
1B49
102
{ACAD_REACTORS
330
18
102
}
330
18
100
AcDbGroup
300

 70
     3
 71
     0
  0
GROUP
  5
1B9D
102
{ACAD_REACTORS
330
18
102
}
330
18
100
AcDbGroup
300

 70
     3
 71
     0
  0
GROUP
  5
4893
102
{ACAD_REACTORS
330
18
102
}
330
18
100
AcDbGroup
300

 70
     3
 71
     0
  0
GROUP
  5
63BF
102
{ACAD_REACTORS
330
18
102
}
330
18
100
AcDbGroup
300

 70
     3
 71
     0
  0
GROUP
  5
6364
102
{ACAD_REACTORS
330
18
102
}
330
18
100
AcDbGroup
300

 70
     3
 71
     0
  0
GROUP
  5
62E0
102
{ACAD_REACTORS
330
18
102
}
330
18
100
AcDbGroup
300

 70
     3
 71
     0
  0
GROUP
  5
6348
102
{ACAD_REACTORS
330
18
102
}
330
18
100
AcDbGroup
300

 70
     3
 71
     0
  0
GROUP
  5
623D
102
{ACAD_REACTORS
330
18
102
}
330
18
100
AcDbGroup
300

 70
     3
 71
     0
  0
GROUP
  5
627C
102
{ACAD_REACTORS
330
18
102
}
330
18
100
AcDbGroup
300

 70
     3
 71
     0
  0
GROUP
  5
4839
102
{ACAD_REACTORS
330
18
102
}
330
18
100
AcDbGroup
300

 70
     3
 71
     0
  0
GROUP
  5
1B36
102
{ACAD_REACTORS
330
18
102
}
330
18
100
AcDbGroup
300

 70
     3
 71
     0
  0
GROUP
  5
62A9
102
{ACAD_REACTORS
330
18
102
}
330
18
100
AcDbGroup
300

 70
     3
 71
     0
  0
GROUP
  5
494C
102
{ACAD_REACTORS
330
18
102
}
330
18
100
AcDbGroup
300

 70
     3
 71
     0
  0
GROUP
  5
1454
102
{ACAD_REACTORS
330
18
102
}
330
18
100
AcDbGroup
300

 70
     3
 71
     0
  0
GROUP
  5
62BF
102
{ACAD_REACTORS
330
18
102
}
330
18
100
AcDbGroup
300

 70
     3
 71
     0
  0
GROUP
  5
4830
102
{ACAD_REACTORS
330
18
102
}
330
18
100
AcDbGroup
300

 70
     3
 71
     0
  0
GROUP
  5
63C7
102
{ACAD_REACTORS
330
18
102
}
330
18
100
AcDbGroup
300

 70
     3
 71
     0
  0
GROUP
  5
1B28
102
{ACAD_REACTORS
330
18
102
}
330
18
100
AcDbGroup
300

 70
     3
 71
     0
  0
GROUP
  5
4944
102
{ACAD_REACTORS
330
18
102
}
330
18
100
AcDbGroup
300

 70
     3
 71
     0
  0
GROUP
  5
6263
102
{ACAD_REACTORS
330
18
102
}
330
18
100
AcDbGroup
300

 70
     3
 71
     0
  0
GROUP
  5
1B65
102
{ACAD_REACTORS
330
18
102
}
330
18
100
AcDbGroup
300

 70
     3
 71
     0
  0
GROUP
  5
1BD7
102
{ACAD_REACTORS
330
18
102
}
330
18
100
AcDbGroup
300

 70
     3
 71
     0
  0
GROUP
  5
49FF
102
{ACAD_REACTORS
330
18
102
}
330
18
100
AcDbGroup
300

 70
     3
 71
     0
  0
GROUP
  5
49F3
102
{ACAD_REACTORS
330
18
102
}
330
18
100
AcDbGroup
300

 70
     3
 71
     0
  0
GROUP
  5
62F3
102
{ACAD_REACTORS
330
18
102
}
330
18
100
AcDbGroup
300

 70
     3
 71
     0
  0
GROUP
  5
1AF6
102
{ACAD_REACTORS
330
18
102
}
330
18
100
AcDbGroup
300

 70
     3
 71
     0
  0
GROUP
  5
1C0D
102
{ACAD_REACTORS
330
18
102
}
330
18
100
AcDbGroup
300

 70
     3
 71
     0
  0
GROUP
  5
480C
102
{ACAD_REACTORS
330
18
102
}
330
18
100
AcDbGroup
300

 70
     3
 71
     0
  0
GROUP
  5
484E
102
{ACAD_REACTORS
330
18
102
}
330
18
100
AcDbGroup
300

 70
     3
 71
     0
  0
GROUP
  5
49E5
102
{ACAD_REACTORS
330
18
102
}
330
18
100
AcDbGroup
300

 70
     3
 71
     0
  0
GROUP
  5
4825
102
{ACAD_REACTORS
330
18
102
}
330
18
100
AcDbGroup
300

 70
     3
 71
     0
  0
GROUP
  5
1C10
102
{ACAD_REACTORS
330
18
102
}
330
18
100
AcDbGroup
300

 70
     3
 71
     0
  0
GROUP
  5
1BDC
102
{ACAD_REACTORS
330
18
102
}
330
18
100
AcDbGroup
300

 70
     3
 71
     0
  0
GROUP
  5
37B4
102
{ACAD_REACTORS
330
18
102
}
330
18
100
AcDbGroup
300

 70
     3
 71
     0
  0
GROUP
  5
1B57
102
{ACAD_REACTORS
330
18
102
}
330
18
100
AcDbGroup
300

 70
     3
 71
     0
  0
GROUP
  5
4A09
102
{ACAD_REACTORS
330
18
102
}
330
18
100
AcDbGroup
300

 70
     3
 71
     0
  0
GROUP
  5
4970
102
{ACAD_REACTORS
330
18
102
}
330
18
100
AcDbGroup
300

 70
     3
 71
     0
  0
GROUP
  5
1C3E
102
{ACAD_REACTORS
330
18
102
}
330
18
100
AcDbGroup
300

 70
     3
 71
     0
  0
GROUP
  5
1C4F
102
{ACAD_REACTORS
330
18
102
}
330
18
100
AcDbGroup
300

 70
     3
 71
     0
  0
GROUP
  5
1B87
102
{ACAD_REACTORS
330
18
102
}
330
18
100
AcDbGroup
300

 70
     3
 71
     0
  0
GROUP
  5
62FB
102
{ACAD_REACTORS
330
18
102
}
330
18
100
AcDbGroup
300

 70
     3
 71
     0
  0
GROUP
  5
627E
102
{ACAD_REACTORS
330
18
102
}
330
18
100
AcDbGroup
300

 70
     3
 71
     0
  0
GROUP
  5
6237
102
{ACAD_REACTORS
330
18
102
}
330
18
100
AcDbGroup
300

 70
     3
 71
     0
  0
GROUP
  5
1C1F
102
{ACAD_REACTORS
330
18
102
}
330
18
100
AcDbGroup
300

 70
     3
 71
     0
  0
GROUP
  5
6320
102
{ACAD_REACTORS
330
18
102
}
330
18
100
AcDbGroup
300

 70
     3
 71
     0
  0
GROUP
  5
631F
102
{ACAD_REACTORS
330
18
102
}
330
18
100
AcDbGroup
300

 70
     3
 71
     0
  0
GROUP
  5
379C
102
{ACAD_REACTORS
330
18
102
}
330
18
100
AcDbGroup
300

 70
     3
 71
     0
  0
GROUP
  5
1B46
102
{ACAD_REACTORS
330
18
102
}
330
18
100
AcDbGroup
300

 70
     3
 71
     0
  0
GROUP
  5
37A0
102
{ACAD_REACTORS
330
18
102
}
330
18
100
AcDbGroup
300

 70
     3
 71
     0
  0
GROUP
  5
1C04
102
{ACAD_REACTORS
330
18
102
}
330
18
100
AcDbGroup
300

 70
     3
 71
     0
  0
GROUP
  5
1BE5
102
{ACAD_REACTORS
330
18
102
}
330
18
100
AcDbGroup
300

 70
     3
 71
     0
  0
GROUP
  5
63AB
102
{ACAD_REACTORS
330
18
102
}
330
18
100
AcDbGroup
300

 70
     3
 71
     0
  0
GROUP
  5
49C5
102
{ACAD_REACTORS
330
18
102
}
330
18
100
AcDbGroup
300

 70
     3
 71
     0
  0
GROUP
  5
1B6B
102
{ACAD_REACTORS
330
18
102
}
330
18
100
AcDbGroup
300

 70
     3
 71
     0
  0
GROUP
  5
495F
102
{ACAD_REACTORS
330
18
102
}
330
18
100
AcDbGroup
300

 70
     3
 71
     0
  0
GROUP
  5
1AFB
102
{ACAD_REACTORS
330
18
102
}
330
18
100
AcDbGroup
300

 70
     3
 71
     0
  0
GROUP
  5
1ADC
102
{ACAD_REACTORS
330
18
102
}
330
18
100
AcDbGroup
300

 70
     3
 71
     0
  0
GROUP
  5
1B97
102
{ACAD_REACTORS
330
18
102
}
330
18
100
AcDbGroup
300

 70
     3
 71
     0
  0
GROUP
  5
624B
102
{ACAD_REACTORS
330
18
102
}
330
18
100
AcDbGroup
300

 70
     3
 71
     0
  0
GROUP
  5
4A19
102
{ACAD_REACTORS
330
18
102
}
330
18
100
AcDbGroup
300

 70
     3
 71
     0
  0
GROUP
  5
1B85
102
{ACAD_REACTORS
330
18
102
}
330
18
100
AcDbGroup
300

 70
     3
 71
     0
  0
GROUP
  5
1ADE
102
{ACAD_REACTORS
330
18
102
}
330
18
100
AcDbGroup
300

 70
     3
 71
     0
  0
GROUP
  5
4818
102
{ACAD_REACTORS
330
18
102
}
330
18
100
AcDbGroup
300

 70
     3
 71
     0
  0
GROUP
  5
63A6
102
{ACAD_REACTORS
330
18
102
}
330
18
100
AcDbGroup
300

 70
     3
 71
     0
  0
GROUP
  5
4910
102
{ACAD_REACTORS
330
18
102
}
330
18
100
AcDbGroup
300

 70
     3
 71
     0
  0
GROUP
  5
6389
102
{ACAD_REACTORS
330
18
102
}
330
18
100
AcDbGroup
300

 70
     3
 71
     0
  0
GROUP
  5
145C
102
{ACAD_REACTORS
330
18
102
}
330
18
100
AcDbGroup
300

 70
     3
 71
     0
  0
GROUP
  5
1B44
102
{ACAD_REACTORS
330
18
102
}
330
18
100
AcDbGroup
300

 70
     3
 71
     0
  0
GROUP
  5
490E
102
{ACAD_REACTORS
330
18
102
}
330
18
100
AcDbGroup
300

 70
     3
 71
     0
  0
GROUP
  5
1C40
102
{ACAD_REACTORS
330
18
102
}
330
18
100
AcDbGroup
300

 70
     3
 71
     0
  0
GROUP
  5
1C33
102
{ACAD_REACTORS
330
18
102
}
330
18
100
AcDbGroup
300

 70
     3
 71
     0
  0
GROUP
  5
1C0F
102
{ACAD_REACTORS
330
18
102
}
330
18
100
AcDbGroup
300

 70
     3
 71
     0
  0
GROUP
  5
1B23
102
{ACAD_REACTORS
330
18
102
}
330
18
100
AcDbGroup
300

 70
     3
 71
     0
  0
GROUP
  5
635D
102
{ACAD_REACTORS
330
18
102
}
330
18
100
AcDbGroup
300

 70
     3
 71
     0
  0
GROUP
  5
48CD
102
{ACAD_REACTORS
330
18
102
}
330
18
100
AcDbGroup
300

 70
     3
 71
     0
  0
GROUP
  5
6358
102
{ACAD_REACTORS
330
18
102
}
330
18
100
AcDbGroup
300

 70
     3
 71
     0
  0
GROUP
  5
1C2C
102
{ACAD_REACTORS
330
18
102
}
330
18
100
AcDbGroup
300

 70
     3
 71
     0
  0
GROUP
  5
49BF
102
{ACAD_REACTORS
330
18
102
}
330
18
100
AcDbGroup
300

 70
     3
 71
     0
  0
GROUP
  5
1BC3
102
{ACAD_REACTORS
330
18
102
}
330
18
100
AcDbGroup
300

 70
     3
 71
     0
  0
GROUP
  5
4838
102
{ACAD_REACTORS
330
18
102
}
330
18
100
AcDbGroup
300

 70
     3
 71
     0
  0
GROUP
  5
1B17
102
{ACAD_REACTORS
330
18
102
}
330
18
100
AcDbGroup
300

 70
     3
 71
     0
  0
GROUP
  5
1B71
102
{ACAD_REACTORS
330
18
102
}
330
18
100
AcDbGroup
300

 70
     3
 71
     0
  0
GROUP
  5
145D
102
{ACAD_REACTORS
330
18
102
}
330
18
100
AcDbGroup
300

 70
     3
 71
     0
  0
GROUP
  5
62E7
102
{ACAD_REACTORS
330
18
102
}
330
18
100
AcDbGroup
300

 70
     3
 71
     0
  0
GROUP
  5
4820
102
{ACAD_REACTORS
330
18
102
}
330
18
100
AcDbGroup
300

 70
     3
 71
     0
  0
GROUP
  5
638E
102
{ACAD_REACTORS
330
18
102
}
330
18
100
AcDbGroup
300

 70
     3
 71
     0
  0
GROUP
  5
1C31
102
{ACAD_REACTORS
330
18
102
}
330
18
100
AcDbGroup
300

 70
     3
 71
     0
  0
GROUP
  5
6416
102
{ACAD_REACTORS
330
18
102
}
330
18
100
AcDbGroup
300

 70
     3
 71
     0
  0
GROUP
  5
62D6
102
{ACAD_REACTORS
330
18
102
}
330
18
100
AcDbGroup
300

 70
     3
 71
     0
  0
GROUP
  5
640E
102
{ACAD_REACTORS
330
18
102
}
330
18
100
AcDbGroup
300

 70
     3
 71
     0
  0
GROUP
  5
1B5A
102
{ACAD_REACTORS
330
18
102
}
330
18
100
AcDbGroup
300

 70
     3
 71
     0
  0
GROUP
  5
631B
102
{ACAD_REACTORS
330
18
102
}
330
18
100
AcDbGroup
300

 70
     3
 71
     0
  0
GROUP
  5
48F7
102
{ACAD_REACTORS
330
18
102
}
330
18
100
AcDbGroup
300

 70
     3
 71
     0
  0
GROUP
  5
1B40
102
{ACAD_REACTORS
330
18
102
}
330
18
100
AcDbGroup
300

 70
     3
 71
     0
  0
GROUP
  5
1B66
102
{ACAD_REACTORS
330
18
102
}
330
18
100
AcDbGroup
300

 70
     3
 71
     0
  0
GROUP
  5
1C2E
102
{ACAD_REACTORS
330
18
102
}
330
18
100
AcDbGroup
300

 70
     3
 71
     0
  0
GROUP
  5
4885
102
{ACAD_REACTORS
330
18
102
}
330
18
100
AcDbGroup
300

 70
     3
 71
     0
  0
GROUP
  5
1B1C
102
{ACAD_REACTORS
330
18
102
}
330
18
100
AcDbGroup
300

 70
     3
 71
     0
  0
GROUP
  5
62D5
102
{ACAD_REACTORS
330
18
102
}
330
18
100
AcDbGroup
300

 70
     3
 71
     0
  0
GROUP
  5
6344
102
{ACAD_REACTORS
330
18
102
}
330
18
100
AcDbGroup
300

 70
     3
 71
     0
  0
GROUP
  5
486A
102
{ACAD_REACTORS
330
18
102
}
330
18
100
AcDbGroup
300

 70
     3
 71
     0
  0
GROUP
  5
1B3F
102
{ACAD_REACTORS
330
18
102
}
330
18
100
AcDbGroup
300

 70
     3
 71
     0
  0
GROUP
  5
628B
102
{ACAD_REACTORS
330
18
102
}
330
18
100
AcDbGroup
300

 70
     3
 71
     0
  0
GROUP
  5
494E
102
{ACAD_REACTORS
330
18
102
}
330
18
100
AcDbGroup
300

 70
     3
 71
     0
  0
GROUP
  5
6312
102
{ACAD_REACTORS
330
18
102
}
330
18
100
AcDbGroup
300

 70
     3
 71
     0
  0
GROUP
  5
49A8
102
{ACAD_REACTORS
330
18
102
}
330
18
100
AcDbGroup
300

 70
     3
 71
     0
  0
GROUP
  5
48C7
102
{ACAD_REACTORS
330
18
102
}
330
18
100
AcDbGroup
300

 70
     3
 71
     1
  0
GROUP
  5
1BAC
102
{ACAD_REACTORS
330
18
102
}
330
18
100
AcDbGroup
300

 70
     3
 71
     0
  0
GROUP
  5
493B
102
{ACAD_REACTORS
330
18
102
}
330
18
100
AcDbGroup
300

 70
     3
 71
     0
  0
GROUP
  5
4A13
102
{ACAD_REACTORS
330
18
102
}
330
18
100
AcDbGroup
300

 70
     3
 71
     0
  0
GROUP
  5
62A1
102
{ACAD_REACTORS
330
18
102
}
330
18
100
AcDbGroup
300

 70
     3
 71
     0
  0
GROUP
  5
1B11
102
{ACAD_REACTORS
330
18
102
}
330
18
100
AcDbGroup
300

 70
     3
 71
     0
  0
GROUP
  5
633F
102
{ACAD_REACTORS
330
18
102
}
330
18
100
AcDbGroup
300

 70
     3
 71
     0
  0
GROUP
  5
1464
102
{ACAD_REACTORS
330
18
102
}
330
18
100
AcDbGroup
300

 70
     3
 71
     0
  0
GROUP
  5
48EE
102
{ACAD_REACTORS
330
18
102
}
330
18
100
AcDbGroup
300

 70
     3
 71
     0
  0
GROUP
  5
4877
102
{ACAD_REACTORS
330
18
102
}
330
18
100
AcDbGroup
300

 70
     3
 71
     0
  0
GROUP
  5
6407
102
{ACAD_REACTORS
330
18
102
}
330
18
100
AcDbGroup
300

 70
     3
 71
     0
  0
GROUP
  5
1BD2
102
{ACAD_REACTORS
330
18
102
}
330
18
100
AcDbGroup
300

 70
     3
 71
     0
  0
GROUP
  5
49D0
102
{ACAD_REACTORS
330
18
102
}
330
18
100
AcDbGroup
300

 70
     3
 71
     0
  0
GROUP
  5
1B61
102
{ACAD_REACTORS
330
18
102
}
330
18
100
AcDbGroup
300

 70
     3
 71
     0
  0
GROUP
  5
63B8
102
{ACAD_REACTORS
330
18
102
}
330
18
100
AcDbGroup
300

 70
     3
 71
     0
  0
GROUP
  5
48DE
102
{ACAD_REACTORS
330
18
102
}
330
18
100
AcDbGroup
300

 70
     3
 71
     0
  0
GROUP
  5
62D9
102
{ACAD_REACTORS
330
18
102
}
330
18
100
AcDbGroup
300

 70
     3
 71
     0
  0
GROUP
  5
6310
102
{ACAD_REACTORS
330
18
102
}
330
18
100
AcDbGroup
300

 70
     3
 71
     0
  0
GROUP
  5
492F
102
{ACAD_REACTORS
330
18
102
}
330
18
100
AcDbGroup
300

 70
     3
 71
     0
  0
GROUP
  5
145F
102
{ACAD_REACTORS
330
18
102
}
330
18
100
AcDbGroup
300

 70
     3
 71
     0
  0
GROUP
  5
63AA
102
{ACAD_REACTORS
330
18
102
}
330
18
100
AcDbGroup
300

 70
     3
 71
     0
  0
GROUP
  5
48E2
102
{ACAD_REACTORS
330
18
102
}
330
18
100
AcDbGroup
300

 70
     3
 71
     0
  0
GROUP
  5
48CA
102
{ACAD_REACTORS
330
18
102
}
330
18
100
AcDbGroup
300

 70
     3
 71
     0
  0
GROUP
  5
48A1
102
{ACAD_REACTORS
330
18
102
}
330
18
100
AcDbGroup
300

 70
     3
 71
     0
  0
GROUP
  5
499F
102
{ACAD_REACTORS
330
18
102
}
330
18
100
AcDbGroup
300

 70
     3
 71
     0
  0
GROUP
  5
6388
102
{ACAD_REACTORS
330
18
102
}
330
18
100
AcDbGroup
300

 70
     3
 71
     0
  0
GROUP
  5
4860
102
{ACAD_REACTORS
330
18
102
}
330
18
100
AcDbGroup
300

 70
     3
 71
     0
  0
GROUP
  5
1BF1
102
{ACAD_REACTORS
330
18
102
}
330
18
100
AcDbGroup
300

 70
     3
 71
     0
  0
GROUP
  5
1468
102
{ACAD_REACTORS
330
18
102
}
330
18
100
AcDbGroup
300

 70
     3
 71
     0
  0
GROUP
  5
62B6
102
{ACAD_REACTORS
330
18
102
}
330
18
100
AcDbGroup
300

 70
     3
 71
     0
  0
GROUP
  5
4828
102
{ACAD_REACTORS
330
18
102
}
330
18
100
AcDbGroup
300

 70
     3
 71
     0
  0
GROUP
  5
4938
102
{ACAD_REACTORS
330
18
102
}
330
18
100
AcDbGroup
300

 70
     3
 71
     0
  0
GROUP
  5
4940
102
{ACAD_REACTORS
330
18
102
}
330
18
100
AcDbGroup
300

 70
     3
 71
     0
  0
GROUP
  5
1BFD
102
{ACAD_REACTORS
330
18
102
}
330
18
100
AcDbGroup
300

 70
     3
 71
     0
  0
GROUP
  5
48D8
102
{ACAD_REACTORS
330
18
102
}
330
18
100
AcDbGroup
300

 70
     3
 71
     0
  0
GROUP
  5
63F1
102
{ACAD_REACTORS
330
18
102
}
330
18
100
AcDbGroup
300

 70
     3
 71
     0
  0
GROUP
  5
48ED
102
{ACAD_REACTORS
330
18
102
}
330
18
100
AcDbGroup
300

 70
     3
 71
     0
  0
GROUP
  5
1B15
102
{ACAD_REACTORS
330
18
102
}
330
18
100
AcDbGroup
300

 70
     3
 71
     0
  0
GROUP
  5
62BD
102
{ACAD_REACTORS
330
18
102
}
330
18
100
AcDbGroup
300

 70
     3
 71
     0
  0
GROUP
  5
1C2F
102
{ACAD_REACTORS
330
18
102
}
330
18
100
AcDbGroup
300

 70
     3
 71
     0
  0
GROUP
  5
1B7C
102
{ACAD_REACTORS
330
18
102
}
330
18
100
AcDbGroup
300

 70
     3
 71
     0
  0
GROUP
  5
3798
102
{ACAD_REACTORS
330
18
102
}
330
18
100
AcDbGroup
300

 70
     3
 71
     0
  0
GROUP
  5
1AE3
102
{ACAD_REACTORS
330
18
102
}
330
18
100
AcDbGroup
300

 70
     3
 71
     0
  0
GROUP
  5
636C
102
{ACAD_REACTORS
330
18
102
}
330
18
100
AcDbGroup
300

 70
     3
 71
     0
  0
GROUP
  5
37B1
102
{ACAD_REACTORS
330
18
102
}
330
18
100
AcDbGroup
300

 70
     3
 71
     0
  0
GROUP
  5
4889
102
{ACAD_REACTORS
330
18
102
}
330
18
100
AcDbGroup
300

 70
     3
 71
     0
  0
GROUP
  5
63C4
102
{ACAD_REACTORS
330
18
102
}
330
18
100
AcDbGroup
300

 70
     3
 71
     0
  0
GROUP
  5
1B33
102
{ACAD_REACTORS
330
18
102
}
330
18
100
AcDbGroup
300

 70
     3
 71
     0
  0
GROUP
  5
629E
102
{ACAD_REACTORS
330
18
102
}
330
18
100
AcDbGroup
300

 70
     3
 71
     0
  0
GROUP
  5
623C
102
{ACAD_REACTORS
330
18
102
}
330
18
100
AcDbGroup
300

 70
     3
 71
     0
  0
GROUP
  5
484B
102
{ACAD_REACTORS
330
18
102
}
330
18
100
AcDbGroup
300

 70
     3
 71
     0
  0
GROUP
  5
1B76
102
{ACAD_REACTORS
330
18
102
}
330
18
100
AcDbGroup
300

 70
     3
 71
     0
  0
GROUP
  5
1BA1
102
{ACAD_REACTORS
330
18
102
}
330
18
100
AcDbGroup
300

 70
     3
 71
     0
  0
GROUP
  5
1B63
102
{ACAD_REACTORS
330
18
102
}
330
18
100
AcDbGroup
300

 70
     3
 71
     0
  0
GROUP
  5
63DB
102
{ACAD_REACTORS
330
18
102
}
330
18
100
AcDbGroup
300

 70
     3
 71
     0
  0
GROUP
  5
4816
102
{ACAD_REACTORS
330
18
102
}
330
18
100
AcDbGroup
300

 70
     3
 71
     0
  0
GROUP
  5
4851
102
{ACAD_REACTORS
330
18
102
}
330
18
100
AcDbGroup
300

 70
     3
 71
     0
  0
GROUP
  5
62E2
102
{ACAD_REACTORS
330
18
102
}
330
18
100
AcDbGroup
300

 70
     3
 71
     0
  0
GROUP
  5
1AE4
102
{ACAD_REACTORS
330
18
102
}
330
18
100
AcDbGroup
300

 70
     3
 71
     0
  0
GROUP
  5
628D
102
{ACAD_REACTORS
330
18
102
}
330
18
100
AcDbGroup
300

 70
     3
 71
     0
  0
GROUP
  5
641E
102
{ACAD_REACTORS
330
18
102
}
330
18
100
AcDbGroup
300

 70
     3
 71
     0
  0
GROUP
  5
639B
102
{ACAD_REACTORS
330
18
102
}
330
18
100
AcDbGroup
300

 70
     3
 71
     0
  0
GROUP
  5
6259
102
{ACAD_REACTORS
330
18
102
}
330
18
100
AcDbGroup
300

 70
     3
 71
     0
  0
GROUP
  5
62BC
102
{ACAD_REACTORS
330
18
102
}
330
18
100
AcDbGroup
300

 70
     3
 71
     0
  0
GROUP
  5
4985
102
{ACAD_REACTORS
330
18
102
}
330
18
100
AcDbGroup
300

 70
     3
 71
     0
  0
GROUP
  5
481C
102
{ACAD_REACTORS
330
18
102
}
330
18
100
AcDbGroup
300

 70
     3
 71
     0
  0
GROUP
  5
63B4
102
{ACAD_REACTORS
330
18
102
}
330
18
100
AcDbGroup
300

 70
     3
 71
     0
  0
GROUP
  5
495A
102
{ACAD_REACTORS
330
18
102
}
330
18
100
AcDbGroup
300

 70
     3
 71
     0
  0
GROUP
  5
48F3
102
{ACAD_REACTORS
330
18
102
}
330
18
100
AcDbGroup
300

 70
     3
 71
     0
  0
GROUP
  5
622E
102
{ACAD_REACTORS
330
18
102
}
330
18
100
AcDbGroup
300

 70
     3
 71
     0
  0
GROUP
  5
1B90
102
{ACAD_REACTORS
330
18
102
}
330
18
100
AcDbGroup
300

 70
     3
 71
     0
  0
GROUP
  5
4A0A
102
{ACAD_REACTORS
330
18
102
}
330
18
100
AcDbGroup
300

 70
     3
 71
     0
  0
GROUP
  5
632A
102
{ACAD_REACTORS
330
18
102
}
330
18
100
AcDbGroup
300

 70
     3
 71
     0
  0
GROUP
  5
1C06
102
{ACAD_REACTORS
330
18
102
}
330
18
100
AcDbGroup
300

 70
     3
 71
     0
  0
GROUP
  5
62EB
102
{ACAD_REACTORS
330
18
102
}
330
18
100
AcDbGroup
300

 70
     3
 71
     0
  0
GROUP
  5
1B21
102
{ACAD_REACTORS
330
18
102
}
330
18
100
AcDbGroup
300

 70
     3
 71
     0
  0
GROUP
  5
1BA4
102
{ACAD_REACTORS
330
18
102
}
330
18
100
AcDbGroup
300

 70
     3
 71
     0
  0
GROUP
  5
640F
102
{ACAD_REACTORS
330
18
102
}
330
18
100
AcDbGroup
300

 70
     3
 71
     0
  0
GROUP
  5
62FA
102
{ACAD_REACTORS
330
18
102
}
330
18
100
AcDbGroup
300

 70
     3
 71
     0
  0
GROUP
  5
6366
102
{ACAD_REACTORS
330
18
102
}
330
18
100
AcDbGroup
300

 70
     3
 71
     0
  0
GROUP
  5
1C0B
102
{ACAD_REACTORS
330
18
102
}
330
18
100
AcDbGroup
300

 70
     3
 71
     0
  0
GROUP
  5
49A3
102
{ACAD_REACTORS
330
18
102
}
330
18
100
AcDbGroup
300

 70
     3
 71
     0
  0
GROUP
  5
1B0F
102
{ACAD_REACTORS
330
18
102
}
330
18
100
AcDbGroup
300

 70
     3
 71
     0
  0
GROUP
  5
1ADB
102
{ACAD_REACTORS
330
18
102
}
330
18
100
AcDbGroup
300

 70
     3
 71
     0
  0
GROUP
  5
494F
102
{ACAD_REACTORS
330
18
102
}
330
18
100
AcDbGroup
300

 70
     3
 71
     0
  0
GROUP
  5
6235
102
{ACAD_REACTORS
330
18
102
}
330
18
100
AcDbGroup
300

 70
     3
 71
     0
  0
GROUP
  5
48FD
102
{ACAD_REACTORS
330
18
102
}
330
18
100
AcDbGroup
300

 70
     3
 71
     0
  0
GROUP
  5
1B9B
102
{ACAD_REACTORS
330
18
102
}
330
18
100
AcDbGroup
300

 70
     3
 71
     0
  0
GROUP
  5
4906
102
{ACAD_REACTORS
330
18
102
}
330
18
100
AcDbGroup
300

 70
     3
 71
     0
  0
GROUP
  5
6380
102
{ACAD_REACTORS
330
18
102
}
330
18
100
AcDbGroup
300

 70
     3
 71
     0
  0
GROUP
  5
49A4
102
{ACAD_REACTORS
330
18
102
}
330
18
100
AcDbGroup
300

 70
     3
 71
     0
  0
GROUP
  5
486D
102
{ACAD_REACTORS
330
18
102
}
330
18
100
AcDbGroup
300

 70
     3
 71
     0
  0
GROUP
  5
482A
102
{ACAD_REACTORS
330
18
102
}
330
18
100
AcDbGroup
300

 70
     3
 71
     0
  0
GROUP
  5
4835
102
{ACAD_REACTORS
330
18
102
}
330
18
100
AcDbGroup
300

 70
     3
 71
     0
  0
GROUP
  5
1C11
102
{ACAD_REACTORS
330
18
102
}
330
18
100
AcDbGroup
300

 70
     3
 71
     0
  0
GROUP
  5
483B
102
{ACAD_REACTORS
330
18
102
}
330
18
100
AcDbGroup
300

 70
     3
 71
     0
  0
GROUP
  5
4965
102
{ACAD_REACTORS
330
18
102
}
330
18
100
AcDbGroup
300

 70
     3
 71
     0
  0
GROUP
  5
4904
102
{ACAD_REACTORS
330
18
102
}
330
18
100
AcDbGroup
300

 70
     3
 71
     0
  0
GROUP
  5
1AEA
102
{ACAD_REACTORS
330
18
102
}
330
18
100
AcDbGroup
300

 70
     3
 71
     0
  0
GROUP
  5
1C0A
102
{ACAD_REACTORS
330
18
102
}
330
18
100
AcDbGroup
300

 70
     3
 71
     0
  0
GROUP
  5
1AD3
102
{ACAD_REACTORS
330
18
102
}
330
18
100
AcDbGroup
300

 70
     3
 71
     0
  0
GROUP
  5
6296
102
{ACAD_REACTORS
330
18
102
}
330
18
100
AcDbGroup
300

 70
     3
 71
     0
  0
GROUP
  5
48CF
102
{ACAD_REACTORS
330
18
102
}
330
18
100
AcDbGroup
300

 70
     3
 71
     0
  0
GROUP
  5
6257
102
{ACAD_REACTORS
330
18
102
}
330
18
100
AcDbGroup
300

 70
     3
 71
     0
  0
GROUP
  5
1ACB
102
{ACAD_REACTORS
330
18
102
}
330
18
100
AcDbGroup
300

 70
     3
 71
     0
  0
GROUP
  5
1B05
102
{ACAD_REACTORS
330
18
102
}
330
18
100
AcDbGroup
300

 70
     3
 71
     0
  0
GROUP
  5
48B6
102
{ACAD_REACTORS
330
18
102
}
330
18
100
AcDbGroup
300

 70
     3
 71
     0
  0
GROUP
  5
498E
102
{ACAD_REACTORS
330
18
102
}
330
18
100
AcDbGroup
300

 70
     3
 71
     0
  0
GROUP
  5
4876
102
{ACAD_REACTORS
330
18
102
}
330
18
100
AcDbGroup
300

 70
     3
 71
     0
  0
GROUP
  5
62FC
102
{ACAD_REACTORS
330
18
102
}
330
18
100
AcDbGroup
300

 70
     3
 71
     0
  0
GROUP
  5
48C0
102
{ACAD_REACTORS
330
18
102
}
330
18
100
AcDbGroup
300

 70
     3
 71
     0
  0
GROUP
  5
484F
102
{ACAD_REACTORS
330
18
102
}
330
18
100
AcDbGroup
300

 70
     3
 71
     0
  0
GROUP
  5
4976
102
{ACAD_REACTORS
330
18
102
}
330
18
100
AcDbGroup
300

 70
     3
 71
     0
  0
GROUP
  5
1BA0
102
{ACAD_REACTORS
330
18
102
}
330
18
100
AcDbGroup
300

 70
     3
 71
     0
  0
GROUP
  5
63A0
102
{ACAD_REACTORS
330
18
102
}
330
18
100
AcDbGroup
300

 70
     3
 71
     0
  0
GROUP
  5
1BA9
102
{ACAD_REACTORS
330
18
102
}
330
18
100
AcDbGroup
300

 70
     3
 71
     0
  0
GROUP
  5
48A6
102
{ACAD_REACTORS
330
18
102
}
330
18
100
AcDbGroup
300

 70
     3
 71
     0
  0
GROUP
  5
6411
102
{ACAD_REACTORS
330
18
102
}
330
18
100
AcDbGroup
300

 70
     3
 71
     0
  0
GROUP
  5
6374
102
{ACAD_REACTORS
330
18
102
}
330
18
100
AcDbGroup
300

 70
     3
 71
     0
  0
GROUP
  5
1C55
102
{ACAD_REACTORS
330
18
102
}
330
18
100
AcDbGroup
300

 70
     3
 71
     0
  0
GROUP
  5
1B81
102
{ACAD_REACTORS
330
18
102
}
330
18
100
AcDbGroup
300

 70
     3
 71
     0
  0
GROUP
  5
498B
102
{ACAD_REACTORS
330
18
102
}
330
18
100
AcDbGroup
300

 70
     3
 71
     0
  0
GROUP
  5
627A
102
{ACAD_REACTORS
330
18
102
}
330
18
100
AcDbGroup
300

 70
     3
 71
     0
  0
GROUP
  5
1B29
102
{ACAD_REACTORS
330
18
102
}
330
18
100
AcDbGroup
300

 70
     3
 71
     0
  0
GROUP
  5
48FB
102
{ACAD_REACTORS
330
18
102
}
330
18
100
AcDbGroup
300

 70
     3
 71
     0
  0
GROUP
  5
63A7
102
{ACAD_REACTORS
330
18
102
}
330
18
100
AcDbGroup
300

 70
     3
 71
     0
  0
GROUP
  5
4854
102
{ACAD_REACTORS
330
18
102
}
330
18
100
AcDbGroup
300

 70
     3
 71
     0
  0
GROUP
  5
1AFE
102
{ACAD_REACTORS
330
18
102
}
330
18
100
AcDbGroup
300

 70
     3
 71
     0
  0
GROUP
  5
6265
102
{ACAD_REACTORS
330
18
102
}
330
18
100
AcDbGroup
300

 70
     3
 71
     0
  0
GROUP
  5
37C3
102
{ACAD_REACTORS
330
18
102
}
330
18
100
AcDbGroup
300

 70
     3
 71
     0
  0
GROUP
  5
480D
102
{ACAD_REACTORS
330
18
102
}
330
18
100
AcDbGroup
300

 70
     3
 71
     0
  0
GROUP
  5
49C6
102
{ACAD_REACTORS
330
18
102
}
330
18
100
AcDbGroup
300

 70
     3
 71
     0
  0
GROUP
  5
6254
102
{ACAD_REACTORS
330
18
102
}
330
18
100
AcDbGroup
300

 70
     3
 71
     0
  0
GROUP
  5
1C5F
102
{ACAD_REACTORS
330
18
102
}
330
18
100
AcDbGroup
300

 70
     3
 71
     0
  0
GROUP
  5
1BC5
102
{ACAD_REACTORS
330
18
102
}
330
18
100
AcDbGroup
300

 70
     3
 71
     0
  0
GROUP
  5
1455
102
{ACAD_REACTORS
330
18
102
}
330
18
100
AcDbGroup
300

 70
     3
 71
     0
  0
GROUP
  5
48CE
102
{ACAD_REACTORS
330
18
102
}
330
18
100
AcDbGroup
300

 70
     3
 71
     0
  0
GROUP
  5
6345
102
{ACAD_REACTORS
330
18
102
}
330
18
100
AcDbGroup
300

 70
     3
 71
     0
  0
GROUP
  5
6287
102
{ACAD_REACTORS
330
18
102
}
330
18
100
AcDbGroup
300

 70
     3
 71
     0
  0
GROUP
  5
63F3
102
{ACAD_REACTORS
330
18
102
}
330
18
100
AcDbGroup
300

 70
     3
 71
     0
  0
GROUP
  5
63E0
102
{ACAD_REACTORS
330
18
102
}
330
18
100
AcDbGroup
300

 70
     3
 71
     0
  0
GROUP
  5
37A2
102
{ACAD_REACTORS
330
18
102
}
330
18
100
AcDbGroup
300

 70
     3
 71
     0
  0
GROUP
  5
1B32
102
{ACAD_REACTORS
330
18
102
}
330
18
100
AcDbGroup
300

 70
     3
 71
     0
  0
GROUP
  5
6367
102
{ACAD_REACTORS
330
18
102
}
330
18
100
AcDbGroup
300

 70
     3
 71
     0
  0
GROUP
  5
62E4
102
{ACAD_REACTORS
330
18
102
}
330
18
100
AcDbGroup
300

 70
     3
 71
     0
  0
GROUP
  5
494B
102
{ACAD_REACTORS
330
18
102
}
330
18
100
AcDbGroup
300

 70
     3
 71
     0
  0
GROUP
  5
1C49
102
{ACAD_REACTORS
330
18
102
}
330
18
100
AcDbGroup
300

 70
     3
 71
     0
  0
GROUP
  5
1B30
102
{ACAD_REACTORS
330
18
102
}
330
18
100
AcDbGroup
300

 70
     3
 71
     0
  0
GROUP
  5
49DF
102
{ACAD_REACTORS
330
18
102
}
330
18
100
AcDbGroup
300

 70
     3
 71
     0
  0
GROUP
  5
629D
102
{ACAD_REACTORS
330
18
102
}
330
18
100
AcDbGroup
300

 70
     3
 71
     0
  0
GROUP
  5
6419
102
{ACAD_REACTORS
330
18
102
}
330
18
100
AcDbGroup
300

 70
     3
 71
     0
  0
GROUP
  5
49F7
102
{ACAD_REACTORS
330
18
102
}
330
18
100
AcDbGroup
300

 70
     3
 71
     0
  0
GROUP
  5
641C
102
{ACAD_REACTORS
330
18
102
}
330
18
100
AcDbGroup
300

 70
     3
 71
     0
  0
GROUP
  5
6355
102
{ACAD_REACTORS
330
18
102
}
330
18
100
AcDbGroup
300

 70
     3
 71
     0
  0
GROUP
  5
63C0
102
{ACAD_REACTORS
330
18
102
}
330
18
100
AcDbGroup
300

 70
     3
 71
     0
  0
GROUP
  5
63CC
102
{ACAD_REACTORS
330
18
102
}
330
18
100
AcDbGroup
300

 70
     3
 71
     0
  0
GROUP
  5
62DB
102
{ACAD_REACTORS
330
18
102
}
330
18
100
AcDbGroup
300

 70
     3
 71
     0
  0
GROUP
  5
4826
102
{ACAD_REACTORS
330
18
102
}
330
18
100
AcDbGroup
300

 70
     3
 71
     0
  0
GROUP
  5
6305
102
{ACAD_REACTORS
330
18
102
}
330
18
100
AcDbGroup
300

 70
     3
 71
     0
  0
GROUP
  5
6293
102
{ACAD_REACTORS
330
18
102
}
330
18
100
AcDbGroup
300

 70
     3
 71
     0
  0
GROUP
  5
1AE7
102
{ACAD_REACTORS
330
18
102
}
330
18
100
AcDbGroup
300

 70
     3
 71
     0
  0
GROUP
  5
6426
102
{ACAD_REACTORS
330
18
102
}
330
18
100
AcDbGroup
300

 70
     3
 71
     0
  0
GROUP
  5
6410
102
{ACAD_REACTORS
330
18
102
}
330
18
100
AcDbGroup
300

 70
     3
 71
     0
  0
GROUP
  5
1B4E
102
{ACAD_REACTORS
330
18
102
}
330
18
100
AcDbGroup
300

 70
     3
 71
     0
  0
GROUP
  5
1C16
102
{ACAD_REACTORS
330
18
102
}
330
18
100
AcDbGroup
300

 70
     3
 71
     0
  0
GROUP
  5
48D7
102
{ACAD_REACTORS
330
18
102
}
330
18
100
AcDbGroup
300

 70
     3
 71
     0
  0
GROUP
  5
1C26
102
{ACAD_REACTORS
330
18
102
}
330
18
100
AcDbGroup
300

 70
     3
 71
     0
  0
GROUP
  5
1BE7
102
{ACAD_REACTORS
330
18
102
}
330
18
100
AcDbGroup
300

 70
     3
 71
     0
  0
GROUP
  5
6376
102
{ACAD_REACTORS
330
18
102
}
330
18
100
AcDbGroup
300

 70
     3
 71
     0
  0
GROUP
  5
49F9
102
{ACAD_REACTORS
330
18
102
}
330
18
100
AcDbGroup
300

 70
     3
 71
     0
  0
GROUP
  5
37B8
102
{ACAD_REACTORS
330
18
102
}
330
18
100
AcDbGroup
300

 70
     3
 71
     0
  0
GROUP
  5
1AF9
102
{ACAD_REACTORS
330
18
102
}
330
18
100
AcDbGroup
300

 70
     3
 71
     0
  0
GROUP
  5
4994
102
{ACAD_REACTORS
330
18
102
}
330
18
100
AcDbGroup
300

 70
     3
 71
     0
  0
GROUP
  5
1BA7
102
{ACAD_REACTORS
330
18
102
}
330
18
100
AcDbGroup
300

 70
     3
 71
     0
  0
GROUP
  5
1B67
102
{ACAD_REACTORS
330
18
102
}
330
18
100
AcDbGroup
300

 70
     3
 71
     0
  0
GROUP
  5
37AF
102
{ACAD_REACTORS
330
18
102
}
330
18
100
AcDbGroup
300

 70
     3
 71
     0
  0
GROUP
  5
4941
102
{ACAD_REACTORS
330
18
102
}
330
18
100
AcDbGroup
300

 70
     3
 71
     0
  0
GROUP
  5
624A
102
{ACAD_REACTORS
330
18
102
}
330
18
100
AcDbGroup
300

 70
     3
 71
     0
  0
GROUP
  5
1B31
102
{ACAD_REACTORS
330
18
102
}
330
18
100
AcDbGroup
300

 70
     3
 71
     0
  0
GROUP
  5
6336
102
{ACAD_REACTORS
330
18
102
}
330
18
100
AcDbGroup
300

 70
     3
 71
     0
  0
GROUP
  5
1B4D
102
{ACAD_REACTORS
330
18
102
}
330
18
100
AcDbGroup
300

 70
     3
 71
     0
  0
GROUP
  5
1AF8
102
{ACAD_REACTORS
330
18
102
}
330
18
100
AcDbGroup
300

 70
     3
 71
     0
  0
GROUP
  5
63DF
102
{ACAD_REACTORS
330
18
102
}
330
18
100
AcDbGroup
300

 70
     3
 71
     0
  0
GROUP
  5
63D8
102
{ACAD_REACTORS
330
18
102
}
330
18
100
AcDbGroup
300

 70
     3
 71
     0
  0
GROUP
  5
6251
102
{ACAD_REACTORS
330
18
102
}
330
18
100
AcDbGroup
300

 70
     3
 71
     0
  0
GROUP
  5
482F
102
{ACAD_REACTORS
330
18
102
}
330
18
100
AcDbGroup
300

 70
     3
 71
     0
  0
GROUP
  5
488E
102
{ACAD_REACTORS
330
18
102
}
330
18
100
AcDbGroup
300

 70
     3
 71
     0
  0
GROUP
  5
1BC6
102
{ACAD_REACTORS
330
18
102
}
330
18
100
AcDbGroup
300

 70
     3
 71
     0
  0
GROUP
  5
1C2A
102
{ACAD_REACTORS
330
18
102
}
330
18
100
AcDbGroup
300

 70
     3
 71
     0
  0
GROUP
  5
1B96
102
{ACAD_REACTORS
330
18
102
}
330
18
100
AcDbGroup
300

 70
     3
 71
     0
  0
GROUP
  5
49A7
102
{ACAD_REACTORS
330
18
102
}
330
18
100
AcDbGroup
300

 70
     3
 71
     0
  0
GROUP
  5
489A
102
{ACAD_REACTORS
330
18
102
}
330
18
100
AcDbGroup
300

 70
     3
 71
     0
  0
GROUP
  5
6246
102
{ACAD_REACTORS
330
18
102
}
330
18
100
AcDbGroup
300

 70
     3
 71
     0
  0
GROUP
  5
496D
102
{ACAD_REACTORS
330
18
102
}
330
18
100
AcDbGroup
300

 70
     3
 71
     0
  0
GROUP
  5
62DA
102
{ACAD_REACTORS
330
18
102
}
330
18
100
AcDbGroup
300

 70
     3
 71
     0
  0
GROUP
  5
499E
102
{ACAD_REACTORS
330
18
102
}
330
18
100
AcDbGroup
300

 70
     3
 71
     0
  0
GROUP
  5
640D
102
{ACAD_REACTORS
330
18
102
}
330
18
100
AcDbGroup
300

 70
     3
 71
     0
  0
GROUP
  5
1BAF
102
{ACAD_REACTORS
330
18
102
}
330
18
100
AcDbGroup
300

 70
     3
 71
     0
  0
GROUP
  5
6349
102
{ACAD_REACTORS
330
18
102
}
330
18
100
AcDbGroup
300

 70
     3
 71
     0
  0
GROUP
  5
48A7
102
{ACAD_REACTORS
330
18
102
}
330
18
100
AcDbGroup
300

 70
     3
 71
     0
  0
GROUP
  5
1C30
102
{ACAD_REACTORS
330
18
102
}
330
18
100
AcDbGroup
300

 70
     3
 71
     0
  0
GROUP
  5
1B2D
102
{ACAD_REACTORS
330
18
102
}
330
18
100
AcDbGroup
300

 70
     3
 71
     0
  0
GROUP
  5
49D1
102
{ACAD_REACTORS
330
18
102
}
330
18
100
AcDbGroup
300

 70
     3
 71
     0
  0
GROUP
  5
4969
102
{ACAD_REACTORS
330
18
102
}
330
18
100
AcDbGroup
300

 70
     3
 71
     0
  0
GROUP
  5
48EA
102
{ACAD_REACTORS
330
18
102
}
330
18
100
AcDbGroup
300

 70
     3
 71
     0
  0
GROUP
  5
493E
102
{ACAD_REACTORS
330
18
102
}
330
18
100
AcDbGroup
300

 70
     3
 71
     0
  0
GROUP
  5
49F2
102
{ACAD_REACTORS
330
18
102
}
330
18
100
AcDbGroup
300

 70
     3
 71
     0
  0
GROUP
  5
62E8
102
{ACAD_REACTORS
330
18
102
}
330
18
100
AcDbGroup
300

 70
     3
 71
     0
  0
GROUP
  5
6225
102
{ACAD_REACTORS
330
18
102
}
330
18
100
AcDbGroup
300

 70
     3
 71
     0
  0
GROUP
  5
62D7
102
{ACAD_REACTORS
330
18
102
}
330
18
100
AcDbGroup
300

 70
     3
 71
     0
  0
GROUP
  5
62F0
102
{ACAD_REACTORS
330
18
102
}
330
18
100
AcDbGroup
300

 70
     3
 71
     0
  0
GROUP
  5
1B01
102
{ACAD_REACTORS
330
18
102
}
330
18
100
AcDbGroup
300

 70
     3
 71
     0
  0
GROUP
  5
1C38
102
{ACAD_REACTORS
330
18
102
}
330
18
100
AcDbGroup
300

 70
     3
 71
     0
  0
GROUP
  5
4939
102
{ACAD_REACTORS
330
18
102
}
330
18
100
AcDbGroup
300

 70
     3
 71
     0
  0
GROUP
  5
623E
102
{ACAD_REACTORS
330
18
102
}
330
18
100
AcDbGroup
300

 70
     3
 71
     0
  0
GROUP
  5
48DB
102
{ACAD_REACTORS
330
18
102
}
330
18
100
AcDbGroup
300

 70
     3
 71
     0
  0
GROUP
  5
63A4
102
{ACAD_REACTORS
330
18
102
}
330
18
100
AcDbGroup
300

 70
     3
 71
     0
  0
GROUP
  5
49AF
102
{ACAD_REACTORS
330
18
102
}
330
18
100
AcDbGroup
300

 70
     3
 71
     0
  0
GROUP
  5
623A
102
{ACAD_REACTORS
330
18
102
}
330
18
100
AcDbGroup
300

 70
     3
 71
     0
  0
GROUP
  5
6403
102
{ACAD_REACTORS
330
18
102
}
330
18
100
AcDbGroup
300

 70
     3
 71
     0
  0
GROUP
  5
62B3
102
{ACAD_REACTORS
330
18
102
}
330
18
100
AcDbGroup
300

 70
     3
 71
     0
  0
GROUP
  5
4987
102
{ACAD_REACTORS
330
18
102
}
330
18
100
AcDbGroup
300

 70
     3
 71
     0
  0
GROUP
  5
1B9C
102
{ACAD_REACTORS
330
18
102
}
330
18
100
AcDbGroup
300

 70
     3
 71
     0
  0
GROUP
  5
1AF1
102
{ACAD_REACTORS
330
18
102
}
330
18
100
AcDbGroup
300

 70
     3
 71
     0
  0
GROUP
  5
6250
102
{ACAD_REACTORS
330
18
102
}
330
18
100
AcDbGroup
300

 70
     3
 71
     0
  0
GROUP
  5
6372
102
{ACAD_REACTORS
330
18
102
}
330
18
100
AcDbGroup
300

 70
     3
 71
     0
  0
GROUP
  5
4963
102
{ACAD_REACTORS
330
18
102
}
330
18
100
AcDbGroup
300

 70
     3
 71
     0
  0
GROUP
  5
4832
102
{ACAD_REACTORS
330
18
102
}
330
18
100
AcDbGroup
300

 70
     3
 71
     0
  0
GROUP
  5
6351
102
{ACAD_REACTORS
330
18
102
}
330
18
100
AcDbGroup
300

 70
     3
 71
     0
  0
GROUP
  5
6243
102
{ACAD_REACTORS
330
18
102
}
330
18
100
AcDbGroup
300

 70
     3
 71
     0
  0
GROUP
  5
48EF
102
{ACAD_REACTORS
330
18
102
}
330
18
100
AcDbGroup
300

 70
     3
 71
     0
  0
GROUP
  5
62D0
102
{ACAD_REACTORS
330
18
102
}
330
18
100
AcDbGroup
300

 70
     3
 71
     0
  0
GROUP
  5
1AE6
102
{ACAD_REACTORS
330
18
102
}
330
18
100
AcDbGroup
300

 70
     3
 71
     0
  0
GROUP
  5
6409
102
{ACAD_REACTORS
330
18
102
}
330
18
100
AcDbGroup
300

 70
     3
 71
     0
  0
GROUP
  5
48D5
102
{ACAD_REACTORS
330
18
102
}
330
18
100
AcDbGroup
300

 70
     3
 71
     0
  0
GROUP
  5
6422
102
{ACAD_REACTORS
330
18
102
}
330
18
100
AcDbGroup
300

 70
     3
 71
     0
  0
GROUP
  5
63FD
102
{ACAD_REACTORS
330
18
102
}
330
18
100
AcDbGroup
300

 70
     3
 71
     0
  0
GROUP
  5
628A
102
{ACAD_REACTORS
330
18
102
}
330
18
100
AcDbGroup
300

 70
     3
 71
     0
  0
GROUP
  5
4A00
102
{ACAD_REACTORS
330
18
102
}
330
18
100
AcDbGroup
300

 70
     3
 71
     0
  0
GROUP
  5
6258
102
{ACAD_REACTORS
330
18
102
}
330
18
100
AcDbGroup
300

 70
     3
 71
     0
  0
GROUP
  5
1BC8
102
{ACAD_REACTORS
330
18
102
}
330
18
100
AcDbGroup
300

 70
     3
 71
     0
  0
GROUP
  5
491D
102
{ACAD_REACTORS
330
18
102
}
330
18
100
AcDbGroup
300

 70
     3
 71
     0
  0
GROUP
  5
37BA
102
{ACAD_REACTORS
330
18
102
}
330
18
100
AcDbGroup
300

 70
     3
 71
     0
  0
GROUP
  5
1BE6
102
{ACAD_REACTORS
330
18
102
}
330
18
100
AcDbGroup
300

 70
     3
 71
     0
  0
GROUP
  5
4934
102
{ACAD_REACTORS
330
18
102
}
330
18
100
AcDbGroup
300

 70
     3
 71
     0
  0
GROUP
  5
4875
102
{ACAD_REACTORS
330
18
102
}
330
18
100
AcDbGroup
300

 70
     3
 71
     0
  0
GROUP
  5
4831
102
{ACAD_REACTORS
330
18
102
}
330
18
100
AcDbGroup
300

 70
     3
 71
     0
  0
GROUP
  5
630B
102
{ACAD_REACTORS
330
18
102
}
330
18
100
AcDbGroup
300

 70
     3
 71
     0
  0
GROUP
  5
6353
102
{ACAD_REACTORS
330
18
102
}
330
18
100
AcDbGroup
300

 70
     3
 71
     0
  0
GROUP
  5
62A7
102
{ACAD_REACTORS
330
18
102
}
330
18
100
AcDbGroup
300

 70
     3
 71
     0
  0
GROUP
  5
1B0D
102
{ACAD_REACTORS
330
18
102
}
330
18
100
AcDbGroup
300

 70
     3
 71
     0
  0
GROUP
  5
1B39
102
{ACAD_REACTORS
330
18
102
}
330
18
100
AcDbGroup
300

 70
     3
 71
     0
  0
GROUP
  5
1AD5
102
{ACAD_REACTORS
330
18
102
}
330
18
100
AcDbGroup
300

 70
     3
 71
     0
  0
GROUP
  5
489C
102
{ACAD_REACTORS
330
18
102
}
330
18
100
AcDbGroup
300

 70
     3
 71
     0
  0
GROUP
  5
1AF7
102
{ACAD_REACTORS
330
18
102
}
330
18
100
AcDbGroup
300

 70
     3
 71
     0
  0
GROUP
  5
623B
102
{ACAD_REACTORS
330
18
102
}
330
18
100
AcDbGroup
300

 70
     3
 71
     0
  0
GROUP
  5
1B4C
102
{ACAD_REACTORS
330
18
102
}
330
18
100
AcDbGroup
300

 70
     3
 71
     0
  0
GROUP
  5
627F
102
{ACAD_REACTORS
330
18
102
}
330
18
100
AcDbGroup
300

 70
     3
 71
     0
  0
GROUP
  5
6252
102
{ACAD_REACTORS
330
18
102
}
330
18
100
AcDbGroup
300

 70
     3
 71
     0
  0
GROUP
  5
48C3
102
{ACAD_REACTORS
330
18
102
}
330
18
100
AcDbGroup
300

 70
     3
 71
     0
  0
GROUP
  5
1BFF
102
{ACAD_REACTORS
330
18
102
}
330
18
100
AcDbGroup
300

 70
     3
 71
     0
  0
GROUP
  5
63D0
102
{ACAD_REACTORS
330
18
102
}
330
18
100
AcDbGroup
300

 70
     3
 71
     0
  0
GROUP
  5
621E
102
{ACAD_REACTORS
330
18
102
}
330
18
100
AcDbGroup
300

 70
     3
 71
     0
  0
GROUP
  5
6371
102
{ACAD_REACTORS
330
18
102
}
330
18
100
AcDbGroup
300

 70
     3
 71
     0
  0
GROUP
  5
49CC
102
{ACAD_REACTORS
330
18
102
}
330
18
100
AcDbGroup
300

 70
     3
 71
     0
  0
GROUP
  5
63A1
102
{ACAD_REACTORS
330
18
102
}
330
18
100
AcDbGroup
300

 70
     3
 71
     0
  0
GROUP
  5
62AB
102
{ACAD_REACTORS
330
18
102
}
330
18
100
AcDbGroup
300

 70
     3
 71
     0
  0
GROUP
  5
481A
102
{ACAD_REACTORS
330
18
102
}
330
18
100
AcDbGroup
300

 70
     3
 71
     0
  0
GROUP
  5
1BDB
102
{ACAD_REACTORS
330
18
102
}
330
18
100
AcDbGroup
300

 70
     3
 71
     0
  0
GROUP
  5
1B6D
102
{ACAD_REACTORS
330
18
102
}
330
18
100
AcDbGroup
300

 70
     3
 71
     0
  0
GROUP
  5
63F2
102
{ACAD_REACTORS
330
18
102
}
330
18
100
AcDbGroup
300

 70
     3
 71
     0
  0
GROUP
  5
4855
102
{ACAD_REACTORS
330
18
102
}
330
18
100
AcDbGroup
300

 70
     3
 71
     0
  0
GROUP
  5
1ADD
102
{ACAD_REACTORS
330
18
102
}
330
18
100
AcDbGroup
300

 70
     3
 71
     0
  0
GROUP
  5
1C12
102
{ACAD_REACTORS
330
18
102
}
330
18
100
AcDbGroup
300

 70
     3
 71
     0
  0
GROUP
  5
1C57
102
{ACAD_REACTORS
330
18
102
}
330
18
100
AcDbGroup
300

 70
     3
 71
     0
  0
GROUP
  5
484A
102
{ACAD_REACTORS
330
18
102
}
330
18
100
AcDbGroup
300

 70
     3
 71
     0
  0
GROUP
  5
4908
102
{ACAD_REACTORS
330
18
102
}
330
18
100
AcDbGroup
300

 70
     3
 71
     0
  0
GROUP
  5
6231
102
{ACAD_REACTORS
330
18
102
}
330
18
100
AcDbGroup
300

 70
     3
 71
     0
  0
GROUP
  5
4836
102
{ACAD_REACTORS
330
18
102
}
330
18
100
AcDbGroup
300

 70
     3
 71
     0
  0
GROUP
  5
4856
102
{ACAD_REACTORS
330
18
102
}
330
18
100
AcDbGroup
300

 70
     3
 71
     0
  0
GROUP
  5
48CB
102
{ACAD_REACTORS
330
18
102
}
330
18
100
AcDbGroup
300

 70
     3
 71
     0
  0
GROUP
  5
483E
102
{ACAD_REACTORS
330
18
102
}
330
18
100
AcDbGroup
300

 70
     3
 71
     0
  0
GROUP
  5
4809
102
{ACAD_REACTORS
330
18
102
}
330
18
100
AcDbGroup
300

 70
     3
 71
     0
  0
GROUP
  5
1BD9
102
{ACAD_REACTORS
330
18
102
}
330
18
100
AcDbGroup
300

 70
     3
 71
     0
  0
GROUP
  5
62E5
102
{ACAD_REACTORS
330
18
102
}
330
18
100
AcDbGroup
300

 70
     3
 71
     0
  0
GROUP
  5
63F5
102
{ACAD_REACTORS
330
18
102
}
330
18
100
AcDbGroup
300

 70
     3
 71
     0
  0
GROUP
  5
1AD6
102
{ACAD_REACTORS
330
18
102
}
330
18
100
AcDbGroup
300

 70
     3
 71
     0
  0
GROUP
  5
6420
102
{ACAD_REACTORS
330
18
102
}
330
18
100
AcDbGroup
300

 70
     3
 71
     0
  0
GROUP
  5
499D
102
{ACAD_REACTORS
330
18
102
}
330
18
100
AcDbGroup
300

 70
     3
 71
     0
  0
GROUP
  5
62B4
102
{ACAD_REACTORS
330
18
102
}
330
18
100
AcDbGroup
300

 70
     3
 71
     0
  0
GROUP
  5
49DA
102
{ACAD_REACTORS
330
18
102
}
330
18
100
AcDbGroup
300

 70
     3
 71
     0
  0
GROUP
  5
63BE
102
{ACAD_REACTORS
330
18
102
}
330
18
100
AcDbGroup
300

 70
     3
 71
     0
  0
GROUP
  5
1C5B
102
{ACAD_REACTORS
330
18
102
}
330
18
100
AcDbGroup
300

 70
     3
 71
     0
  0
GROUP
  5
6315
102
{ACAD_REACTORS
330
18
102
}
330
18
100
AcDbGroup
300

 70
     3
 71
     0
  0
GROUP
  5
4892
102
{ACAD_REACTORS
330
18
102
}
330
18
100
AcDbGroup
300

 70
     3
 71
     0
  0
GROUP
  5
630C
102
{ACAD_REACTORS
330
18
102
}
330
18
100
AcDbGroup
300

 70
     3
 71
     0
  0
GROUP
  5
4901
102
{ACAD_REACTORS
330
18
102
}
330
18
100
AcDbGroup
300

 70
     3
 71
     0
  0
GROUP
  5
1C60
102
{ACAD_REACTORS
330
18
102
}
330
18
100
AcDbGroup
300

 70
     3
 71
     0
  0
GROUP
  5
6413
102
{ACAD_REACTORS
330
18
102
}
330
18
100
AcDbGroup
300

 70
     3
 71
     0
  0
GROUP
  5
63C6
102
{ACAD_REACTORS
330
18
102
}
330
18
100
AcDbGroup
300

 70
     3
 71
     0
  0
GROUP
  5
1BA5
102
{ACAD_REACTORS
330
18
102
}
330
18
100
AcDbGroup
300

 70
     3
 71
     0
  0
GROUP
  5
4829
102
{ACAD_REACTORS
330
18
102
}
330
18
100
AcDbGroup
300

 70
     3
 71
     0
  0
GROUP
  5
48A3
102
{ACAD_REACTORS
330
18
102
}
330
18
100
AcDbGroup
300

 70
     3
 71
     0
  0
GROUP
  5
62EF
102
{ACAD_REACTORS
330
18
102
}
330
18
100
AcDbGroup
300

 70
     3
 71
     0
  0
GROUP
  5
6377
102
{ACAD_REACTORS
330
18
102
}
330
18
100
AcDbGroup
300

 70
     3
 71
     0
  0
GROUP
  5
4857
102
{ACAD_REACTORS
330
18
102
}
330
18
100
AcDbGroup
300

 70
     3
 71
     0
  0
GROUP
  5
4945
102
{ACAD_REACTORS
330
18
102
}
330
18
100
AcDbGroup
300

 70
     3
 71
     0
  0
GROUP
  5
1B94
102
{ACAD_REACTORS
330
18
102
}
330
18
100
AcDbGroup
300

 70
     3
 71
     0
  0
GROUP
  5
49B5
102
{ACAD_REACTORS
330
18
102
}
330
18
100
AcDbGroup
300

 70
     3
 71
     0
  0
GROUP
  5
1BFE
102
{ACAD_REACTORS
330
18
102
}
330
18
100
AcDbGroup
300

 70
     3
 71
     0
  0
GROUP
  5
63EF
102
{ACAD_REACTORS
330
18
102
}
330
18
100
AcDbGroup
300

 70
     3
 71
     0
  0
GROUP
  5
1BF0
102
{ACAD_REACTORS
330
18
102
}
330
18
100
AcDbGroup
300

 70
     3
 71
     0
  0
GROUP
  5
6405
102
{ACAD_REACTORS
330
18
102
}
330
18
100
AcDbGroup
300

 70
     3
 71
     0
  0
GROUP
  5
1C1D
102
{ACAD_REACTORS
330
18
102
}
330
18
100
AcDbGroup
300

 70
     3
 71
     0
  0
GROUP
  5
1BCF
102
{ACAD_REACTORS
330
18
102
}
330
18
100
AcDbGroup
300

 70
     3
 71
     0
  0
GROUP
  5
48C9
102
{ACAD_REACTORS
330
18
102
}
330
18
100
AcDbGroup
300

 70
     3
 71
     0
  0
GROUP
  5
1B6E
102
{ACAD_REACTORS
330
18
102
}
330
18
100
AcDbGroup
300

 70
     3
 71
     0
  0
GROUP
  5
6279
102
{ACAD_REACTORS
330
18
102
}
330
18
100
AcDbGroup
300

 70
     3
 71
     0
  0
GROUP
  5
63DC
102
{ACAD_REACTORS
330
18
102
}
330
18
100
AcDbGroup
300

 70
     3
 71
     0
  0
GROUP
  5
4842
102
{ACAD_REACTORS
330
18
102
}
330
18
100
AcDbGroup
300

 70
     3
 71
     0
  0
GROUP
  5
4A02
102
{ACAD_REACTORS
330
18
102
}
330
18
100
AcDbGroup
300

 70
     3
 71
     0
  0
GROUP
  5
1BEA
102
{ACAD_REACTORS
330
18
102
}
330
18
100
AcDbGroup
300

 70
     3
 71
     0
  0
GROUP
  5
1C5D
102
{ACAD_REACTORS
330
18
102
}
330
18
100
AcDbGroup
300

 70
     3
 71
     0
  0
GROUP
  5
631D
102
{ACAD_REACTORS
330
18
102
}
330
18
100
AcDbGroup
300

 70
     3
 71
     0
  0
GROUP
  5
1C25
102
{ACAD_REACTORS
330
18
102
}
330
18
100
AcDbGroup
300

 70
     3
 71
     0
  0
GROUP
  5
1B77
102
{ACAD_REACTORS
330
18
102
}
330
18
100
AcDbGroup
300

 70
     3
 71
     0
  0
GROUP
  5
49E3
102
{ACAD_REACTORS
330
18
102
}
330
18
100
AcDbGroup
300

 70
     3
 71
     0
  0
GROUP
  5
6337
102
{ACAD_REACTORS
330
18
102
}
330
18
100
AcDbGroup
300

 70
     3
 71
     0
  0
GROUP
  5
1B50
102
{ACAD_REACTORS
330
18
102
}
330
18
100
AcDbGroup
300

 70
     3
 71
     0
  0
GROUP
  5
48F8
102
{ACAD_REACTORS
330
18
102
}
330
18
100
AcDbGroup
300

 70
     3
 71
     0
  0
GROUP
  5
4A04
102
{ACAD_REACTORS
330
18
102
}
330
18
100
AcDbGroup
300

 70
     3
 71
     0
  0
GROUP
  5
636A
102
{ACAD_REACTORS
330
18
102
}
330
18
100
AcDbGroup
300

 70
     3
 71
     0
  0
GROUP
  5
6346
102
{ACAD_REACTORS
330
18
102
}
330
18
100
AcDbGroup
300

 70
     3
 71
     0
  0
GROUP
  5
6347
102
{ACAD_REACTORS
330
18
102
}
330
18
100
AcDbGroup
300

 70
     3
 71
     0
  0
GROUP
  5
4A0C
102
{ACAD_REACTORS
330
18
102
}
330
18
100
AcDbGroup
300

 70
     3
 71
     0
  0
GROUP
  5
640C
102
{ACAD_REACTORS
330
18
102
}
330
18
100
AcDbGroup
300

 70
     3
 71
     0
  0
GROUP
  5
49C4
102
{ACAD_REACTORS
330
18
102
}
330
18
100
AcDbGroup
300

 70
     3
 71
     0
  0
GROUP
  5
4887
102
{ACAD_REACTORS
330
18
102
}
330
18
100
AcDbGroup
300

 70
     3
 71
     0
  0
GROUP
  5
62B0
102
{ACAD_REACTORS
330
18
102
}
330
18
100
AcDbGroup
300

 70
     3
 71
     0
  0
GROUP
  5
48FA
102
{ACAD_REACTORS
330
18
102
}
330
18
100
AcDbGroup
300

 70
     3
 71
     0
  0
GROUP
  5
49F5
102
{ACAD_REACTORS
330
18
102
}
330
18
100
AcDbGroup
300

 70
     3
 71
     0
  0
GROUP
  5
6302
102
{ACAD_REACTORS
330
18
102
}
330
18
100
AcDbGroup
300

 70
     3
 71
     0
  0
GROUP
  5
62F7
102
{ACAD_REACTORS
330
18
102
}
330
18
100
AcDbGroup
300

 70
     3
 71
     0
  0
MLINESTYLE
  5
1D
102
{ACAD_REACTORS
330
19
102
}
330
19
100
AcDbMlineStyle
  2
STANDARD
 70
     0
  3

 62
     0
 51
90.0
 52
90.0
 71
     2
 49
0.5
 62
   256
  6
BYLAYER
 49
-0.5
 62
   256
  6
BYLAYER
  0
ACDBPLACEHOLDER
  5
EDC6
102
{ACAD_REACTORS
330
EDC5
102
}
330
EDC5
100
AcDbPlaceHolder
280
     0
  0
XRECORD
  5
1FE50
102
{ACAD_REACTORS
330
1FE46
102
}
330
1FE46
100
AcDbXrecord
 90
        0
  0
XRECORD
  5
1FE54
102
{ACAD_REACTORS
330
1FE46
102
}
330
1FE46
100
AcDbXrecord
1000
DSTYLE
1002
{
1070
    79
 70
     2
1070
   179
 70
     1
1002
}
  0
XRECORD
  5
1FE51
102
{ACAD_REACTORS
330
1FE46
102
}
330
1FE46
100
AcDbXrecord
  1
{5EB6113A-69ED-450E-876F-E97B1CCBD74B}
  0
XRECORD
  5
1FE49
102
{ACAD_REACTORS
330
1FE46
102
}
330
1FE46
100
AcDbXrecord
  1

  0
XRECORD
  5
1FE4F
102
{ACAD_REACTORS
330
1FE46
102
}
330
1FE46
100
AcDbXrecord
 90
        0
  0
XRECORD
  5
1FE4B
102
{ACAD_REACTORS
330
1FE46
102
}
330
1FE46
100
AcDbXrecord
340
EDC7
  0
XRECORD
  5
1FE4E
102
{ACAD_REACTORS
330
1FE46
102
}
330
1FE46
100
AcDbXrecord
 90
    14877
  0
XRECORD
  5
1FE4C
102
{ACAD_REACTORS
330
1FE46
102
}
330
1FE46
100
AcDbXrecord
340
EDC8
  0
XRECORD
  5
1FE4D
102
{ACAD_REACTORS
330
1FE46
102
}
330
1FE46
100
AcDbXrecord
340
EDC5
  0
XRECORD
  5
1FE53
102
{ACAD_REACTORS
330
1FE46
102
}
330
1FE46
100
AcDbXrecord
 40
0.0
  0
XRECORD
  5
1FE57
102
{ACAD_REACTORS
330
1FE46
102
}
330
1FE46
100
AcDbXrecord
340
0
  0
XRECORD
  5
1FE5D
102
{ACAD_REACTORS
330
1FE46
102
}
330
1FE46
100
AcDbXrecord
 10
0.0
 20
0.0
 30
0.0
  0
XRECORD
  5
1FE59
102
{ACAD_REACTORS
330
1FE46
102
}
330
1FE46
100
AcDbXrecord
 10
0.0
 20
0.0
 30
0.0
  0
XRECORD
  5
1FE5C
102
{ACAD_REACTORS
330
1FE46
102
}
330
1FE46
100
AcDbXrecord
 10
0.0
 20
0.0
 30
0.0
  0
XRECORD
  5
1FE5A
102
{ACAD_REACTORS
330
1FE46
102
}
330
1FE46
100
AcDbXrecord
 10
0.0
 20
0.0
 30
0.0
  0
XRECORD
  5
1FE5B
102
{ACAD_REACTORS
330
1FE46
102
}
330
1FE46
100
AcDbXrecord
 10
0.0
 20
0.0
 30
0.0
  0
XRECORD
  5
1FE58
102
{ACAD_REACTORS
330
1FE46
102
}
330
1FE46
100
AcDbXrecord
 10
0.0
 20
0.0
 30
0.0
  0
XRECORD
  5
1FE55
102
{ACAD_REACTORS
330
1FE46
102
}
330
1FE46
100
AcDbXrecord
340
0
  0
XRECORD
  5
1FE56
102
{ACAD_REACTORS
330
1FE46
102
}
330
1FE46
100
AcDbXrecord
 70
     0
  0
XRECORD
  5
1FE4A
102
{ACAD_REACTORS
330
1FE46
102
}
330
1FE46
100
AcDbXrecord
  1

  0
XRECORD
  5
1FE47
102
{ACAD_REACTORS
330
1FE46
102
}
330
1FE46
100
AcDbXrecord
 90
        1
  0
XRECORD
  5
1FE48
102
{ACAD_REACTORS
330
1FE46
102
}
330
1FE46
100
AcDbXrecord
 90
       70
  0
XRECORD
  5
1FE60
102
{ACAD_REACTORS
330
1FE46
102
}
330
1FE46
100
AcDbXrecord
340
0
  0
XRECORD
  5
1FE66
102
{ACAD_REACTORS
330
1FE46
102
}
330
1FE46
100
AcDbXrecord
 10
0.0
 20
0.0
 30
0.0
  0
XRECORD
  5
1FE62
102
{ACAD_REACTORS
330
1FE46
102
}
330
1FE46
100
AcDbXrecord
 10
0.0
 20
0.0
 30
0.0
  0
XRECORD
  5
1FE65
102
{ACAD_REACTORS
330
1FE46
102
}
330
1FE46
100
AcDbXrecord
 10
0.0
 20
0.0
 30
0.0
  0
XRECORD
  5
1FE63
102
{ACAD_REACTORS
330
1FE46
102
}
330
1FE46
100
AcDbXrecord
 10
0.0
 20
0.0
 30
0.0
  0
XRECORD
  5
1FE64
102
{ACAD_REACTORS
330
1FE46
102
}
330
1FE46
100
AcDbXrecord
 10
0.0
 20
0.0
 30
0.0
  0
XRECORD
  5
1FE61
102
{ACAD_REACTORS
330
1FE46
102
}
330
1FE46
100
AcDbXrecord
 10
0.0
 20
0.0
 30
0.0
  0
XRECORD
  5
1FE5E
102
{ACAD_REACTORS
330
1FE46
102
}
330
1FE46
100
AcDbXrecord
340
0
  0
XRECORD
  5
1FE5F
102
{ACAD_REACTORS
330
1FE46
102
}
330
1FE46
100
AcDbXrecord
 70
     0
  0
XRECORD
  5
1FE52
102
{ACAD_REACTORS
330
1FE46
102
}
330
1FE46
100
AcDbXrecord
  1
{3A0713B9-7E44-471A-A291-9D1CCFCBDF5D}
  0
DICTIONARYVAR
  5
EDE8
102
{ACAD_REACTORS
330
EDE7
102
}
330
EDE7
100
DictionaryVariables
280
     0
  1
1
  0
ENDSEC
  0
EOF
