  0
SECTION
  2
HEADER
  9
$ACADVER
  1
AC1014
  9
$ACADMAINTVER
 70
     9
  9
$DWGCODEPAGE
  3
ANSI_1252
  9
$INSBASE
 10
421.0218958999721
 20
357.7769748938917
 30
0.0
  9
$EXTMIN
 10
-7132.832250088853
 20
2684.533646176895
 30
0.0
  9
$EXTMAX
 10
-3503.460855966212
 20
5896.851113222137
 30
0.0
  9
$LIMMIN
 10
9749.260046900117
 20
-1602.70564605534
  9
$LIMMAX
 10
11438.24325486453
 20
-732.5285748461251
  9
$ORTHOMODE
 70
     1
  9
$REGENMODE
 70
     1
  9
$FILLMODE
 70
     1
  9
$QTEXTMODE
 70
     0
  9
$MIRRTEXT
 70
     1
  9
$DRAGMODE
 70
     2
  9
$LTSCALE
 40
5.0
  9
$OSMODE
 70
   128
  9
$ATTMODE
 70
     1
  9
$TEXTSIZE
 40
40.0
  9
$TRACEWID
 40
1.0
  9
$TEXTSTYLE
  7
ROMANS8
  9
$CLAYER
  8
VLB
  9
$CELTYPE
  6
BYLAYER
  9
$CECOLOR
 62
   256
  9
$CELTSCALE
 40
1.0
  9
$DELOBJ
 70
     1
  9
$DISPSILH
 70
     0
  9
$DIMSCALE
 40
20.0
  9
$DIMASZ
 40
3.5
  9
$DIMEXO
 40
0.1
  9
$DIMDLI
 40
7.0
  9
$DIMRND
 40
0.0
  9
$DIMDLE
 40
0.0
  9
$DIMEXE
 40
1.8
  9
$DIMTP
 40
0.0
  9
$DIMTM
 40
0.0
  9
$DIMTXT
 40
3.5
  9
$DIMCEN
 40
0.0
  9
$DIMTSZ
 40
0.0
  9
$DIMTOL
 70
     0
  9
$DIMLIM
 70
     0
  9
$DIMTIH
 70
     0
  9
$DIMTOH
 70
     0
  9
$DIMSE1
 70
     0
  9
$DIMSE2
 70
     0
  9
$DIMTAD
 70
     1
  9
$DIMZIN
 70
     8
  9
$DIMBLK
  1

  9
$DIMASO
 70
     1
  9
$DIMSHO
 70
     0
  9
$DIMPOST
  1

  9
$DIMAPOST
  1

  9
$DIMALT
 70
     0
  9
$DIMALTD
 70
     2
  9
$DIMALTF
 40
25.4
  9
$DIMLFAC
 40
1.0
  9
$DIMTOFL
 70
     0
  9
$DIMTVP
 40
0.0
  9
$DIMTIX
 70
     0
  9
$DIMSOXD
 70
     0
  9
$DIMSAH
 70
     0
  9
$DIMBLK1
  1

  9
$DIMBLK2
  1

  9
$DIMSTYLE
  2
1_20
  9
$DIMCLRD
 70
   256
  9
$DIMCLRE
 70
   256
  9
$DIMCLRT
 70
   256
  9
$DIMTFAC
 40
1.0
  9
$DIMGAP
 40
1.7
  9
$DIMJUST
 70
     0
  9
$DIMSD1
 70
     0
  9
$DIMSD2
 70
     0
  9
$DIMTOLJ
 70
     1
  9
$DIMTZIN
 70
     8
  9
$DIMALTZ
 70
     0
  9
$DIMALTTZ
 70
     0
  9
$DIMFIT
 70
     3
  9
$DIMUPT
 70
     1
  9
$DIMUNIT
 70
     2
  9
$DIMDEC
 70
     4
  9
$DIMTDEC
 70
     4
  9
$DIMALTU
 70
     2
  9
$DIMALTTD
 70
     2
  9
$DIMTXSTY
  7
ROMANS
  9
$DIMAUNIT
 70
     0
  9
$LUNITS
 70
     2
  9
$LUPREC
 70
     2
  9
$SKETCHINC
 40
1.0
  9
$FILLETRAD
 40
0.0
  9
$AUNITS
 70
     0
  9
$AUPREC
 70
     2
  9
$MENU
  1
ACAD
  9
$ELEVATION
 40
0.0
  9
$PELEVATION
 40
0.0
  9
$THICKNESS
 40
0.0
  9
$LIMCHECK
 70
     0
  9
$BLIPMODE
 70
     0
  9
$CHAMFERA
 40
15.0
  9
$CHAMFERB
 40
15.0
  9
$CHAMFERC
 40
0.0
  9
$CHAMFERD
 40
0.0
  9
$SKPOLY
 70
     0
  9
$TDCREATE
 40
2453677.393372893
  9
$TDUPDATE
 40
2453682.579254803
  9
$TDINDWG
 40
0.4889935417
  9
$TDUSRTIMER
 40
0.4889914583
  9
$USRTIMER
 70
     1
  9
$ANGBASE
 50
0.0
  9
$ANGDIR
 70
     0
  9
$PDMODE
 70
     2
  9
$PDSIZE
 40
2.0
  9
$PLINEWID
 40
0.0
  9
$COORDS
 70
     0
  9
$SPLFRAME
 70
     0
  9
$SPLINETYPE
 70
     6
  9
$SPLINESEGS
 70
     8
  9
$ATTDIA
 70
     0
  9
$ATTREQ
 70
     1
  9
$HANDLING
 70
 22529
  9
$HANDSEED
  5
1FE6B
  9
$SURFTAB1
 70
     6
  9
$SURFTAB2
 70
     6
  9
$SURFTYPE
 70
     6
  9
$SURFU
 70
     6
  9
$SURFV
 70
     6
  9
$UCSNAME
  2

  9
$UCSORG
 10
10154.57763192681
 20
-1347.460051185509
 30
0.0
  9
$UCSXDIR
 10
1.0
 20
0.0
 30
0.0
  9
$UCSYDIR
 10
0.0
 20
1.0
 30
0.0
  9
$PUCSNAME
  2

  9
$PUCSORG
 10
0.0
 20
0.0
 30
0.0
  9
$PUCSXDIR
 10
1.0
 20
0.0
 30
0.0
  9
$PUCSYDIR
 10
0.0
 20
1.0
 30
0.0
  9
$USERI1
 70
     0
  9
$USERI2
 70
     0
  9
$USERI3
 70
     0
  9
$USERI4
 70
     0
  9
$USERI5
 70
     0
  9
$USERR1
 40
0.0
  9
$USERR2
 40
0.0
  9
$USERR3
 40
0.0
  9
$USERR4
 40
0.0
  9
$USERR5
 40
0.0
  9
$WORLDVIEW
 70
     1
  9
$SHADEDGE
 70
     3
  9
$SHADEDIF
 70
    70
  9
$TILEMODE
 70
     1
  9
$MAXACTVP
 70
    16
  9
$PINSBASE
 10
0.0
 20
0.0
 30
0.0
  9
$PLIMCHECK
 70
     0
  9
$PEXTMIN
 10
-559.9955194189885
 20
-11.99914987354685
 30
0.0
  9
$PEXTMAX
 10
898.8167291158939
 20
692.004025362777
 30
5.0
  9
$PLIMMIN
 10
-581.4504078847034
 20
-42.42333302514301
  9
$PLIMMAX
 10
920.2716460794404
 20
1019.530090726515
  9
$UNITMODE
 70
     1
  9
$VISRETAIN
 70
     0
  9
$PLINEGEN
 70
     0
  9
$PSLTSCALE
 70
     0
  9
$TREEDEPTH
 70
  3020
  9
$PICKSTYLE
 70
     1
  9
$CMLSTYLE
  2
STANDARD
  9
$CMLJUST
 70
     0
  9
$CMLSCALE
 40
1.0
  9
$PROXYGRAPHICS
 70
     1
  9
$MEASUREMENT
 70
     1
  0
ENDSEC
  0
SECTION
  2
CLASSES
  0
CLASS
  1
IDBUFFER
  2
AcDbIdBuffer
  3
AutoCAD 2000
 90
        0
280
     0
281
     0
  0
CLASS
  1
LWPOLYLINE
  2
AcDbPolyline
  3
AutoCAD 2000
 90
        0
280
     0
281
     1
  0
CLASS
  1
DICTIONARYVAR
  2
AcDbDictionaryVar
  3
AutoCAD 2000
 90
        0
280
     0
281
     0
  0
CLASS
  1
HATCH
  2
AcDbHatch
  3
AutoCAD 2000
 90
        0
280
     0
281
     1
  0
CLASS
  1
ACDBDICTIONARYWDFLT
  2
AcDbDictionaryWithDefault
  3
AutoCAD 2000
 90
        0
280
     0
281
     0
  0
CLASS
  1
ACDBPLACEHOLDER
  2
AcDbPlaceHolder
  3
AutoCAD 2000
 90
        0
280
     0
281
     0
  0
CLASS
  1
LAYOUT
  2
AcDbLayout
  3
AutoCAD 2000
 90
        0
280
     0
281
     0
  0
CLASS
  1
LONG_TRANSACTION
  2
AcDbLongTransaction
  3
AutoCAD 2000
 90
        0
280
     0
281
     0
  0
CLASS
  1
LWPOLYLINE
  2
AcDbPolyline
  3
AutoCAD 2000
 90
        0
280
     0
281
     1
  0
CLASS
  1
HATCH
  2
AcDbHatch
  3
AutoCAD 2000
 90
        0
280
     0
281
     1
  0
CLASS
  1
XRECORD
  2
AcDbXrecord
  3
AutoCAD 2000
 90
        0
280
     0
281
     0
  0
ENDSEC
  0
SECTION
  2
TABLES
  0
TABLE
  2
VPORT
  5
12
330
0
100
AcDbSymbolTable
 70
     2
  0
VPORT
  5
1FE45
330
12
100
AcDbSymbolTableRecord
100
AcDbViewportTableRecord
  2
*ACTIVE
 70
     0
 10
0.0
 20
0.0
 11
1.0
 21
1.0
 12
-5317.416644430108
 22
4290.556800782055
 13
0.0
 23
0.0
 14
1.0
 24
1.0
 15
10.0
 25
10.0
 16
0.0
 26
0.0
 36
1.0
 17
0.0
 27
0.0
 37
0.0
 40
3243.633634788311
 41
1.714968152866241
 42
50.0
 43
0.0
 44
0.0
 50
0.0
 51
0.0
 71
     0
 72
  1000
 73
     1
 74
     1
 75
     0
 76
     0
 77
     0
 78
     0
  0
ENDTAB
  0
TABLE
  2
LTYPE
  5
D
330
0
100
AcDbSymbolTable
 70
     3
  0
LTYPE
  5
E
330
D
100
AcDbSymbolTableRecord
100
AcDbLinetypeTableRecord
  2
BYBLOCK
 70
     0
  3

 72
    65
 73
     0
 40
0.0
  0
LTYPE
  5
F
330
D
100
AcDbSymbolTableRecord
100
AcDbLinetypeTableRecord
  2
BYLAYER
 70
     0
  3

 72
    65
 73
     0
 40
0.0
  0
LTYPE
  5
5
330
D
100
AcDbSymbolTableRecord
100
AcDbLinetypeTableRecord
  2
AUSGEZOGEN
 70
     0
  3
Ausgezogene Linie
 72
    65
 73
     0
 40
0.0
  0
LTYPE
  5
21
330
D
100
AcDbSymbolTableRecord
100
AcDbLinetypeTableRecord
  2
MLA3
 70
     0
  3
------ - -------
 72
    65
 73
     4
 40
15.0
 49
10.0
 74
     0
 49
-2.0
 74
     0
 49
1.0
 74
     0
 49
-2.0
 74
     0
  0
LTYPE
  5
540
330
D
100
AcDbSymbolTableRecord
100
AcDbLinetypeTableRecord
  2
CONTINUOUS
 70
     0
  3
Solid line
 72
    65
 73
     0
 40
0.0
  0
ENDTAB
  0
TABLE
  2
LAYER
  5
A
330
0
100
AcDbSymbolTable
 70
     5
  0
LAYER
  5
4
330
A
100
AcDbSymbolTableRecord
100
AcDbLayerTableRecord
  2
0
 70
     0
 62
     7
  6
AUSGEZOGEN
  0
LAYER
  5
1B
330
A
100
AcDbSymbolTableRecord
100
AcDbLayerTableRecord
  2
VLB
 70
     0
 62
     7
  6
AUSGEZOGEN
  0
LAYER
  5
20
330
A
100
AcDbSymbolTableRecord
100
AcDbLayerTableRecord
  2
SPS
 70
     0
 62
     1
  6
MLA3
  0
LAYER
  5
5B
330
A
100
AcDbSymbolTableRecord
100
AcDbLayerTableRecord
  2
VLS
 70
     0
 62
   252
  6
AUSGEZOGEN
  0
LAYER
  5
73C
330
A
100
AcDbSymbolTableRecord
100
AcDbLayerTableRecord
  2
DEFPOINTS
 70
     0
 62
     7
  6
AUSGEZOGEN
  0
ENDTAB
  0
TABLE
  2
STYLE
  5
B
330
0
100
AcDbSymbolTable
 70
     3
  0
STYLE
  5
C
330
B
100
AcDbSymbolTableRecord
100
AcDbTextStyleTableRecord
  2
STANDARD
 70
     0
 40
0.0
 41
1.0
 50
0.0
 71
     0
 42
3.0
  3
txt
  4

  0
STYLE
  5
1C
330
B
100
AcDbSymbolTableRecord
100
AcDbTextStyleTableRecord
  2
ROMANS
 70
     0
 40
0.0
 41
1.0
 50
0.0
 71
     0
 42
3.5
  3
romans.shx
  4

  0
STYLE
  5
1451
330
B
100
AcDbSymbolTableRecord
100
AcDbTextStyleTableRecord
  2
ROMANS8
 70
     0
 40
0.0
 41
1.0
 50
0.0
 71
     0
 42
40.0
  3
simplex.shx
  4

  0
ENDTAB
  0
TABLE
  2
VIEW
  5
10
330
0
100
AcDbSymbolTable
 70
     0
  0
ENDTAB
  0
TABLE
  2
UCS
  5
11
330
0
100
AcDbSymbolTable
 70
     0
  0
ENDTAB
  0
TABLE
  2
APPID
  5
14
330
0
100
AcDbSymbolTable
 70
     6
  0
APPID
  5
15
330
14
100
AcDbSymbolTableRecord
100
AcDbRegAppTableRecord
  2
ACAD
 70
     0
  0
APPID
  5
81B
330
14
100
AcDbSymbolTableRecord
100
AcDbRegAppTableRecord
  2
CONTENTTABDATA
 70
     0
  0
APPID
  5
81C
330
14
100
AcDbSymbolTableRecord
100
AcDbRegAppTableRecord
  2
CONTENTCURRENTTAB
 70
     0
  0
APPID
  5
9B6
330
14
100
AcDbSymbolTableRecord
100
AcDbRegAppTableRecord
  2
CONTENTBLOCKDESCRIPTION
 70
     0
  0
APPID
  5
B5D
330
14
100
AcDbSymbolTableRecord
100
AcDbRegAppTableRecord
  2
CONTENTBLOCKICON
 70
     0
  0
APPID
  5
1453
330
14
100
AcDbSymbolTableRecord
100
AcDbRegAppTableRecord
  2
AVE_RENDER
 70
     0
  0
ENDTAB
  0
TABLE
  2
DIMSTYLE
  5
16
330
0
100
AcDbSymbolTable
 70
     2
  0
DIMSTYLE
105
1E
330
16
100
AcDbSymbolTableRecord
100
AcDbDimStyleTableRecord
  2
STANDARD
 70
     0
  3

  4

  5

  6

  7

 40
3.0
 41
3.5
 42
0.1
 43
7.0
 44
1.8
 45
0.0
 46
0.0
 47
0.0
 48
0.0
140
3.5
141
0.0
142
0.0
143
25.4
144
1.0
145
0.0
146
1.0
147
1.7
 71
     0
 72
     0
 73
     0
 74
     0
 75
     0
 76
     0
 77
     1
 78
     8
170
     0
171
     2
172
     0
173
     0
174
     0
175
     0
176
   256
177
   256
178
   256
270
     2
271
     2
272
     2
273
     2
274
     2
340
1C
275
     0
280
     0
281
     0
282
     0
283
     1
284
     0
285
     0
286
     0
287
     3
288
     1
  0
DIMSTYLE
105
955B
330
16
100
AcDbSymbolTableRecord
100
AcDbDimStyleTableRecord
  2
1_20
 70
     0
  3

  4

  5

  6

  7

 40
20.0
 41
3.5
 42
0.1
 43
7.0
 44
1.8
 45
0.0
 46
0.0
 47
0.0
 48
0.0
140
3.5
141
0.0
142
0.0
143
25.4
144
1.0
145
0.0
146
1.0
147
1.7
 71
     0
 72
     0
 73
     0
 74
     0
 75
     0
 76
     0
 77
     1
 78
     8
170
     0
171
     2
172
     0
173
     0
174
     0
175
     0
176
   256
177
   256
178
   256
270
     2
271
     4
272
     4
273
     2
274
     2
340
1C
275
     0
280
     0
281
     0
282
     0
283
     1
284
     8
285
     0
286
     0
287
     3
288
     1
  0
ENDTAB
  0
TABLE
  2
BLOCK_RECORD
  5
1
330
0
100
AcDbSymbolTable
 70
     0
  0
BLOCK_RECORD
  5
2
102
{ACAD_XDICTIONARY
360
1FE67
102
}
330
1
100
AcDbSymbolTableRecord
100
AcDbBlockTableRecord
  2
*MODEL_SPACE
  0
BLOCK_RECORD
  5
7
102
{ACAD_XDICTIONARY
360
1FE69
102
}
330
1
100
AcDbSymbolTableRecord
100
AcDbBlockTableRecord
  2
*PAPER_SPACE
  0
ENDTAB
  0
ENDSEC
  0
SECTION
  2
BLOCKS
  0
BLOCK
  5
3
330
2
100
AcDbEntity
  8
0
100
AcDbBlockBegin
  2
*MODEL_SPACE
 70
     2
 10
0.0
 20
0.0
 30
0.0
  3
*MODEL_SPACE
  1

  0
ENDBLK
  5
6
330
2
100
AcDbEntity
  8
0
100
AcDbBlockEnd
  0
BLOCK
  5
8
330
7
100
AcDbEntity
 67
     1
  8
0
100
AcDbBlockBegin
  2
*PAPER_SPACE
 70
     2
 10
0.0
 20
0.0
 30
0.0
  3
*PAPER_SPACE
  1

  0
ENDBLK
  5
9
330
7
100
AcDbEntity
 67
     1
  8
0
100
AcDbBlockEnd
  0
ENDSEC
  0
SECTION
  2
ENTITIES
  0
LINE
  5
1F2BA
330
2
100
AcDbEntity
  8
VLB
100
AcDbLine
 10
-6962.332250088853
 20
4419.712106273567
 30
0.0
 11
-6017.332250088854
 21
4419.712106273567
 31
0.0
  0
LINE
  5
1F2BB
330
2
100
AcDbEntity
  8
VLB
100
AcDbLine
 10
-6962.332250088852
 20
4419.712106273567
 30
0.0
 11
-6962.332250088852
 21
4422.712106273567
 31
0.0
  0
LINE
  5
1F2BC
330
2
100
AcDbEntity
  8
VLB
100
AcDbLine
 10
-6017.332250088854
 20
4419.712106273567
 30
0.0
 11
-6017.332250088854
 21
4422.712106273567
 31
0.0
  0
LINE
  5
1F2BE
330
2
100
AcDbEntity
  8
SPS
100
AcDbLine
 10
-7095.887933617984
 20
4447.712106273567
 30
0.0
 11
-7130.967502279109
 21
4447.712106273567
 31
0.0
  0
LINE
  5
1F2BF
330
2
100
AcDbEntity
  8
SPS
100
AcDbLine
 10
-5883.776566559721
 20
4447.712106273567
 30
0.0
 11
-5848.696997898598
 21
4447.712106273567
 31
0.0
  0
LINE
  5
1F2C0
330
2
100
AcDbEntity
  8
SPS
100
AcDbLine
 10
-6199.077758995098
 20
4447.712106273567
 30
0.0
 11
-6180.349939478643
 21
4447.712106273567
 31
0.0
  0
LINE
  5
1F2C1
330
2
100
AcDbEntity
  8
SPS
100
AcDbLine
 10
-6189.832250088848
 20
4440.289574045047
 30
0.0
 11
-6189.832250088848
 21
4457.694350709818
 31
0.0
  0
LINE
  5
1F2C2
330
2
100
AcDbEntity
  8
SPS
100
AcDbLine
 10
-6789.83225008886
 20
4440.289574045047
 30
0.0
 11
-6789.83225008886
 21
4457.694350709818
 31
0.0
  0
LINE
  5
1F2C3
330
2
100
AcDbEntity
  8
SPS
100
AcDbLine
 10
-6780.586741182609
 20
4447.712106273567
 30
0.0
 11
-6799.314560699063
 21
4447.712106273567
 31
0.0
  0
LINE
  5
1F2C6
330
2
100
AcDbEntity
  8
VLB
100
AcDbLine
 10
-7123.988814774353
 20
4448.712106273571
 30
0.0
 11
-7123.988814774353
 21
4454.378772273568
 31
0.0
  0
ARC
  5
1F2C7
330
2
100
AcDbEntity
  8
VLB
100
AcDbCircle
 10
-7111.250925774355
 20
4447.712106273567
 30
0.0
 40
12.737889
100
AcDbArc
 50
162.4120459999403
 51
175.4973080000216
  0
LINE
  5
1F2C8
330
2
100
AcDbEntity
  8
VLB
100
AcDbLine
 10
-7118.655481774354
 20
4449.794013273571
 30
0.0
 11
-7118.655481774354
 21
4453.645438273568
 31
0.0
  0
LINE
  5
1F2C9
330
2
100
AcDbEntity
  8
VLB
100
AcDbLine
 10
-7118.655481774354
 20
4455.212105273571
 30
0.0
 11
-7118.655481774354
 21
4448.712106273571
 31
0.0
  0
LINE
  5
1F2CA
330
2
100
AcDbEntity
  8
VLB
100
AcDbLine
 10
-7119.322148774354
 20
4448.712106273571
 30
0.0
 11
-7119.322148774354
 21
4455.410108273569
 31
0.0
  0
LINE
  5
1F2CB
330
2
100
AcDbEntity
  8
VLB
100
AcDbLine
 10
-7123.988814774353
 20
4441.045440273566
 30
0.0
 11
-7123.988814774353
 21
4448.712106273571
 31
0.0
  0
ARC
  5
1F2CC
330
2
100
AcDbEntity
  8
VLB
100
AcDbCircle
 10
-7111.250925774355
 20
4447.712106273567
 30
0.0
 40
12.737889
100
AcDbArc
 50
175.4973080000216
 51
197.5879540000596
  0
LINE
  5
1F2CD
330
2
100
AcDbEntity
  8
VLB
100
AcDbLine
 10
-7118.655481774354
 20
4447.712106273567
 30
0.0
 11
-7118.655481774354
 21
4440.212106273568
 31
0.0
  0
LINE
  5
1F2CE
330
2
100
AcDbEntity
  8
VLB
100
AcDbLine
 10
-7119.322148774354
 20
4440.014103273567
 30
0.0
 11
-7119.322148774354
 21
4448.712106273571
 31
0.0
  0
LINE
  5
1F2CF
330
2
100
AcDbEntity
  8
VLB
100
AcDbLine
 10
-7118.655481774354
 20
4441.77877327357
 30
0.0
 11
-7118.655481774354
 21
4448.712106273571
 31
0.0
  0
ARC
  5
1F2D0
330
2
100
AcDbEntity
  8
VLB
100
AcDbCircle
 10
-7120.615542774354
 20
4441.949305273566
 30
0.0
 40
3.373272
100
AcDbArc
 50
145.4349069999197
 51
210.0000000000272
  0
LINE
  5
1F2D1
330
2
100
AcDbEntity
  8
VLB
100
AcDbLine
 10
-7123.988814774353
 20
4441.045440273566
 30
0.0
 11
-7123.393371774352
 21
4440.014103273567
 31
0.0
  0
LINE
  5
1F2D2
330
2
100
AcDbEntity
  8
VLB
100
AcDbLine
 10
-7118.655481774354
 20
4441.77877327357
 30
0.0
 11
-7119.322148774354
 21
4441.77877327357
 31
0.0
  0
LINE
  5
1F2D3
330
2
100
AcDbEntity
  8
VLB
100
AcDbLine
 10
-7117.855481774356
 20
4440.212106273568
 30
0.0
 11
-7118.655481774354
 21
4440.212106273568
 31
0.0
1001
ACAD
1000
ASC_BOUNDS
1002
{
1070
    16
1002
}
  0
LINE
  5
1F2D4
330
2
100
AcDbEntity
  8
VLB
100
AcDbLine
 10
-7118.655481774354
 20
4440.212106273568
 30
0.0
 11
-7117.855481774356
 21
4440.212106273568
 31
0.0
  0
LINE
  5
1F2D5
330
2
100
AcDbEntity
  8
VLB
100
AcDbLine
 10
-7119.322148774354
 20
4443.863104273568
 30
0.0
 11
-7123.393371774352
 21
4443.863104273568
 31
0.0
  0
LINE
  5
1F2D6
330
2
100
AcDbEntity
  8
VLB
100
AcDbLine
 10
-7119.322148774354
 20
4440.014103273567
 30
0.0
 11
-7123.393371774352
 21
4440.014103273567
 31
0.0
  0
LINE
  5
1F2D7
330
2
100
AcDbEntity
  8
VLB
100
AcDbLine
 10
-7118.655481774354
 20
4448.712106273571
 30
0.0
 11
-7118.655481774354
 21
4447.712106273567
 31
0.0
  0
LINE
  5
1F2D8
330
2
100
AcDbEntity
  8
VLB
100
AcDbLine
 10
-7123.988814774353
 20
4454.378772273568
 30
0.0
 11
-7123.393371774352
 21
4455.410108273569
 31
0.0
  0
LINE
  5
1F2D9
330
2
100
AcDbEntity
  8
VLB
100
AcDbLine
 10
-7117.855481774356
 20
4455.212105273571
 30
0.0
 11
-7118.655481774354
 21
4455.212105273571
 31
0.0
1001
ACAD
1000
ASC_BOUNDS
1002
{
1070
    16
1002
}
  0
LINE
  5
1F2DA
330
2
100
AcDbEntity
  8
VLB
100
AcDbLine
 10
-7118.655481774354
 20
4453.645438273568
 30
0.0
 11
-7119.322148774354
 21
4453.645438273568
 31
0.0
  0
LINE
  5
1F2DB
330
2
100
AcDbEntity
  8
VLB
100
AcDbLine
 10
-7119.322148774354
 20
4455.410108273569
 30
0.0
 11
-7123.393371774352
 21
4455.410108273569
 31
0.0
  0
LINE
  5
1F2DC
330
2
100
AcDbEntity
  8
VLB
100
AcDbLine
 10
-7119.322148774354
 20
4451.561107273566
 30
0.0
 11
-7123.393371774352
 21
4451.561107273566
 31
0.0
  0
ARC
  5
1F2DD
330
2
100
AcDbEntity
  8
VLB
100
AcDbCircle
 10
-7120.615542774354
 20
4453.474906273569
 30
0.0
 40
3.373272
100
AcDbArc
 50
149.9999999999727
 51
214.5650930000803
  0
ARC
  5
1F2DE
330
2
100
AcDbEntity
  8
VLB
100
AcDbCircle
 10
-5859.048957403352
 20
4453.474906273569
 30
0.0
 40
3.373272
100
AcDbArc
 50
325.4349069999197
 51
30.00000000002724
  0
LINE
  5
1F2DF
330
2
100
AcDbEntity
  8
VLB
100
AcDbLine
 10
-5860.342351403353
 20
4451.561107273566
 30
0.0
 11
-5856.271128403354
 21
4451.561107273566
 31
0.0
  0
LINE
  5
1F2E0
330
2
100
AcDbEntity
  8
VLB
100
AcDbLine
 10
-5860.342351403353
 20
4455.410108273569
 30
0.0
 11
-5856.271128403354
 21
4455.410108273569
 31
0.0
  0
LINE
  5
1F2E1
330
2
100
AcDbEntity
  8
VLB
100
AcDbLine
 10
-5861.009018403352
 20
4453.645438273568
 30
0.0
 11
-5860.342351403353
 21
4453.645438273568
 31
0.0
  0
LINE
  5
1F2E2
330
2
100
AcDbEntity
  8
VLB
100
AcDbLine
 10
-5861.809018403352
 20
4455.212105273571
 30
0.0
 11
-5861.009018403352
 21
4455.212105273571
 31
0.0
1001
ACAD
1000
ASC_BOUNDS
1002
{
1070
    16
1002
}
  0
LINE
  5
1F2E3
330
2
100
AcDbEntity
  8
VLB
100
AcDbLine
 10
-5855.675685403354
 20
4454.378772273568
 30
0.0
 11
-5856.271128403354
 21
4455.410108273569
 31
0.0
  0
LINE
  5
1F2E4
330
2
100
AcDbEntity
  8
VLB
100
AcDbLine
 10
-5861.009018403352
 20
4448.712106273571
 30
0.0
 11
-5861.009018403352
 21
4447.712106273567
 31
0.0
  0
LINE
  5
1F2E5
330
2
100
AcDbEntity
  8
VLB
100
AcDbLine
 10
-5860.342351403353
 20
4440.014103273567
 30
0.0
 11
-5856.271128403354
 21
4440.014103273567
 31
0.0
  0
LINE
  5
1F2E6
330
2
100
AcDbEntity
  8
VLB
100
AcDbLine
 10
-5860.342351403353
 20
4443.863104273568
 30
0.0
 11
-5856.271128403354
 21
4443.863104273568
 31
0.0
  0
LINE
  5
1F2E7
330
2
100
AcDbEntity
  8
VLB
100
AcDbLine
 10
-5861.009018403352
 20
4440.212106273568
 30
0.0
 11
-5861.809018403352
 21
4440.212106273568
 31
0.0
  0
LINE
  5
1F2E8
330
2
100
AcDbEntity
  8
VLB
100
AcDbLine
 10
-5861.809018403352
 20
4440.212106273568
 30
0.0
 11
-5861.009018403352
 21
4440.212106273568
 31
0.0
1001
ACAD
1000
ASC_BOUNDS
1002
{
1070
    16
1002
}
  0
LINE
  5
1F2E9
330
2
100
AcDbEntity
  8
VLB
100
AcDbLine
 10
-5861.009018403352
 20
4441.77877327357
 30
0.0
 11
-5860.342351403353
 21
4441.77877327357
 31
0.0
  0
LINE
  5
1F2EA
330
2
100
AcDbEntity
  8
VLB
100
AcDbLine
 10
-5855.675685403354
 20
4441.045440273566
 30
0.0
 11
-5856.271128403354
 21
4440.014103273567
 31
0.0
  0
ARC
  5
1F2EB
330
2
100
AcDbEntity
  8
VLB
100
AcDbCircle
 10
-5859.048957403352
 20
4441.949305273566
 30
0.0
 40
3.373272
100
AcDbArc
 50
329.9999999999727
 51
34.56509300008031
  0
LINE
  5
1F2EC
330
2
100
AcDbEntity
  8
VLB
100
AcDbLine
 10
-5861.009018403352
 20
4441.77877327357
 30
0.0
 11
-5861.009018403352
 21
4448.712106273571
 31
0.0
  0
LINE
  5
1F2ED
330
2
100
AcDbEntity
  8
VLB
100
AcDbLine
 10
-5860.342351403353
 20
4440.014103273567
 30
0.0
 11
-5860.342351403353
 21
4448.712106273571
 31
0.0
  0
LINE
  5
1F2EE
330
2
100
AcDbEntity
  8
VLB
100
AcDbLine
 10
-5861.009018403352
 20
4447.712106273567
 30
0.0
 11
-5861.009018403352
 21
4440.212106273568
 31
0.0
  0
ARC
  5
1F2EF
330
2
100
AcDbEntity
  8
VLB
100
AcDbCircle
 10
-5868.413574403351
 20
4447.712106273567
 30
0.0
 40
12.737889
100
AcDbArc
 50
342.4120459999404
 51
4.502691999978413
  0
LINE
  5
1F2F0
330
2
100
AcDbEntity
  8
VLB
100
AcDbLine
 10
-5855.675685403354
 20
4441.045440273566
 30
0.0
 11
-5855.675685403354
 21
4448.712106273571
 31
0.0
  0
LINE
  5
1F2F1
330
2
100
AcDbEntity
  8
VLB
100
AcDbLine
 10
-5860.342351403353
 20
4448.712106273571
 30
0.0
 11
-5860.342351403353
 21
4455.410108273569
 31
0.0
  0
LINE
  5
1F2F2
330
2
100
AcDbEntity
  8
VLB
100
AcDbLine
 10
-5861.009018403352
 20
4455.212105273571
 30
0.0
 11
-5861.009018403352
 21
4448.712106273571
 31
0.0
  0
LINE
  5
1F2F3
330
2
100
AcDbEntity
  8
VLB
100
AcDbLine
 10
-5861.009018403352
 20
4449.794013273571
 30
0.0
 11
-5861.009018403352
 21
4453.645438273568
 31
0.0
  0
ARC
  5
1F2F4
330
2
100
AcDbEntity
  8
VLB
100
AcDbCircle
 10
-5868.413574403351
 20
4447.712106273567
 30
0.0
 40
12.737889
100
AcDbArc
 50
4.502691999978413
 51
17.58795400005962
  0
LINE
  5
1F2F5
330
2
100
AcDbEntity
  8
VLB
100
AcDbLine
 10
-5855.675685403354
 20
4448.712106273571
 30
0.0
 11
-5855.675685403354
 21
4454.378772273568
 31
0.0
  0
LINE
  5
1F2F7
330
2
100
AcDbEntity
  8
SPS
100
AcDbLine
 10
-7114.068794543801
 20
4463.399896853268
 30
0.0
 11
-7100.72810839916
 21
4463.399896853268
 31
0.0
  0
LINE
  5
1F2F8
330
2
100
AcDbEntity
  8
SPS
100
AcDbLine
 10
-7107.757437986727
 20
4455.991653999307
 30
0.0
 11
-7107.757437986727
 21
4471.884506077149
 31
0.0
  0
CIRCLE
  5
1F2F9
330
2
100
AcDbEntity
  8
VLB
100
AcDbCircle
 10
-7107.757437986727
 20
4463.399896853268
 30
0.0
 40
5.000000000001818
  0
CIRCLE
  5
1F2FA
330
2
100
AcDbEntity
  8
VLB
100
AcDbCircle
 10
-7107.757437986727
 20
4463.399896853268
 30
0.0
 40
2.550000000006548
  0
ARC
  5
1F2FB
330
2
100
AcDbEntity
  8
VLB
100
AcDbCircle
 10
-7106.832250088851
 20
4463.399896853268
 30
0.0
 40
12.99999999999925
100
AcDbArc
 50
157.3801350519214
 51
202.6198649480785
  0
LINE
  5
1F2FC
330
2
100
AcDbEntity
  8
VLB
100
AcDbLine
 10
-7118.83225008885
 20
4468.399896853269
 30
0.0
 11
-7117.832250088851
 21
4468.399896853266
 31
0.0
  0
LINE
  5
1F2FD
330
2
100
AcDbEntity
  8
VLB
100
AcDbLine
 10
-7118.83225008885
 20
4458.399896853268
 30
0.0
 11
-7117.832250088851
 21
4458.39989685327
 31
0.0
  0
LINE
  5
1F2FE
330
2
100
AcDbEntity
  8
SPS
100
AcDbLine
 10
-7109.037545579126
 20
4463.399896853268
 30
0.0
 11
-7122.076736185135
 21
4463.399896853268
 31
0.0
  0
LINE
  5
1F2FF
330
2
100
AcDbEntity
  8
SPS
100
AcDbLine
 10
-5865.595705633901
 20
4463.399896853268
 30
0.0
 11
-5878.936391778543
 21
4463.399896853268
 31
0.0
  0
LINE
  5
1F300
330
2
100
AcDbEntity
  8
SPS
100
AcDbLine
 10
-5871.907062190976
 20
4455.991653999307
 30
0.0
 11
-5871.907062190976
 21
4471.884506077149
 31
0.0
  0
CIRCLE
  5
1F301
330
2
100
AcDbEntity
  8
VLB
100
AcDbCircle
 10
-5871.907062190976
 20
4463.399896853268
 30
0.0
 40
5.000000000001818
  0
CIRCLE
  5
1F302
330
2
100
AcDbEntity
  8
VLB
100
AcDbCircle
 10
-5871.907062190976
 20
4463.399896853268
 30
0.0
 40
2.550000000006548
  0
CIRCLE
  5
1F305
330
2
100
AcDbEntity
  8
VLB
100
AcDbCircle
 10
-6489.832250088854
 20
4463.399896853268
 30
0.0
 40
2.550000000006548
  0
CIRCLE
  5
1F306
330
2
100
AcDbEntity
  8
VLB
100
AcDbCircle
 10
-6489.832250088854
 20
4463.399896853268
 30
0.0
 40
5.000000000001818
  0
LINE
  5
1F307
330
2
100
AcDbEntity
  8
SPS
100
AcDbLine
 10
-6496.143606645929
 20
4463.399896853268
 30
0.0
 11
-6482.802920501287
 21
4463.399896853268
 31
0.0
  0
LINE
  5
1F308
330
2
100
AcDbEntity
  8
SPS
100
AcDbLine
 10
-6489.832250088854
 20
4455.991653999307
 30
0.0
 11
-6489.832250088854
 21
4471.884506077149
 31
0.0
  0
LINE
  5
1F309
330
2
100
AcDbEntity
  8
SPS
100
AcDbLine
 10
-6489.832250088854
 20
4404.712106273567
 30
0.0
 11
-6489.832250088854
 21
5542.143312118482
 31
0.0
  0
LINE
  5
1F30A
330
2
100
AcDbEntity
  8
SPS
100
AcDbLine
 10
-4188.533465805747
 20
4404.712106273567
 30
0.0
 11
-4188.533465805747
 21
5542.143312118482
 31
0.0
  0
LINE
  5
1F30C
330
2
100
AcDbEntity
  8
VLB
100
AcDbLine
 10
-4661.033465805747
 20
4419.712106273567
 30
0.0
 11
-3716.033465805747
 21
4419.712106273567
 31
0.0
  0
LINE
  5
1F30D
330
2
100
AcDbEntity
  8
SPS
100
AcDbLine
 10
-4794.589149334878
 20
4447.712106273567
 30
0.0
 11
-4829.668717996003
 21
4447.712106273567
 31
0.0
  0
LINE
  5
1F30E
330
2
100
AcDbEntity
  8
VLB
100
AcDbLine
 10
-4822.690030491247
 20
4448.712106273571
 30
0.0
 11
-4822.690030491247
 21
4454.378772273568
 31
0.0
  0
ARC
  5
1F30F
330
2
100
AcDbEntity
  8
VLB
100
AcDbCircle
 10
-4809.952141491248
 20
4447.712106273567
 30
0.0
 40
12.737889
100
AcDbArc
 50
162.4120459999403
 51
175.4973080000216
  0
LINE
  5
1F310
330
2
100
AcDbEntity
  8
VLB
100
AcDbLine
 10
-4817.356697491248
 20
4449.794013273571
 30
0.0
 11
-4817.356697491248
 21
4453.645438273568
 31
0.0
  0
LINE
  5
1F311
330
2
100
AcDbEntity
  8
VLB
100
AcDbLine
 10
-4817.356697491248
 20
4455.212105273571
 30
0.0
 11
-4817.356697491248
 21
4448.712106273571
 31
0.0
  0
LINE
  5
1F312
330
2
100
AcDbEntity
  8
VLB
100
AcDbLine
 10
-4818.023364491248
 20
4448.712106273571
 30
0.0
 11
-4818.023364491248
 21
4455.410108273569
 31
0.0
  0
LINE
  5
1F313
330
2
100
AcDbEntity
  8
VLB
100
AcDbLine
 10
-4822.690030491247
 20
4441.045440273566
 30
0.0
 11
-4822.690030491247
 21
4448.712106273571
 31
0.0
  0
ARC
  5
1F314
330
2
100
AcDbEntity
  8
VLB
100
AcDbCircle
 10
-4809.952141491248
 20
4447.712106273567
 30
0.0
 40
12.737889
100
AcDbArc
 50
175.4973080000216
 51
197.5879540000596
  0
LINE
  5
1F315
330
2
100
AcDbEntity
  8
VLB
100
AcDbLine
 10
-4817.356697491248
 20
4447.712106273567
 30
0.0
 11
-4817.356697491248
 21
4440.212106273568
 31
0.0
  0
LINE
  5
1F316
330
2
100
AcDbEntity
  8
VLB
100
AcDbLine
 10
-4818.023364491248
 20
4440.014103273567
 30
0.0
 11
-4818.023364491248
 21
4448.712106273571
 31
0.0
  0
LINE
  5
1F317
330
2
100
AcDbEntity
  8
VLB
100
AcDbLine
 10
-4817.356697491248
 20
4441.77877327357
 30
0.0
 11
-4817.356697491248
 21
4448.712106273571
 31
0.0
  0
ARC
  5
1F318
330
2
100
AcDbEntity
  8
VLB
100
AcDbCircle
 10
-4819.316758491248
 20
4441.949305273566
 30
0.0
 40
3.373272
100
AcDbArc
 50
145.4349069999197
 51
210.0000000000272
  0
LINE
  5
1F319
330
2
100
AcDbEntity
  8
VLB
100
AcDbLine
 10
-4822.690030491247
 20
4441.045440273566
 30
0.0
 11
-4822.094587491246
 21
4440.014103273567
 31
0.0
  0
LINE
  5
1F31A
330
2
100
AcDbEntity
  8
VLB
100
AcDbLine
 10
-4817.356697491248
 20
4441.77877327357
 30
0.0
 11
-4818.023364491248
 21
4441.77877327357
 31
0.0
  0
LINE
  5
1F31B
330
2
100
AcDbEntity
  8
VLB
100
AcDbLine
 10
-4816.556697491249
 20
4440.212106273568
 30
0.0
 11
-4817.356697491248
 21
4440.212106273568
 31
0.0
1001
ACAD
1000
ASC_BOUNDS
1002
{
1070
    16
1002
}
  0
LINE
  5
1F31C
330
2
100
AcDbEntity
  8
VLB
100
AcDbLine
 10
-4817.356697491248
 20
4440.212106273568
 30
0.0
 11
-4816.556697491249
 21
4440.212106273568
 31
0.0
  0
LINE
  5
1F31D
330
2
100
AcDbEntity
  8
VLB
100
AcDbLine
 10
-4818.023364491248
 20
4443.863104273568
 30
0.0
 11
-4822.094587491246
 21
4443.863104273568
 31
0.0
  0
LINE
  5
1F31E
330
2
100
AcDbEntity
  8
VLB
100
AcDbLine
 10
-4818.023364491248
 20
4440.014103273567
 30
0.0
 11
-4822.094587491246
 21
4440.014103273567
 31
0.0
  0
LINE
  5
1F31F
330
2
100
AcDbEntity
  8
VLB
100
AcDbLine
 10
-4817.356697491248
 20
4448.712106273571
 30
0.0
 11
-4817.356697491248
 21
4447.712106273567
 31
0.0
  0
LINE
  5
1F320
330
2
100
AcDbEntity
  8
VLB
100
AcDbLine
 10
-4822.690030491247
 20
4454.378772273568
 30
0.0
 11
-4822.094587491246
 21
4455.410108273569
 31
0.0
  0
LINE
  5
1F321
330
2
100
AcDbEntity
  8
VLB
100
AcDbLine
 10
-4816.556697491249
 20
4455.212105273571
 30
0.0
 11
-4817.356697491248
 21
4455.212105273571
 31
0.0
1001
ACAD
1000
ASC_BOUNDS
1002
{
1070
    16
1002
}
  0
LINE
  5
1F322
330
2
100
AcDbEntity
  8
VLB
100
AcDbLine
 10
-4817.356697491248
 20
4453.645438273568
 30
0.0
 11
-4818.023364491248
 21
4453.645438273568
 31
0.0
  0
LINE
  5
1F323
330
2
100
AcDbEntity
  8
VLB
100
AcDbLine
 10
-4818.023364491248
 20
4455.410108273569
 30
0.0
 11
-4822.094587491246
 21
4455.410108273569
 31
0.0
  0
LINE
  5
1F324
330
2
100
AcDbEntity
  8
VLB
100
AcDbLine
 10
-4818.023364491248
 20
4451.561107273566
 30
0.0
 11
-4822.094587491246
 21
4451.561107273566
 31
0.0
  0
ARC
  5
1F325
330
2
100
AcDbEntity
  8
VLB
100
AcDbCircle
 10
-4819.316758491248
 20
4453.474906273569
 30
0.0
 40
3.373272
100
AcDbArc
 50
149.9999999999727
 51
214.5650930000803
  0
LINE
  5
1F326
330
2
100
AcDbEntity
  8
SPS
100
AcDbLine
 10
-4812.770010260695
 20
4463.399896853268
 30
0.0
 11
-4799.429324116053
 21
4463.399896853268
 31
0.0
  0
LINE
  5
1F327
330
2
100
AcDbEntity
  8
SPS
100
AcDbLine
 10
-4806.458653703622
 20
4455.991653999307
 30
0.0
 11
-4806.458653703622
 21
4471.884506077149
 31
0.0
  0
CIRCLE
  5
1F328
330
2
100
AcDbEntity
  8
VLB
100
AcDbCircle
 10
-4806.458653703622
 20
4463.399896853268
 30
0.0
 40
5.000000000001818
  0
CIRCLE
  5
1F329
330
2
100
AcDbEntity
  8
VLB
100
AcDbCircle
 10
-4806.458653703622
 20
4463.399896853268
 30
0.0
 40
2.550000000006548
  0
ARC
  5
1F32A
330
2
100
AcDbEntity
  8
VLB
100
AcDbCircle
 10
-4805.533465805745
 20
4463.399896853268
 30
0.0
 40
12.99999999999925
100
AcDbArc
 50
157.3801350519214
 51
202.6198649480785
  0
LINE
  5
1F32B
330
2
100
AcDbEntity
  8
VLB
100
AcDbLine
 10
-4817.533465805744
 20
4468.399896853269
 30
0.0
 11
-4816.533465805745
 21
4468.399896853266
 31
0.0
  0
LINE
  5
1F32C
330
2
100
AcDbEntity
  8
VLB
100
AcDbLine
 10
-4817.533465805744
 20
4458.399896853268
 30
0.0
 11
-4816.533465805745
 21
4458.39989685327
 31
0.0
  0
LINE
  5
1F32D
330
2
100
AcDbEntity
  8
SPS
100
AcDbLine
 10
-4807.738761296019
 20
4463.399896853268
 30
0.0
 11
-4820.77795190203
 21
4463.399896853268
 31
0.0
  0
LINE
  5
1F32E
330
2
100
AcDbEntity
  8
VLB
100
AcDbLine
 10
-4661.033465805745
 20
4419.712106273567
 30
0.0
 11
-4661.033465805745
 21
4422.712106273567
 31
0.0
  0
LINE
  5
1F32F
330
2
100
AcDbEntity
  8
SPS
100
AcDbLine
 10
-4488.533465805753
 20
4440.289574045047
 30
0.0
 11
-4488.533465805753
 21
4457.694350709818
 31
0.0
  0
LINE
  5
1F330
330
2
100
AcDbEntity
  8
SPS
100
AcDbLine
 10
-4479.287956899503
 20
4447.712106273567
 30
0.0
 11
-4498.015776415957
 21
4447.712106273567
 31
0.0
  0
CIRCLE
  5
1F332
330
2
100
AcDbEntity
  8
VLB
100
AcDbCircle
 10
-4188.533465805747
 20
4463.399896853268
 30
0.0
 40
2.550000000006548
  0
CIRCLE
  5
1F333
330
2
100
AcDbEntity
  8
VLB
100
AcDbCircle
 10
-4188.533465805747
 20
4463.399896853268
 30
0.0
 40
5.000000000001818
  0
LINE
  5
1F334
330
2
100
AcDbEntity
  8
SPS
100
AcDbLine
 10
-4194.844822362822
 20
4463.399896853268
 30
0.0
 11
-4181.50413621818
 21
4463.399896853268
 31
0.0
  0
LINE
  5
1F335
330
2
100
AcDbEntity
  8
SPS
100
AcDbLine
 10
-4188.533465805747
 20
4455.991653999307
 30
0.0
 11
-4188.533465805747
 21
4471.884506077149
 31
0.0
  0
LINE
  5
1F336
330
2
100
AcDbEntity
  8
SPS
100
AcDbLine
 10
-3897.778974711991
 20
4447.712106273567
 30
0.0
 11
-3879.051155195536
 21
4447.712106273567
 31
0.0
  0
LINE
  5
1F337
330
2
100
AcDbEntity
  8
SPS
100
AcDbLine
 10
-3888.533465805741
 20
4440.289574045047
 30
0.0
 11
-3888.533465805741
 21
4457.694350709818
 31
0.0
  0
LINE
  5
1F339
330
2
100
AcDbEntity
  8
SPS
100
AcDbLine
 10
-3582.477782276615
 20
4447.712106273567
 30
0.0
 11
-3547.398213615491
 21
4447.712106273567
 31
0.0
  0
ARC
  5
1F33A
330
2
100
AcDbEntity
  8
VLB
100
AcDbCircle
 10
-3557.750173120246
 20
4453.474906273569
 30
0.0
 40
3.373272
100
AcDbArc
 50
325.4349069999197
 51
30.00000000002724
  0
LINE
  5
1F33B
330
2
100
AcDbEntity
  8
VLB
100
AcDbLine
 10
-3559.043567120247
 20
4451.561107273566
 30
0.0
 11
-3554.972344120248
 21
4451.561107273566
 31
0.0
  0
LINE
  5
1F33C
330
2
100
AcDbEntity
  8
VLB
100
AcDbLine
 10
-3559.043567120247
 20
4455.410108273569
 30
0.0
 11
-3554.972344120248
 21
4455.410108273569
 31
0.0
  0
LINE
  5
1F33D
330
2
100
AcDbEntity
  8
VLB
100
AcDbLine
 10
-3559.710234120246
 20
4453.645438273568
 30
0.0
 11
-3559.043567120247
 21
4453.645438273568
 31
0.0
  0
LINE
  5
1F33E
330
2
100
AcDbEntity
  8
VLB
100
AcDbLine
 10
-3560.510234120245
 20
4455.212105273571
 30
0.0
 11
-3559.710234120246
 21
4455.212105273571
 31
0.0
1001
ACAD
1000
ASC_BOUNDS
1002
{
1070
    16
1002
}
  0
LINE
  5
1F33F
330
2
100
AcDbEntity
  8
VLB
100
AcDbLine
 10
-3554.376901120248
 20
4454.378772273568
 30
0.0
 11
-3554.972344120248
 21
4455.410108273569
 31
0.0
  0
LINE
  5
1F340
330
2
100
AcDbEntity
  8
VLB
100
AcDbLine
 10
-3559.710234120246
 20
4448.712106273571
 30
0.0
 11
-3559.710234120246
 21
4447.712106273567
 31
0.0
  0
LINE
  5
1F341
330
2
100
AcDbEntity
  8
VLB
100
AcDbLine
 10
-3559.043567120247
 20
4440.014103273567
 30
0.0
 11
-3554.972344120248
 21
4440.014103273567
 31
0.0
  0
LINE
  5
1F342
330
2
100
AcDbEntity
  8
VLB
100
AcDbLine
 10
-3559.043567120247
 20
4443.863104273568
 30
0.0
 11
-3554.972344120248
 21
4443.863104273568
 31
0.0
  0
LINE
  5
1F343
330
2
100
AcDbEntity
  8
VLB
100
AcDbLine
 10
-3559.710234120246
 20
4440.212106273568
 30
0.0
 11
-3560.510234120245
 21
4440.212106273568
 31
0.0
  0
LINE
  5
1F344
330
2
100
AcDbEntity
  8
VLB
100
AcDbLine
 10
-3560.510234120245
 20
4440.212106273568
 30
0.0
 11
-3559.710234120246
 21
4440.212106273568
 31
0.0
1001
ACAD
1000
ASC_BOUNDS
1002
{
1070
    16
1002
}
  0
LINE
  5
1F345
330
2
100
AcDbEntity
  8
VLB
100
AcDbLine
 10
-3559.710234120246
 20
4441.77877327357
 30
0.0
 11
-3559.043567120247
 21
4441.77877327357
 31
0.0
  0
LINE
  5
1F346
330
2
100
AcDbEntity
  8
VLB
100
AcDbLine
 10
-3554.376901120248
 20
4441.045440273566
 30
0.0
 11
-3554.972344120248
 21
4440.014103273567
 31
0.0
  0
ARC
  5
1F347
330
2
100
AcDbEntity
  8
VLB
100
AcDbCircle
 10
-3557.750173120246
 20
4441.949305273566
 30
0.0
 40
3.373272
100
AcDbArc
 50
329.9999999999727
 51
34.56509300008031
  0
LINE
  5
1F348
330
2
100
AcDbEntity
  8
VLB
100
AcDbLine
 10
-3559.710234120246
 20
4441.77877327357
 30
0.0
 11
-3559.710234120246
 21
4448.712106273571
 31
0.0
  0
LINE
  5
1F349
330
2
100
AcDbEntity
  8
VLB
100
AcDbLine
 10
-3559.043567120247
 20
4440.014103273567
 30
0.0
 11
-3559.043567120247
 21
4448.712106273571
 31
0.0
  0
LINE
  5
1F34A
330
2
100
AcDbEntity
  8
VLB
100
AcDbLine
 10
-3559.710234120246
 20
4447.712106273567
 30
0.0
 11
-3559.710234120246
 21
4440.212106273568
 31
0.0
  0
ARC
  5
1F34B
330
2
100
AcDbEntity
  8
VLB
100
AcDbCircle
 10
-3567.114790120246
 20
4447.712106273567
 30
0.0
 40
12.737889
100
AcDbArc
 50
342.4120459999404
 51
4.502691999978413
  0
LINE
  5
1F34C
330
2
100
AcDbEntity
  8
VLB
100
AcDbLine
 10
-3554.376901120248
 20
4441.045440273566
 30
0.0
 11
-3554.376901120248
 21
4448.712106273571
 31
0.0
  0
LINE
  5
1F34D
330
2
100
AcDbEntity
  8
VLB
100
AcDbLine
 10
-3559.043567120247
 20
4448.712106273571
 30
0.0
 11
-3559.043567120247
 21
4455.410108273569
 31
0.0
  0
LINE
  5
1F34E
330
2
100
AcDbEntity
  8
VLB
100
AcDbLine
 10
-3559.710234120246
 20
4455.212105273571
 30
0.0
 11
-3559.710234120246
 21
4448.712106273571
 31
0.0
  0
LINE
  5
1F34F
330
2
100
AcDbEntity
  8
VLB
100
AcDbLine
 10
-3559.710234120246
 20
4449.794013273571
 30
0.0
 11
-3559.710234120246
 21
4453.645438273568
 31
0.0
  0
ARC
  5
1F350
330
2
100
AcDbEntity
  8
VLB
100
AcDbCircle
 10
-3567.114790120246
 20
4447.712106273567
 30
0.0
 40
12.737889
100
AcDbArc
 50
4.502691999978413
 51
17.58795400005962
  0
LINE
  5
1F351
330
2
100
AcDbEntity
  8
VLB
100
AcDbLine
 10
-3554.376901120248
 20
4448.712106273571
 30
0.0
 11
-3554.376901120248
 21
4454.378772273568
 31
0.0
  0
LINE
  5
1F352
330
2
100
AcDbEntity
  8
SPS
100
AcDbLine
 10
-3564.296921350795
 20
4463.399896853268
 30
0.0
 11
-3577.637607495437
 21
4463.399896853268
 31
0.0
  0
LINE
  5
1F353
330
2
100
AcDbEntity
  8
SPS
100
AcDbLine
 10
-3570.60827790787
 20
4455.991653999307
 30
0.0
 11
-3570.60827790787
 21
4471.884506077149
 31
0.0
  0
CIRCLE
  5
1F354
330
2
100
AcDbEntity
  8
VLB
100
AcDbCircle
 10
-3570.60827790787
 20
4463.399896853268
 30
0.0
 40
5.000000000001818
  0
CIRCLE
  5
1F355
330
2
100
AcDbEntity
  8
VLB
100
AcDbCircle
 10
-3570.60827790787
 20
4463.399896853268
 30
0.0
 40
2.550000000006548
  0
LINE
  5
1F356
330
2
100
AcDbEntity
  8
VLB
100
AcDbLine
 10
-3716.033465805747
 20
4419.712106273567
 30
0.0
 11
-3716.033465805747
 21
4422.712106273567
 31
0.0
  0
CIRCLE
  5
1F357
330
2
100
AcDbEntity
  8
VLB
100
AcDbCircle
 10
-7091.161431813596
 20
5495.106343611966
 30
0.0
 40
12.5
  0
ARC
  5
1F358
330
2
100
AcDbEntity
  8
VLB
100
AcDbCircle
 10
-7091.161431813596
 20
5495.106343611966
 30
0.0
 40
22.5
100
AcDbArc
 50
303.748988595957
 51
236.2510114040428
  0
LINE
  5
1F359
330
2
100
AcDbEntity
  8
VLS
100
AcDbLine
 10
-7078.661431813596
 20
5482.606343611966
 30
0.0
 11
-7103.661431813596
 21
5482.606343611967
 31
0.0
  0
ARC
  5
1F35A
330
2
100
AcDbEntity
  8
VLB
100
AcDbCircle
 10
-7106.832250088849
 20
5461.176584682398
 30
0.0
 40
12.99999999999925
100
AcDbArc
 50
157.3801350519214
 51
202.6198649480785
  0
LINE
  5
1F35B
330
2
100
AcDbEntity
  8
VLB
100
AcDbLine
 10
-7118.832250088847
 20
5466.176584682398
 30
0.0
 11
-7117.832250088851
 21
5466.176584682397
 31
0.0
  0
LINE
  5
1F35C
330
2
100
AcDbEntity
  8
VLB
100
AcDbLine
 10
-7118.832250088847
 20
5456.176584682398
 30
0.0
 11
-7117.832250088851
 21
5456.1765846824
 31
0.0
  0
LINE
  5
1F35D
330
2
100
AcDbEntity
  8
SPS
100
AcDbLine
 10
-7109.037545579123
 20
5461.176584682398
 30
0.0
 11
-7122.076736185134
 21
5461.176584682398
 31
0.0
  0
ARC
  5
1F35E
330
2
100
AcDbEntity
  8
VLB
100
AcDbCircle
 10
-7108.574315307125
 20
5461.712106273568
 30
0.0
 40
12.99999999999925
100
AcDbArc
 50
67.3801350519691
 51
112.6198649480308
  0
LINE
  5
1F35F
330
2
100
AcDbEntity
  8
VLB
100
AcDbLine
 10
-7103.574315307125
 20
5473.712106273566
 30
0.0
 11
-7103.574315307127
 21
5472.712106273568
 31
0.0
  0
LINE
  5
1F360
330
2
100
AcDbEntity
  8
VLB
100
AcDbLine
 10
-7113.574315307126
 20
5473.712106273566
 30
0.0
 11
-7113.574315307123
 21
5472.712106273568
 31
0.0
  0
LINE
  5
1F361
330
2
100
AcDbEntity
  8
SPS
100
AcDbLine
 10
-7108.574315307125
 20
5463.917401763842
 30
0.0
 11
-7108.574315307125
 21
5476.956592369852
 31
0.0
  0
LINE
  5
1F362
330
2
100
AcDbEntity
  8
VLB
100
AcDbLine
 10
-7103.661431813598
 20
5482.606343611966
 30
0.0
 11
-7096.56041300683
 21
5483.83243559056
 31
0.0
  0
ARC
  5
1F363
330
2
100
AcDbEntity
  8
VLB
100
AcDbCircle
 10
-7075.383989119355
 20
5461.712106273568
 30
0.0
 40
12.99999999999925
100
AcDbArc
 50
67.3801350519691
 51
112.6198649480308
  0
LINE
  5
1F364
330
2
100
AcDbEntity
  8
VLB
100
AcDbLine
 10
-7070.383989119355
 20
5473.712106273566
 30
0.0
 11
-7070.383989119356
 21
5472.712106273568
 31
0.0
  0
LINE
  5
1F365
330
2
100
AcDbEntity
  8
VLB
100
AcDbLine
 10
-7080.383989119354
 20
5473.712106273566
 30
0.0
 11
-7080.383989119353
 21
5472.712106273568
 31
0.0
  0
LINE
  5
1F366
330
2
100
AcDbEntity
  8
SPS
100
AcDbLine
 10
-7075.383989119355
 20
5463.917401763842
 30
0.0
 11
-7075.383989119355
 21
5476.956592369852
 31
0.0
  0
LINE
  5
1F367
330
2
100
AcDbEntity
  8
VLB
100
AcDbLine
 10
-7078.661431813596
 20
5482.606343611966
 30
0.0
 11
-7085.762450620364
 21
5483.83243559056
 31
0.0
  0
LINE
  5
1F368
330
2
100
AcDbEntity
  8
SPS
100
AcDbLine
 10
-7091.161431813596
 20
5477.606343611967
 30
0.0
 11
-7091.161431813596
 21
5463.606343611965
 31
0.0
  0
LINE
  5
1F369
330
2
100
AcDbEntity
  8
SPS
100
AcDbLine
 10
-7091.161431813596
 20
5460.206372611967
 30
0.0
 11
-7091.161431813596
 21
5490.23244559056
 31
0.0
  0
LINE
  5
1F36A
330
2
100
AcDbEntity
  8
VLB
100
AcDbLine
 10
-7078.661431813596
 20
5474.292184547805
 30
0.0
 11
-7078.661431813596
 21
5482.606343611966
 31
0.0
  0
LINE
  5
1F36B
330
2
100
AcDbEntity
  8
VLB
100
AcDbLine
 10
-7103.661431813596
 20
5482.606343611967
 30
0.0
 11
-7103.661431813596
 21
5473.748034811865
 31
0.0
  0
CIRCLE
  5
1F36C
330
2
100
AcDbEntity
  8
VLB
100
AcDbCircle
 10
-5888.503068364107
 20
5495.106343611964
 30
0.0
 40
12.5
  0
ARC
  5
1F36D
330
2
100
AcDbEntity
  8
VLB
100
AcDbCircle
 10
-5888.503068364107
 20
5495.106343611964
 30
0.0
 40
22.5
100
AcDbArc
 50
303.748988595957
 51
236.2510114040428
  0
LINE
  5
1F36E
330
2
100
AcDbEntity
  8
VLS
100
AcDbLine
 10
-5901.003068364107
 20
5482.606343611964
 30
0.0
 11
-5876.003068364107
 21
5482.606343611966
 31
0.0
  0
LINE
  5
1F36F
330
2
100
AcDbEntity
  8
VLB
100
AcDbLine
 10
-5901.003068364107
 20
5482.606343611964
 30
0.0
 11
-5893.90204955734
 21
5483.832435590559
 31
0.0
  0
LINE
  5
1F370
330
2
100
AcDbEntity
  8
SPS
100
AcDbLine
 10
-5888.503068364107
 20
5477.606343611966
 30
0.0
 11
-5888.503068364107
 21
5463.606343611964
 31
0.0
  0
LINE
  5
1F371
330
2
100
AcDbEntity
  8
SPS
100
AcDbLine
 10
-5888.503068364107
 20
5460.206372611965
 30
0.0
 11
-5888.503068364107
 21
5490.232445590558
 31
0.0
  0
LINE
  5
1F372
330
2
100
AcDbEntity
  8
SPS
100
AcDbLine
 10
-5865.595705633901
 20
5461.176584682396
 30
0.0
 11
-5878.936391778543
 21
5461.176584682396
 31
0.0
  0
CIRCLE
  5
1F373
330
2
100
AcDbEntity
  8
VLB
100
AcDbCircle
 10
-5871.907062190976
 20
5461.176584682396
 30
0.0
 40
5.000000000001818
  0
CIRCLE
  5
1F374
330
2
100
AcDbEntity
  8
VLB
100
AcDbCircle
 10
-5871.907062190976
 20
5461.176584682396
 30
0.0
 40
2.550000000006548
  0
LINE
  5
1F375
330
2
100
AcDbEntity
  8
VLB
100
AcDbLine
 10
-5876.003068364106
 20
5482.606343611964
 30
0.0
 11
-5883.104087170874
 21
5483.832435590559
 31
0.0
  0
LINE
  5
1F376
330
2
100
AcDbEntity
  8
VLB
100
AcDbLine
 10
-5901.003068364107
 20
5472.712106273569
 30
0.0
 11
-5901.003068364107
 21
5482.606343611964
 31
0.0
  0
LINE
  5
1F377
330
2
100
AcDbEntity
  8
VLB
100
AcDbLine
 10
-5876.003068364107
 20
5482.606343611966
 30
0.0
 11
-5876.003068364107
 21
5472.712106273568
 31
0.0
  0
LINE
  5
1F378
330
2
100
AcDbEntity
  8
SPS
100
AcDbLine
 10
-5871.907062190976
 20
5453.768341828435
 30
0.0
 11
-5871.907062190976
 21
5469.661193906277
 31
0.0
  0
ARC
  5
1F379
330
2
100
AcDbEntity
  8
VLB
100
AcDbCircle
 10
-4805.533465805744
 20
5461.176584682398
 30
0.0
 40
12.99999999999925
100
AcDbArc
 50
157.3801350519214
 51
202.6198649480785
  0
LINE
  5
1F37A
330
2
100
AcDbEntity
  8
VLB
100
AcDbLine
 10
-4817.533465805741
 20
5456.176584682398
 30
0.0
 11
-4816.533465805745
 21
5456.1765846824
 31
0.0
  0
LINE
  5
1F37B
330
2
100
AcDbEntity
  8
SPS
100
AcDbLine
 10
-4807.738761296017
 20
5461.176584682398
 30
0.0
 11
-4820.777951902027
 21
5461.176584682398
 31
0.0
  0
ARC
  5
1F37C
330
2
100
AcDbEntity
  8
VLB
100
AcDbCircle
 10
-4807.275531024019
 20
5461.712106273568
 30
0.0
 40
12.99999999999925
100
AcDbArc
 50
67.3801350519691
 51
112.6198649480308
  0
LINE
  5
1F37D
330
2
100
AcDbEntity
  8
VLB
100
AcDbLine
 10
-4812.275531024019
 20
5473.712106273566
 30
0.0
 11
-4812.275531024017
 21
5472.712106273568
 31
0.0
  0
LINE
  5
1F37E
330
2
100
AcDbEntity
  8
VLB
100
AcDbLine
 10
-4817.533465805741
 20
5466.176584682398
 30
0.0
 11
-4816.533465805745
 21
5466.176584682397
 31
0.0
  0
LINE
  5
1F37F
330
2
100
AcDbEntity
  8
VLB
100
AcDbLine
 10
-4802.275531024019
 20
5473.712106273566
 30
0.0
 11
-4802.275531024021
 21
5472.712106273568
 31
0.0
  0
LINE
  5
1F380
330
2
100
AcDbEntity
  8
SPS
100
AcDbLine
 10
-4807.275531024019
 20
5463.917401763842
 30
0.0
 11
-4807.275531024019
 21
5476.956592369852
 31
0.0
  0
ARC
  5
1F381
330
2
100
AcDbEntity
  8
VLB
100
AcDbCircle
 10
-4774.085204836248
 20
5461.712106273568
 30
0.0
 40
12.99999999999925
100
AcDbArc
 50
67.3801350519691
 51
112.6198649480308
  0
LINE
  5
1F382
330
2
100
AcDbEntity
  8
VLB
100
AcDbLine
 10
-4779.085204836248
 20
5473.712106273566
 30
0.0
 11
-4779.085204836246
 21
5472.712106273568
 31
0.0
  0
LINE
  5
1F383
330
2
100
AcDbEntity
  8
VLB
100
AcDbLine
 10
-4769.085204836248
 20
5473.712106273566
 30
0.0
 11
-4769.08520483625
 21
5472.712106273568
 31
0.0
  0
LINE
  5
1F384
330
2
100
AcDbEntity
  8
SPS
100
AcDbLine
 10
-4774.085204836248
 20
5463.917401763842
 30
0.0
 11
-4774.085204836248
 21
5476.956592369852
 31
0.0
  0
LINE
  5
1F385
330
2
100
AcDbEntity
  8
SPS
100
AcDbLine
 10
-3564.296921350795
 20
5461.176584682396
 30
0.0
 11
-3577.637607495437
 21
5461.176584682396
 31
0.0
  0
CIRCLE
  5
1F386
330
2
100
AcDbEntity
  8
VLB
100
AcDbCircle
 10
-3570.60827790787
 20
5461.176584682396
 30
0.0
 40
5.000000000001818
  0
CIRCLE
  5
1F387
330
2
100
AcDbEntity
  8
VLB
100
AcDbCircle
 10
-3570.60827790787
 20
5461.176584682396
 30
0.0
 40
2.550000000006548
  0
LINE
  5
1F388
330
2
100
AcDbEntity
  8
SPS
100
AcDbLine
 10
-3570.60827790787
 20
5453.768341828435
 30
0.0
 11
-3570.60827790787
 21
5469.661193906277
 31
0.0
  0
LINE
  5
1F389
330
2
100
AcDbEntity
  8
VLB
100
AcDbLine
 10
-4201.033465805747
 20
5472.712106273569
 30
0.0
 11
-4176.033465805745
 21
5472.712106273568
 31
0.0
  0
LINE
  5
1F38A
330
2
100
AcDbEntity
  8
VLB
100
AcDbLine
 10
-4201.033465805747
 20
5480.56849085658
 30
0.0
 11
-4193.533465805745
 21
5480.56849085658
 31
0.0
  0
LINE
  5
1F38B
330
2
100
AcDbEntity
  8
VLB
100
AcDbLine
 10
-4201.033465805749
 20
5480.56849085658
 30
0.0
 11
-4193.533465805745
 21
5484.10042965822
 31
0.0
  0
LINE
  5
1F38C
330
2
100
AcDbEntity
  8
VLB
100
AcDbLine
 10
-4201.033465805749
 20
5480.56849085658
 30
0.0
 11
-4201.033465805747
 21
5472.712106273569
 31
0.0
  0
LINE
  5
1F38D
330
2
100
AcDbEntity
  8
SPS
100
AcDbLine
 10
-4196.533465805745
 20
5495.212106273568
 30
0.0
 11
-4180.533465805747
 21
5495.212106273568
 31
0.0
  0
ARC
  5
1F38E
330
2
100
AcDbEntity
  8
VLB
100
AcDbCircle
 10
-4188.533465805745
 20
5512.712106273569
 30
0.0
 40
5.0
100
AcDbArc
 50
0.0
 51
180.0
  0
ELLIPSE
  5
1F38F
330
2
100
AcDbEntity
  8
VLS
100
AcDbEllipse
 10
-4188.533465805745
 20
5478.312193080883
 30
0.0
 11
-5.0
 21
0.0000000000000003
 31
0.0
210
0.0
220
0.0
230
1.0
 40
0.3616747482367373
 41
0.6435011087932847
 42
2.498091544796508
  0
LINE
  5
1F390
330
2
100
AcDbEntity
  8
VLB
100
AcDbLine
 10
-4193.533465805747
 20
5512.712106273568
 30
0.0
 11
-4193.533465805745
 21
5478.312193080883
 31
0.0
  0
LINE
  5
1F391
330
2
100
AcDbEntity
  8
VLB
100
AcDbLine
 10
-4183.533465805747
 20
5512.712106273569
 30
0.0
 11
-4183.533465805745
 21
5478.312193080883
 31
0.0
  0
LINE
  5
1F392
330
2
100
AcDbEntity
  8
VLB
100
AcDbLine
 10
-4176.033465805747
 20
5480.56849085658
 30
0.0
 11
-4176.033465805747
 21
5472.712106273569
 31
0.0
  0
LINE
  5
1F393
330
2
100
AcDbEntity
  8
VLB
100
AcDbLine
 10
-4176.033465805745
 20
5480.56849085658
 30
0.0
 11
-4183.533465805745
 21
5484.100429658218
 31
0.0
  0
LINE
  5
1F394
330
2
100
AcDbEntity
  8
VLB
100
AcDbLine
 10
-4183.533465805745
 20
5480.56849085658
 30
0.0
 11
-4176.033465805747
 21
5480.56849085658
 31
0.0
  0
ARC
  5
1F3C7
330
2
100
AcDbEntity
  8
VLB
100
AcDbCircle
 10
-7106.832250088851
 20
4574.263976853269
 30
0.0
 40
12.99999999999925
100
AcDbArc
 50
157.3801350519214
 51
202.6198649480785
  0
LINE
  5
1F3C8
330
2
100
AcDbEntity
  8
VLB
100
AcDbLine
 10
-7118.83225008885
 20
4579.263976853268
 30
0.0
 11
-7117.832250088851
 21
4579.263976853267
 31
0.0
  0
LINE
  5
1F3C9
330
2
100
AcDbEntity
  8
VLB
100
AcDbLine
 10
-7118.83225008885
 20
4569.263976853269
 30
0.0
 11
-7117.832250088851
 21
4569.26397685327
 31
0.0
  0
LINE
  5
1F3CA
330
2
100
AcDbEntity
  8
SPS
100
AcDbLine
 10
-7109.037545579126
 20
4574.263976853269
 30
0.0
 11
-7122.076736185135
 21
4574.263976853269
 31
0.0
  0
LINE
  5
1F3CC
330
2
100
AcDbEntity
  8
SPS
100
AcDbLine
 10
-5865.595705633901
 20
4574.263976853269
 30
0.0
 11
-5878.936391778543
 21
4574.263976853269
 31
0.0
  0
LINE
  5
1F3CD
330
2
100
AcDbEntity
  8
SPS
100
AcDbLine
 10
-5871.907062190976
 20
4566.855733999306
 30
0.0
 11
-5871.907062190976
 21
4582.748586077149
 31
0.0
  0
CIRCLE
  5
1F3CE
330
2
100
AcDbEntity
  8
VLB
100
AcDbCircle
 10
-5871.907062190976
 20
4574.263976853269
 30
0.0
 40
5.000000000001818
  0
CIRCLE
  5
1F3CF
330
2
100
AcDbEntity
  8
VLB
100
AcDbCircle
 10
-5871.907062190976
 20
4574.263976853269
 30
0.0
 40
2.550000000006548
  0
LINE
  5
1F3D0
330
2
100
AcDbEntity
  8
SPS
100
AcDbLine
 10
-4807.738761296019
 20
4574.263976853269
 30
0.0
 11
-4820.77795190203
 21
4574.263976853269
 31
0.0
  0
LINE
  5
1F3D1
330
2
100
AcDbEntity
  8
VLB
100
AcDbLine
 10
-4817.533465805744
 20
4569.263976853269
 30
0.0
 11
-4816.533465805745
 21
4569.26397685327
 31
0.0
  0
LINE
  5
1F3D2
330
2
100
AcDbEntity
  8
VLB
100
AcDbLine
 10
-4817.533465805744
 20
4579.263976853268
 30
0.0
 11
-4816.533465805745
 21
4579.263976853267
 31
0.0
  0
ARC
  5
1F3D3
330
2
100
AcDbEntity
  8
VLB
100
AcDbCircle
 10
-4805.533465805745
 20
4574.263976853269
 30
0.0
 40
12.99999999999925
100
AcDbArc
 50
157.3801350519214
 51
202.6198649480785
  0
CIRCLE
  5
1F3D8
330
2
100
AcDbEntity
  8
VLB
100
AcDbCircle
 10
-3570.60827790787
 20
4574.263976853269
 30
0.0
 40
2.550000000006548
  0
CIRCLE
  5
1F3D9
330
2
100
AcDbEntity
  8
VLB
100
AcDbCircle
 10
-3570.60827790787
 20
4574.263976853269
 30
0.0
 40
5.000000000001818
  0
LINE
  5
1F3DA
330
2
100
AcDbEntity
  8
SPS
100
AcDbLine
 10
-3570.60827790787
 20
4566.855733999306
 30
0.0
 11
-3570.60827790787
 21
4582.748586077149
 31
0.0
  0
LINE
  5
1F3DB
330
2
100
AcDbEntity
  8
SPS
100
AcDbLine
 10
-3564.296921350795
 20
4574.263976853269
 30
0.0
 11
-3577.637607495437
 21
4574.263976853269
 31
0.0
  0
ARC
  5
1F3DF
330
2
100
AcDbEntity
  8
VLB
100
AcDbCircle
 10
-7106.832250088851
 20
4685.12805685327
 30
0.0
 40
12.99999999999925
100
AcDbArc
 50
157.3801350519214
 51
202.6198649480785
  0
LINE
  5
1F3E0
330
2
100
AcDbEntity
  8
VLB
100
AcDbLine
 10
-7118.83225008885
 20
4690.128056853271
 30
0.0
 11
-7117.832250088851
 21
4690.128056853268
 31
0.0
  0
LINE
  5
1F3E1
330
2
100
AcDbEntity
  8
VLB
100
AcDbLine
 10
-7118.83225008885
 20
4680.12805685327
 30
0.0
 11
-7117.832250088851
 21
4680.128056853272
 31
0.0
  0
LINE
  5
1F3E2
330
2
100
AcDbEntity
  8
SPS
100
AcDbLine
 10
-7109.037545579126
 20
4685.12805685327
 30
0.0
 11
-7122.076736185135
 21
4685.12805685327
 31
0.0
  0
LINE
  5
1F3E4
330
2
100
AcDbEntity
  8
SPS
100
AcDbLine
 10
-5865.595705633901
 20
4685.12805685327
 30
0.0
 11
-5878.936391778543
 21
4685.12805685327
 31
0.0
  0
LINE
  5
1F3E5
330
2
100
AcDbEntity
  8
SPS
100
AcDbLine
 10
-5871.907062190976
 20
4677.719813999308
 30
0.0
 11
-5871.907062190976
 21
4693.61266607715
 31
0.0
  0
CIRCLE
  5
1F3E6
330
2
100
AcDbEntity
  8
VLB
100
AcDbCircle
 10
-5871.907062190976
 20
4685.12805685327
 30
0.0
 40
5.000000000001818
  0
CIRCLE
  5
1F3E7
330
2
100
AcDbEntity
  8
VLB
100
AcDbCircle
 10
-5871.907062190976
 20
4685.12805685327
 30
0.0
 40
2.550000000006548
  0
LINE
  5
1F3E8
330
2
100
AcDbEntity
  8
SPS
100
AcDbLine
 10
-4807.738761296019
 20
4685.12805685327
 30
0.0
 11
-4820.77795190203
 21
4685.12805685327
 31
0.0
  0
LINE
  5
1F3E9
330
2
100
AcDbEntity
  8
VLB
100
AcDbLine
 10
-4817.533465805744
 20
4680.12805685327
 30
0.0
 11
-4816.533465805745
 21
4680.128056853272
 31
0.0
  0
LINE
  5
1F3EA
330
2
100
AcDbEntity
  8
VLB
100
AcDbLine
 10
-4817.533465805744
 20
4690.128056853271
 30
0.0
 11
-4816.533465805745
 21
4690.128056853268
 31
0.0
  0
ARC
  5
1F3EB
330
2
100
AcDbEntity
  8
VLB
100
AcDbCircle
 10
-4805.533465805745
 20
4685.12805685327
 30
0.0
 40
12.99999999999925
100
AcDbArc
 50
157.3801350519214
 51
202.6198649480785
  0
CIRCLE
  5
1F3F0
330
2
100
AcDbEntity
  8
VLB
100
AcDbCircle
 10
-3570.60827790787
 20
4685.12805685327
 30
0.0
 40
2.550000000006548
  0
CIRCLE
  5
1F3F1
330
2
100
AcDbEntity
  8
VLB
100
AcDbCircle
 10
-3570.60827790787
 20
4685.12805685327
 30
0.0
 40
5.000000000001818
  0
LINE
  5
1F3F2
330
2
100
AcDbEntity
  8
SPS
100
AcDbLine
 10
-3570.60827790787
 20
4677.719813999308
 30
0.0
 11
-3570.60827790787
 21
4693.61266607715
 31
0.0
  0
LINE
  5
1F3F3
330
2
100
AcDbEntity
  8
SPS
100
AcDbLine
 10
-3564.296921350795
 20
4685.12805685327
 30
0.0
 11
-3577.637607495437
 21
4685.12805685327
 31
0.0
  0
ARC
  5
1F3F7
330
2
100
AcDbEntity
  8
VLB
100
AcDbCircle
 10
-7106.832250088851
 20
4795.99213685327
 30
0.0
 40
12.99999999999925
100
AcDbArc
 50
157.3801350519214
 51
202.6198649480785
  0
LINE
  5
1F3F8
330
2
100
AcDbEntity
  8
VLB
100
AcDbLine
 10
-7118.83225008885
 20
4800.992136853269
 30
0.0
 11
-7117.832250088851
 21
4800.992136853268
 31
0.0
  0
LINE
  5
1F3F9
330
2
100
AcDbEntity
  8
VLB
100
AcDbLine
 10
-7118.83225008885
 20
4790.99213685327
 30
0.0
 11
-7117.832250088851
 21
4790.992136853271
 31
0.0
  0
LINE
  5
1F3FA
330
2
100
AcDbEntity
  8
SPS
100
AcDbLine
 10
-7109.037545579126
 20
4795.99213685327
 30
0.0
 11
-7122.076736185135
 21
4795.99213685327
 31
0.0
  0
LINE
  5
1F3FC
330
2
100
AcDbEntity
  8
SPS
100
AcDbLine
 10
-5865.595705633901
 20
4795.99213685327
 30
0.0
 11
-5878.936391778543
 21
4795.99213685327
 31
0.0
  0
LINE
  5
1F3FD
330
2
100
AcDbEntity
  8
SPS
100
AcDbLine
 10
-5871.907062190976
 20
4788.583893999307
 30
0.0
 11
-5871.907062190976
 21
4804.47674607715
 31
0.0
  0
CIRCLE
  5
1F3FE
330
2
100
AcDbEntity
  8
VLB
100
AcDbCircle
 10
-5871.907062190976
 20
4795.99213685327
 30
0.0
 40
5.000000000001818
  0
CIRCLE
  5
1F3FF
330
2
100
AcDbEntity
  8
VLB
100
AcDbCircle
 10
-5871.907062190976
 20
4795.99213685327
 30
0.0
 40
2.550000000006548
  0
LINE
  5
1F400
330
2
100
AcDbEntity
  8
SPS
100
AcDbLine
 10
-4807.738761296019
 20
4795.99213685327
 30
0.0
 11
-4820.77795190203
 21
4795.99213685327
 31
0.0
  0
LINE
  5
1F401
330
2
100
AcDbEntity
  8
VLB
100
AcDbLine
 10
-4817.533465805744
 20
4790.99213685327
 30
0.0
 11
-4816.533465805745
 21
4790.992136853271
 31
0.0
  0
LINE
  5
1F402
330
2
100
AcDbEntity
  8
VLB
100
AcDbLine
 10
-4817.533465805744
 20
4800.992136853269
 30
0.0
 11
-4816.533465805745
 21
4800.992136853268
 31
0.0
  0
ARC
  5
1F403
330
2
100
AcDbEntity
  8
VLB
100
AcDbCircle
 10
-4805.533465805745
 20
4795.99213685327
 30
0.0
 40
12.99999999999925
100
AcDbArc
 50
157.3801350519214
 51
202.6198649480785
  0
CIRCLE
  5
1F408
330
2
100
AcDbEntity
  8
VLB
100
AcDbCircle
 10
-3570.60827790787
 20
4795.99213685327
 30
0.0
 40
2.550000000006548
  0
CIRCLE
  5
1F409
330
2
100
AcDbEntity
  8
VLB
100
AcDbCircle
 10
-3570.60827790787
 20
4795.99213685327
 30
0.0
 40
5.000000000001818
  0
LINE
  5
1F40A
330
2
100
AcDbEntity
  8
SPS
100
AcDbLine
 10
-3570.60827790787
 20
4788.583893999307
 30
0.0
 11
-3570.60827790787
 21
4804.47674607715
 31
0.0
  0
LINE
  5
1F40B
330
2
100
AcDbEntity
  8
SPS
100
AcDbLine
 10
-3564.296921350795
 20
4795.99213685327
 30
0.0
 11
-3577.637607495437
 21
4795.99213685327
 31
0.0
  0
ARC
  5
1F40F
330
2
100
AcDbEntity
  8
VLB
100
AcDbCircle
 10
-7106.832250088851
 20
4906.85621685327
 30
0.0
 40
12.99999999999925
100
AcDbArc
 50
157.3801350519214
 51
202.6198649480785
  0
LINE
  5
1F410
330
2
100
AcDbEntity
  8
VLB
100
AcDbLine
 10
-7118.83225008885
 20
4911.856216853269
 30
0.0
 11
-7117.832250088851
 21
4911.856216853268
 31
0.0
  0
LINE
  5
1F411
330
2
100
AcDbEntity
  8
VLB
100
AcDbLine
 10
-7118.83225008885
 20
4901.856216853269
 30
0.0
 11
-7117.832250088851
 21
4901.856216853271
 31
0.0
  0
LINE
  5
1F412
330
2
100
AcDbEntity
  8
SPS
100
AcDbLine
 10
-7109.037545579126
 20
4906.85621685327
 30
0.0
 11
-7122.076736185135
 21
4906.85621685327
 31
0.0
  0
LINE
  5
1F414
330
2
100
AcDbEntity
  8
SPS
100
AcDbLine
 10
-5865.595705633901
 20
4906.85621685327
 30
0.0
 11
-5878.936391778543
 21
4906.85621685327
 31
0.0
  0
LINE
  5
1F415
330
2
100
AcDbEntity
  8
SPS
100
AcDbLine
 10
-5871.907062190976
 20
4899.447973999308
 30
0.0
 11
-5871.907062190976
 21
4915.340826077151
 31
0.0
  0
CIRCLE
  5
1F416
330
2
100
AcDbEntity
  8
VLB
100
AcDbCircle
 10
-5871.907062190976
 20
4906.85621685327
 30
0.0
 40
5.000000000001818
  0
CIRCLE
  5
1F417
330
2
100
AcDbEntity
  8
VLB
100
AcDbCircle
 10
-5871.907062190976
 20
4906.85621685327
 30
0.0
 40
2.550000000006548
  0
LINE
  5
1F418
330
2
100
AcDbEntity
  8
SPS
100
AcDbLine
 10
-4807.738761296019
 20
4906.85621685327
 30
0.0
 11
-4820.77795190203
 21
4906.85621685327
 31
0.0
  0
LINE
  5
1F419
330
2
100
AcDbEntity
  8
VLB
100
AcDbLine
 10
-4817.533465805744
 20
4901.856216853269
 30
0.0
 11
-4816.533465805745
 21
4901.856216853271
 31
0.0
  0
LINE
  5
1F41A
330
2
100
AcDbEntity
  8
VLB
100
AcDbLine
 10
-4817.533465805744
 20
4911.856216853269
 30
0.0
 11
-4816.533465805745
 21
4911.856216853268
 31
0.0
  0
ARC
  5
1F41B
330
2
100
AcDbEntity
  8
VLB
100
AcDbCircle
 10
-4805.533465805745
 20
4906.85621685327
 30
0.0
 40
12.99999999999925
100
AcDbArc
 50
157.3801350519214
 51
202.6198649480785
  0
CIRCLE
  5
1F420
330
2
100
AcDbEntity
  8
VLB
100
AcDbCircle
 10
-3570.60827790787
 20
4906.85621685327
 30
0.0
 40
2.550000000006548
  0
CIRCLE
  5
1F421
330
2
100
AcDbEntity
  8
VLB
100
AcDbCircle
 10
-3570.60827790787
 20
4906.85621685327
 30
0.0
 40
5.000000000001818
  0
LINE
  5
1F422
330
2
100
AcDbEntity
  8
SPS
100
AcDbLine
 10
-3570.60827790787
 20
4899.447973999308
 30
0.0
 11
-3570.60827790787
 21
4915.340826077151
 31
0.0
  0
LINE
  5
1F423
330
2
100
AcDbEntity
  8
SPS
100
AcDbLine
 10
-3564.296921350795
 20
4906.85621685327
 30
0.0
 11
-3577.637607495437
 21
4906.85621685327
 31
0.0
  0
ARC
  5
1F427
330
2
100
AcDbEntity
  8
VLB
100
AcDbCircle
 10
-7106.832250088851
 20
5017.72029685327
 30
0.0
 40
12.99999999999925
100
AcDbArc
 50
157.3801350519214
 51
202.6198649480785
  0
LINE
  5
1F428
330
2
100
AcDbEntity
  8
VLB
100
AcDbLine
 10
-7118.83225008885
 20
5022.72029685327
 30
0.0
 11
-7117.832250088851
 21
5022.720296853268
 31
0.0
  0
LINE
  5
1F429
330
2
100
AcDbEntity
  8
VLB
100
AcDbLine
 10
-7118.83225008885
 20
5012.72029685327
 30
0.0
 11
-7117.832250088851
 21
5012.720296853272
 31
0.0
  0
LINE
  5
1F42A
330
2
100
AcDbEntity
  8
SPS
100
AcDbLine
 10
-7109.037545579126
 20
5017.72029685327
 30
0.0
 11
-7122.076736185135
 21
5017.72029685327
 31
0.0
  0
LINE
  5
1F42C
330
2
100
AcDbEntity
  8
SPS
100
AcDbLine
 10
-5865.595705633901
 20
5017.72029685327
 30
0.0
 11
-5878.936391778543
 21
5017.72029685327
 31
0.0
  0
LINE
  5
1F42D
330
2
100
AcDbEntity
  8
SPS
100
AcDbLine
 10
-5871.907062190976
 20
5010.312053999308
 30
0.0
 11
-5871.907062190976
 21
5026.20490607715
 31
0.0
  0
CIRCLE
  5
1F42E
330
2
100
AcDbEntity
  8
VLB
100
AcDbCircle
 10
-5871.907062190976
 20
5017.72029685327
 30
0.0
 40
5.000000000001818
  0
CIRCLE
  5
1F42F
330
2
100
AcDbEntity
  8
VLB
100
AcDbCircle
 10
-5871.907062190976
 20
5017.72029685327
 30
0.0
 40
2.550000000006548
  0
LINE
  5
1F430
330
2
100
AcDbEntity
  8
SPS
100
AcDbLine
 10
-4807.738761296019
 20
5017.72029685327
 30
0.0
 11
-4820.77795190203
 21
5017.72029685327
 31
0.0
  0
LINE
  5
1F431
330
2
100
AcDbEntity
  8
VLB
100
AcDbLine
 10
-4817.533465805744
 20
5012.72029685327
 30
0.0
 11
-4816.533465805745
 21
5012.720296853272
 31
0.0
  0
LINE
  5
1F432
330
2
100
AcDbEntity
  8
VLB
100
AcDbLine
 10
-4817.533465805744
 20
5022.72029685327
 30
0.0
 11
-4816.533465805745
 21
5022.720296853268
 31
0.0
  0
ARC
  5
1F433
330
2
100
AcDbEntity
  8
VLB
100
AcDbCircle
 10
-4805.533465805745
 20
5017.72029685327
 30
0.0
 40
12.99999999999925
100
AcDbArc
 50
157.3801350519214
 51
202.6198649480785
  0
CIRCLE
  5
1F438
330
2
100
AcDbEntity
  8
VLB
100
AcDbCircle
 10
-3570.60827790787
 20
5017.72029685327
 30
0.0
 40
2.550000000006548
  0
CIRCLE
  5
1F439
330
2
100
AcDbEntity
  8
VLB
100
AcDbCircle
 10
-3570.60827790787
 20
5017.72029685327
 30
0.0
 40
5.000000000001818
  0
LINE
  5
1F43A
330
2
100
AcDbEntity
  8
SPS
100
AcDbLine
 10
-3570.60827790787
 20
5010.312053999308
 30
0.0
 11
-3570.60827790787
 21
5026.20490607715
 31
0.0
  0
LINE
  5
1F43B
330
2
100
AcDbEntity
  8
SPS
100
AcDbLine
 10
-3564.296921350795
 20
5017.72029685327
 30
0.0
 11
-3577.637607495437
 21
5017.72029685327
 31
0.0
  0
ARC
  5
1F43F
330
2
100
AcDbEntity
  8
VLB
100
AcDbCircle
 10
-7106.832250088851
 20
5128.584376853271
 30
0.0
 40
12.99999999999925
100
AcDbArc
 50
157.3801350519214
 51
202.6198649480785
  0
LINE
  5
1F440
330
2
100
AcDbEntity
  8
VLB
100
AcDbLine
 10
-7118.83225008885
 20
5133.584376853271
 30
0.0
 11
-7117.832250088851
 21
5133.584376853269
 31
0.0
  0
LINE
  5
1F441
330
2
100
AcDbEntity
  8
VLB
100
AcDbLine
 10
-7118.83225008885
 20
5123.58437685327
 30
0.0
 11
-7117.832250088851
 21
5123.584376853273
 31
0.0
  0
LINE
  5
1F442
330
2
100
AcDbEntity
  8
SPS
100
AcDbLine
 10
-7109.037545579126
 20
5128.584376853271
 30
0.0
 11
-7122.076736185135
 21
5128.584376853271
 31
0.0
  0
LINE
  5
1F444
330
2
100
AcDbEntity
  8
SPS
100
AcDbLine
 10
-5865.595705633901
 20
5128.584376853271
 30
0.0
 11
-5878.936391778543
 21
5128.584376853271
 31
0.0
  0
LINE
  5
1F445
330
2
100
AcDbEntity
  8
SPS
100
AcDbLine
 10
-5871.907062190976
 20
5121.176133999308
 30
0.0
 11
-5871.907062190976
 21
5137.06898607715
 31
0.0
  0
CIRCLE
  5
1F446
330
2
100
AcDbEntity
  8
VLB
100
AcDbCircle
 10
-5871.907062190976
 20
5128.584376853271
 30
0.0
 40
5.000000000001818
  0
CIRCLE
  5
1F447
330
2
100
AcDbEntity
  8
VLB
100
AcDbCircle
 10
-5871.907062190976
 20
5128.584376853271
 30
0.0
 40
2.550000000006548
  0
LINE
  5
1F448
330
2
100
AcDbEntity
  8
SPS
100
AcDbLine
 10
-4807.738761296019
 20
5128.584376853271
 30
0.0
 11
-4820.77795190203
 21
5128.584376853271
 31
0.0
  0
LINE
  5
1F449
330
2
100
AcDbEntity
  8
VLB
100
AcDbLine
 10
-4817.533465805744
 20
5123.58437685327
 30
0.0
 11
-4816.533465805745
 21
5123.584376853273
 31
0.0
  0
LINE
  5
1F44A
330
2
100
AcDbEntity
  8
VLB
100
AcDbLine
 10
-4817.533465805744
 20
5133.584376853271
 30
0.0
 11
-4816.533465805745
 21
5133.584376853269
 31
0.0
  0
ARC
  5
1F44B
330
2
100
AcDbEntity
  8
VLB
100
AcDbCircle
 10
-4805.533465805745
 20
5128.584376853271
 30
0.0
 40
12.99999999999925
100
AcDbArc
 50
157.3801350519214
 51
202.6198649480785
  0
CIRCLE
  5
1F450
330
2
100
AcDbEntity
  8
VLB
100
AcDbCircle
 10
-3570.60827790787
 20
5128.584376853271
 30
0.0
 40
2.550000000006548
  0
CIRCLE
  5
1F451
330
2
100
AcDbEntity
  8
VLB
100
AcDbCircle
 10
-3570.60827790787
 20
5128.584376853271
 30
0.0
 40
5.000000000001818
  0
LINE
  5
1F452
330
2
100
AcDbEntity
  8
SPS
100
AcDbLine
 10
-3570.60827790787
 20
5121.176133999308
 30
0.0
 11
-3570.60827790787
 21
5137.06898607715
 31
0.0
  0
LINE
  5
1F453
330
2
100
AcDbEntity
  8
SPS
100
AcDbLine
 10
-3564.296921350795
 20
5128.584376853271
 30
0.0
 11
-3577.637607495437
 21
5128.584376853271
 31
0.0
  0
ARC
  5
1F457
330
2
100
AcDbEntity
  8
VLB
100
AcDbCircle
 10
-7106.832250088851
 20
5239.448456853271
 30
0.0
 40
12.99999999999925
100
AcDbArc
 50
157.3801350519214
 51
202.6198649480785
  0
LINE
  5
1F458
330
2
100
AcDbEntity
  8
VLB
100
AcDbLine
 10
-7118.83225008885
 20
5244.44845685327
 30
0.0
 11
-7117.832250088851
 21
5244.448456853269
 31
0.0
  0
LINE
  5
1F459
330
2
100
AcDbEntity
  8
VLB
100
AcDbLine
 10
-7118.83225008885
 20
5234.448456853271
 30
0.0
 11
-7117.832250088851
 21
5234.448456853272
 31
0.0
  0
LINE
  5
1F45A
330
2
100
AcDbEntity
  8
SPS
100
AcDbLine
 10
-7109.037545579126
 20
5239.448456853271
 30
0.0
 11
-7122.076736185135
 21
5239.448456853271
 31
0.0
  0
LINE
  5
1F45C
330
2
100
AcDbEntity
  8
SPS
100
AcDbLine
 10
-5865.595705633901
 20
5239.448456853271
 30
0.0
 11
-5878.936391778543
 21
5239.448456853271
 31
0.0
  0
LINE
  5
1F45D
330
2
100
AcDbEntity
  8
SPS
100
AcDbLine
 10
-5871.907062190976
 20
5232.040213999308
 30
0.0
 11
-5871.907062190976
 21
5247.933066077151
 31
0.0
  0
CIRCLE
  5
1F45E
330
2
100
AcDbEntity
  8
VLB
100
AcDbCircle
 10
-5871.907062190976
 20
5239.448456853271
 30
0.0
 40
5.000000000001818
  0
CIRCLE
  5
1F45F
330
2
100
AcDbEntity
  8
VLB
100
AcDbCircle
 10
-5871.907062190976
 20
5239.448456853271
 30
0.0
 40
2.550000000006548
  0
LINE
  5
1F460
330
2
100
AcDbEntity
  8
SPS
100
AcDbLine
 10
-4807.738761296019
 20
5239.448456853271
 30
0.0
 11
-4820.77795190203
 21
5239.448456853271
 31
0.0
  0
LINE
  5
1F461
330
2
100
AcDbEntity
  8
VLB
100
AcDbLine
 10
-4817.533465805744
 20
5234.448456853271
 30
0.0
 11
-4816.533465805745
 21
5234.448456853272
 31
0.0
  0
LINE
  5
1F462
330
2
100
AcDbEntity
  8
VLB
100
AcDbLine
 10
-4817.533465805744
 20
5244.44845685327
 30
0.0
 11
-4816.533465805745
 21
5244.448456853269
 31
0.0
  0
ARC
  5
1F463
330
2
100
AcDbEntity
  8
VLB
100
AcDbCircle
 10
-4805.533465805745
 20
5239.448456853271
 30
0.0
 40
12.99999999999925
100
AcDbArc
 50
157.3801350519214
 51
202.6198649480785
  0
CIRCLE
  5
1F468
330
2
100
AcDbEntity
  8
VLB
100
AcDbCircle
 10
-3570.60827790787
 20
5239.448456853271
 30
0.0
 40
2.550000000006548
  0
CIRCLE
  5
1F469
330
2
100
AcDbEntity
  8
VLB
100
AcDbCircle
 10
-3570.60827790787
 20
5239.448456853271
 30
0.0
 40
5.000000000001818
  0
LINE
  5
1F46A
330
2
100
AcDbEntity
  8
SPS
100
AcDbLine
 10
-3570.60827790787
 20
5232.040213999308
 30
0.0
 11
-3570.60827790787
 21
5247.933066077151
 31
0.0
  0
LINE
  5
1F46B
330
2
100
AcDbEntity
  8
SPS
100
AcDbLine
 10
-3564.296921350795
 20
5239.448456853271
 30
0.0
 11
-3577.637607495437
 21
5239.448456853271
 31
0.0
  0
ARC
  5
1F46F
330
2
100
AcDbEntity
  8
VLB
100
AcDbCircle
 10
-7106.832250088851
 20
5350.312536853271
 30
0.0
 40
12.99999999999925
100
AcDbArc
 50
157.3801350519214
 51
202.6198649480785
  0
LINE
  5
1F470
330
2
100
AcDbEntity
  8
VLB
100
AcDbLine
 10
-7118.83225008885
 20
5355.312536853271
 30
0.0
 11
-7117.832250088851
 21
5355.312536853269
 31
0.0
  0
LINE
  5
1F471
330
2
100
AcDbEntity
  8
VLB
100
AcDbLine
 10
-7118.83225008885
 20
5345.312536853271
 30
0.0
 11
-7117.832250088851
 21
5345.312536853273
 31
0.0
  0
LINE
  5
1F472
330
2
100
AcDbEntity
  8
SPS
100
AcDbLine
 10
-7109.037545579126
 20
5350.312536853271
 30
0.0
 11
-7122.076736185135
 21
5350.312536853271
 31
0.0
  0
LINE
  5
1F474
330
2
100
AcDbEntity
  8
SPS
100
AcDbLine
 10
-5865.595705633901
 20
5350.312536853271
 30
0.0
 11
-5878.936391778543
 21
5350.312536853271
 31
0.0
  0
LINE
  5
1F475
330
2
100
AcDbEntity
  8
SPS
100
AcDbLine
 10
-5871.907062190976
 20
5342.904293999309
 30
0.0
 11
-5871.907062190976
 21
5358.797146077151
 31
0.0
  0
CIRCLE
  5
1F476
330
2
100
AcDbEntity
  8
VLB
100
AcDbCircle
 10
-5871.907062190976
 20
5350.312536853271
 30
0.0
 40
5.000000000001818
  0
CIRCLE
  5
1F477
330
2
100
AcDbEntity
  8
VLB
100
AcDbCircle
 10
-5871.907062190976
 20
5350.312536853271
 30
0.0
 40
2.550000000006548
  0
LINE
  5
1F478
330
2
100
AcDbEntity
  8
SPS
100
AcDbLine
 10
-4807.738761296019
 20
5350.312536853271
 30
0.0
 11
-4820.77795190203
 21
5350.312536853271
 31
0.0
  0
LINE
  5
1F479
330
2
100
AcDbEntity
  8
VLB
100
AcDbLine
 10
-4817.533465805744
 20
5345.312536853271
 30
0.0
 11
-4816.533465805745
 21
5345.312536853273
 31
0.0
  0
LINE
  5
1F47A
330
2
100
AcDbEntity
  8
VLB
100
AcDbLine
 10
-4817.533465805744
 20
5355.312536853271
 30
0.0
 11
-4816.533465805745
 21
5355.312536853269
 31
0.0
  0
ARC
  5
1F47B
330
2
100
AcDbEntity
  8
VLB
100
AcDbCircle
 10
-4805.533465805745
 20
5350.312536853271
 30
0.0
 40
12.99999999999925
100
AcDbArc
 50
157.3801350519214
 51
202.6198649480785
  0
CIRCLE
  5
1F480
330
2
100
AcDbEntity
  8
VLB
100
AcDbCircle
 10
-3570.60827790787
 20
5350.312536853271
 30
0.0
 40
2.550000000006548
  0
CIRCLE
  5
1F481
330
2
100
AcDbEntity
  8
VLB
100
AcDbCircle
 10
-3570.60827790787
 20
5350.312536853271
 30
0.0
 40
5.000000000001818
  0
LINE
  5
1F482
330
2
100
AcDbEntity
  8
SPS
100
AcDbLine
 10
-3570.60827790787
 20
5342.904293999309
 30
0.0
 11
-3570.60827790787
 21
5358.797146077151
 31
0.0
  0
LINE
  5
1F483
330
2
100
AcDbEntity
  8
SPS
100
AcDbLine
 10
-3564.296921350795
 20
5350.312536853271
 30
0.0
 11
-3577.637607495437
 21
5350.312536853271
 31
0.0
  0
LINE
  5
1F489
330
2
100
AcDbEntity
  8
VLB
100
AcDbLine
 10
-6984.832250088854
 20
5494.712106273556
 30
0.0
 11
-6571.332250088852
 21
5494.712106273557
 31
0.0
  0
LINE
  5
1F48A
330
2
100
AcDbEntity
  8
VLB
100
AcDbLine
 10
-4683.533465805747
 20
5494.712106273556
 30
0.0
 11
-3693.533465805747
 21
5494.712106273556
 31
0.0
  0
LINE
  5
1F48B
330
2
100
AcDbEntity
  8
VLB
100
AcDbLine
 10
-3693.533465805747
 20
5472.712106273568
 30
0.0
 11
-3693.533465805747
 21
5494.712106273556
 31
0.0
  0
LINE
  5
1F48C
330
2
100
AcDbEntity
  8
VLB
100
AcDbLine
 10
-4683.533465805747
 20
5472.712106273568
 30
0.0
 11
-4683.533465805747
 21
5494.712106273556
 31
0.0
  0
LINE
  5
1F48D
330
2
100
AcDbEntity
  8
VLB
100
AcDbLine
 10
-6984.832250088854
 20
5472.712106273568
 30
0.0
 11
-6984.832250088854
 21
5494.712106273556
 31
0.0
  0
LINE
  5
1F48E
330
2
100
AcDbEntity
  8
VLB
100
AcDbLine
 10
-5994.832250088854
 20
5472.712106273568
 30
0.0
 11
-5994.832250088854
 21
5494.712106273559
 31
0.0
  0
LINE
  5
1F48F
330
2
100
AcDbEntity
  8
VLB
100
AcDbLine
 10
-4816.533465805747
 20
4422.712106273567
 30
0.0
 11
-3560.533465805747
 21
4422.712106273567
 31
0.0
  0
LINE
  5
1F490
330
2
100
AcDbEntity
  8
VLB
100
AcDbLine
 10
-3560.533465805747
 20
4422.712106273567
 30
0.0
 11
-3560.533465805747
 21
5472.712106273568
 31
0.0
  0
LINE
  5
1F491
330
2
100
AcDbEntity
  8
VLB
100
AcDbLine
 10
-3560.533465805747
 20
5472.712106273568
 30
0.0
 11
-4816.533465805747
 21
5472.712106273568
 31
0.0
  0
LINE
  5
1F492
330
2
100
AcDbEntity
  8
VLB
100
AcDbLine
 10
-4816.533465805747
 20
5472.712106273568
 30
0.0
 11
-4816.533465805747
 21
4422.712106273567
 31
0.0
  0
LINE
  5
1F4B3
330
2
100
AcDbEntity
  8
VLB
100
AcDbLine
 10
-7117.832250088854
 20
4422.712106273567
 30
0.0
 11
-5861.832250088854
 21
4422.712106273567
 31
0.0
  0
LINE
  5
1F4B4
330
2
100
AcDbEntity
  8
VLB
100
AcDbLine
 10
-5861.832250088854
 20
4422.712106273567
 30
0.0
 11
-5861.832250088854
 21
5472.712106273568
 31
0.0
  0
LINE
  5
1F4B5
330
2
100
AcDbEntity
  8
VLB
100
AcDbLine
 10
-5861.832250088854
 20
5472.712106273568
 30
0.0
 11
-7117.832250088854
 21
5472.712106273568
 31
0.0
  0
LINE
  5
1F4B6
330
2
100
AcDbEntity
  8
VLB
100
AcDbLine
 10
-7117.832250088854
 20
5472.712106273568
 30
0.0
 11
-7117.832250088854
 21
4422.712106273567
 31
0.0
  0
LINE
  5
1F4CF
330
2
100
AcDbEntity
  8
SPS
100
AcDbLine
 10
-6798.578242509758
 20
4447.712106273567
 30
0.0
 11
-6781.086257667955
 21
4447.712106273567
 31
0.0
  0
LWPOLYLINE
  5
1F4D0
330
2
100
AcDbEntity
  8
VLB
100
AcDbPolyline
 90
        6
 70
     1
 43
0.0
 10
-6793.585026838589
 20
4454.212106273568
 10
-6797.337803588321
 20
4447.712106273567
 10
-6793.585026838589
 20
4441.212106273567
 10
-6786.079473339125
 20
4441.212106273567
 10
-6782.326696589392
 20
4447.712106273567
 10
-6786.079473339125
 20
4454.212106273568
  0
CIRCLE
  5
1F4D1
330
2
100
AcDbEntity
  8
VLB
100
AcDbCircle
 10
-6789.832250088856
 20
4447.712106273567
 30
0.0
 40
6.5
  0
LINE
  5
1F4D2
330
2
100
AcDbEntity
  8
SPS
100
AcDbLine
 10
-6789.832250088856
 20
4456.458098694469
 30
0.0
 11
-6789.832250088856
 21
4438.966113852666
 31
0.0
  0
LINE
  5
1F4D3
330
2
100
AcDbEntity
  8
SPS
100
AcDbLine
 10
-6198.578242509747
 20
4447.712106273567
 30
0.0
 11
-6181.086257667945
 21
4447.712106273567
 31
0.0
  0
LWPOLYLINE
  5
1F4D4
330
2
100
AcDbEntity
  8
VLB
100
AcDbPolyline
 90
        6
 70
     1
 43
0.0
 10
-6193.585026838579
 20
4454.212106273568
 10
-6197.337803588311
 20
4447.712106273567
 10
-6193.585026838579
 20
4441.212106273567
 10
-6186.079473339114
 20
4441.212106273567
 10
-6182.326696589381
 20
4447.712106273567
 10
-6186.079473339114
 20
4454.212106273568
  0
CIRCLE
  5
1F4D5
330
2
100
AcDbEntity
  8
VLB
100
AcDbCircle
 10
-6189.832250088846
 20
4447.712106273567
 30
0.0
 40
6.5
  0
LINE
  5
1F4D6
330
2
100
AcDbEntity
  8
SPS
100
AcDbLine
 10
-6189.832250088846
 20
4456.458098694469
 30
0.0
 11
-6189.832250088846
 21
4438.966113852666
 31
0.0
  0
LINE
  5
1F4D7
330
2
100
AcDbEntity
  8
SPS
100
AcDbLine
 10
-4497.279458226652
 20
4447.712106273567
 30
0.0
 11
-4479.787473384849
 21
4447.712106273567
 31
0.0
  0
LWPOLYLINE
  5
1F4D8
330
2
100
AcDbEntity
  8
VLB
100
AcDbPolyline
 90
        6
 70
     1
 43
0.0
 10
-4492.286242555483
 20
4454.212106273568
 10
-4496.039019305215
 20
4447.712106273567
 10
-4492.286242555483
 20
4441.212106273567
 10
-4484.780689056019
 20
4441.212106273567
 10
-4481.027912306285
 20
4447.712106273567
 10
-4484.780689056019
 20
4454.212106273568
  0
CIRCLE
  5
1F4D9
330
2
100
AcDbEntity
  8
VLB
100
AcDbCircle
 10
-4488.53346580575
 20
4447.712106273567
 30
0.0
 40
6.5
  0
LINE
  5
1F4DA
330
2
100
AcDbEntity
  8
SPS
100
AcDbLine
 10
-4488.53346580575
 20
4456.458098694469
 30
0.0
 11
-4488.53346580575
 21
4438.966113852666
 31
0.0
  0
LINE
  5
1F4DB
330
2
100
AcDbEntity
  8
SPS
100
AcDbLine
 10
-3897.279458226641
 20
4447.712106273567
 30
0.0
 11
-3879.787473384839
 21
4447.712106273567
 31
0.0
  0
LWPOLYLINE
  5
1F4DC
330
2
100
AcDbEntity
  8
VLB
100
AcDbPolyline
 90
        6
 70
     1
 43
0.0
 10
-3892.286242555472
 20
4454.212106273568
 10
-3896.039019305204
 20
4447.712106273567
 10
-3892.286242555472
 20
4441.212106273567
 10
-3884.780689056007
 20
4441.212106273567
 10
-3881.027912306274
 20
4447.712106273567
 10
-3884.780689056007
 20
4454.212106273568
  0
CIRCLE
  5
1F4DD
330
2
100
AcDbEntity
  8
VLB
100
AcDbCircle
 10
-3888.53346580574
 20
4447.712106273567
 30
0.0
 40
6.5
  0
LINE
  5
1F4DE
330
2
100
AcDbEntity
  8
SPS
100
AcDbLine
 10
-3888.53346580574
 20
4456.458098694469
 30
0.0
 11
-3888.53346580574
 21
4438.966113852666
 31
0.0
  0
LINE
  5
1F4E1
330
2
100
AcDbEntity
  8
VLB
100
AcDbLine
 10
-6408.332250088851
 20
5486.90963851593
 30
0.0
 11
-6571.33225008885
 21
5486.90963851593
 31
0.0
  0
LINE
  5
1F4E2
330
2
100
AcDbEntity
  8
VLB
100
AcDbLine
 10
-6409.33225008885
 20
5488.408813839843
 30
0.0
 11
-6570.332250088853
 21
5488.408813839843
 31
0.0
  0
LINE
  5
1F4E3
330
2
100
AcDbEntity
  8
VLB
100
AcDbLine
 10
-6410.332250088849
 20
5493.600188460664
 30
0.0
 11
-6569.332250088854
 21
5493.600188460664
 31
0.0
  0
LINE
  5
1F4E4
330
2
100
AcDbEntity
  8
VLB
100
AcDbLine
 10
-6409.33225008885
 20
5494.599638676607
 30
0.0
 11
-6570.332250088853
 21
5494.599638676607
 31
0.0
  0
LINE
  5
1F4E5
330
2
100
AcDbEntity
  8
VLB
100
AcDbLine
 10
-6489.832250088851
 20
5504.59099689678
 30
0.0
 11
-6409.33225008885
 21
5501.940161246215
 31
0.0
  0
LINE
  5
1F4E6
330
2
100
AcDbEntity
  8
VLB
100
AcDbLine
 10
-6571.332250088852
 20
5486.90963851593
 30
0.0
 11
-6571.33225008885
 21
5523.328510515895
 31
0.0
  0
LINE
  5
1F4E7
330
2
100
AcDbEntity
  8
VLB
100
AcDbLine
 10
-6570.332250088853
 20
5488.408813839843
 30
0.0
 11
-6570.332250088852
 21
5515.696752268439
 31
0.0
  0
LINE
  5
1F4E8
330
2
100
AcDbEntity
  8
VLB
100
AcDbLine
 10
-6570.332250088852
 20
5515.696752268439
 30
0.0
 11
-6571.332250088852
 21
5515.696752268439
 31
0.0
  0
LINE
  5
1F4E9
330
2
100
AcDbEntity
  8
VLB
100
AcDbLine
 10
-6570.332250088852
 20
5510.110104709973
 30
0.0
 11
-6571.332250088852
 21
5510.110104709973
 31
0.0
  0
LINE
  5
1F4EA
330
2
100
AcDbEntity
  8
VLB
100
AcDbLine
 10
-6569.332250088854
 20
5493.600188460664
 30
0.0
 11
-6569.332250088854
 21
5494.599638676607
 31
0.0
  0
LINE
  5
1F4EB
330
2
100
AcDbEntity
  8
VLB
100
AcDbLine
 10
-6570.332250088853
 20
5501.940161246214
 30
0.0
 11
-6489.832250088851
 21
5504.59099689678
 31
0.0
  0
LINE
  5
1F4EC
330
2
100
AcDbEntity
  8
VLB
100
AcDbLine
 10
-6408.332250088851
 20
5486.90963851593
 30
0.0
 11
-6408.332250088851
 21
5523.328510515899
 31
0.0
  0
LINE
  5
1F4ED
330
2
100
AcDbEntity
  8
VLB
100
AcDbLine
 10
-6409.33225008885
 20
5488.408813839843
 30
0.0
 11
-6409.33225008885
 21
5515.696752268439
 31
0.0
  0
LINE
  5
1F4EE
330
2
100
AcDbEntity
  8
VLB
100
AcDbLine
 10
-6408.332250088851
 20
5510.110104709973
 30
0.0
 11
-6409.33225008885
 21
5510.110104709973
 31
0.0
  0
LINE
  5
1F4EF
330
2
100
AcDbEntity
  8
VLB
100
AcDbLine
 10
-6408.332250088854
 20
5515.696752268439
 30
0.0
 11
-6409.33225008885
 21
5515.696752268439
 31
0.0
  0
LINE
  5
1F4F0
330
2
100
AcDbEntity
  8
VLB
100
AcDbLine
 10
-6410.332250088849
 20
5493.600188460664
 30
0.0
 11
-6410.332250088849
 21
5494.599638676607
 31
0.0
  0
LINE
  5
1F4F1
330
2
100
AcDbEntity
  8
VLB
100
AcDbLine
 10
-6408.332250088851
 20
5494.712106273556
 30
0.0
 11
-5994.832250088854
 21
5494.712106273556
 31
0.0
  0
LINE
  5
1F4F2
330
2
100
AcDbEntity
  8
VLB
100
AcDbLine
 10
-6984.832250088856
 20
5509.712106273556
 30
0.0
 11
-6571.33225008885
 21
5523.328510515895
 31
0.0
  0
LINE
  5
1F4F3
330
2
100
AcDbEntity
  8
VLB
100
AcDbLine
 10
-6984.832250088856
 20
5494.712106273556
 30
0.0
 11
-6984.832250088856
 21
5509.712106273556
 31
0.0
  0
LINE
  5
1F4F4
330
2
100
AcDbEntity
  8
SPS
100
AcDbLine
 10
-6974.656741619799
 20
5475.622144285265
 30
0.0
 11
-6974.656741619799
 21
5491.514996363108
 31
0.0
  0
CIRCLE
  5
1F4F5
330
2
100
AcDbEntity
  8
VLB
100
AcDbCircle
 10
-6974.656741619799
 20
5483.030387139227
 30
0.0
 40
5.000000000001818
  0
ARC
  5
1F4F6
330
2
100
AcDbEntity
  8
VLB
100
AcDbCircle
 10
-6973.832250088851
 20
5483.030387139227
 30
0.0
 40
12.99999999999925
100
AcDbArc
 50
157.3801350519214
 51
202.6198649480785
  0
LINE
  5
1F4F7
330
2
100
AcDbEntity
  8
SPS
100
AcDbLine
 10
-6980.968098176875
 20
5483.030387139227
 30
0.0
 11
-6967.627412032232
 21
5483.030387139227
 31
0.0
  0
CIRCLE
  5
1F4F8
330
2
100
AcDbEntity
  8
VLB
100
AcDbCircle
 10
-6974.656741619799
 20
5483.030387139227
 30
0.0
 40
2.550000000006548
  0
LINE
  5
1F4F9
330
2
100
AcDbEntity
  8
VLB
100
AcDbLine
 10
-6985.832250088851
 20
5478.030387139227
 30
0.0
 11
-6984.832250088851
 21
5478.030387139229
 31
0.0
  0
LINE
  5
1F4FA
330
2
100
AcDbEntity
  8
SPS
100
AcDbLine
 10
-6976.037545579126
 20
5483.030387139227
 30
0.0
 11
-6989.076736185136
 21
5483.030387139227
 31
0.0
  0
LINE
  5
1F4FB
330
2
100
AcDbEntity
  8
VLB
100
AcDbLine
 10
-6985.832250088851
 20
5488.030387139227
 30
0.0
 11
-6984.832250088851
 21
5488.030387139225
 31
0.0
  0
LINE
  5
1F4FC
330
2
100
AcDbEntity
  8
VLB
100
AcDbLine
 10
-6984.832250088857
 20
5494.712106273556
 30
0.0
 11
-6984.832250088856
 21
5472.712106273568
 31
0.0
  0
LINE
  5
1F4FD
330
2
100
AcDbEntity
  8
VLB
100
AcDbLine
 10
-6408.332250088851
 20
5523.3285105159
 30
0.0
 11
-5994.832250088855
 21
5509.712106273557
 31
0.0
  0
LINE
  5
1F4FE
330
2
100
AcDbEntity
  8
VLB
100
AcDbLine
 10
-5994.832250088855
 20
5509.712106273557
 30
0.0
 11
-5994.832250088855
 21
5494.712106273556
 31
0.0
  0
LINE
  5
1F4FF
330
2
100
AcDbEntity
  8
SPS
100
AcDbLine
 10
-6004.907062190977
 20
5475.768341828423
 30
0.0
 11
-6004.907062190977
 21
5491.661193906266
 31
0.0
  0
CIRCLE
  5
1F500
330
2
100
AcDbEntity
  8
VLB
100
AcDbCircle
 10
-6004.907062190977
 20
5483.176584682386
 30
0.0
 40
5.000000000001818
  0
LINE
  5
1F501
330
2
100
AcDbEntity
  8
SPS
100
AcDbLine
 10
-5998.595705633901
 20
5483.176584682386
 30
0.0
 11
-6011.936391778544
 21
5483.176584682386
 31
0.0
  0
CIRCLE
  5
1F502
330
2
100
AcDbEntity
  8
VLB
100
AcDbCircle
 10
-6004.907062190977
 20
5483.176584682386
 30
0.0
 40
2.550000000006548
  0
LINE
  5
1F503
330
2
100
AcDbEntity
  8
VLB
100
AcDbLine
 10
-3524.2527768628
 20
5510.110104709972
 30
0.0
 11
-3692.660138248987
 21
5515.696752268439
 31
0.0
  0
LINE
  5
1F504
330
2
100
AcDbEntity
  8
VLB
100
AcDbLine
 10
-3503.510588733794
 20
5486.909638515929
 30
0.0
 11
-3503.460855966212
 21
5488.408813839842
 31
0.0
  0
LINE
  5
1F505
330
2
100
AcDbEntity
  8
VLB
100
AcDbLine
 10
-3503.460855966212
 20
5488.408813839842
 30
0.0
 11
-3524.2527768628
 21
5510.110104709972
 31
0.0
  0
LINE
  5
1F506
330
2
100
AcDbEntity
  8
VLB
100
AcDbLine
 10
-3503.510588733794
 20
5486.909638515929
 30
0.0
 11
-3693.406129762728
 21
5493.20912240975
 31
0.0
  0
LINE
  5
1F507
330
2
100
AcDbEntity
  8
SPS
100
AcDbLine
 10
-3685.21015850558
 20
5489.935583781299
 30
0.0
 11
-3684.961494667664
 21
5497.431460400862
 31
0.0
  0
LINE
  5
1F508
330
2
100
AcDbEntity
  8
VLB
100
AcDbLine
 10
-4188.533465805747
 20
5526.012275801872
 30
0.0
 11
-3693.533465805745
 21
5509.712106273557
 31
0.0
  0
LINE
  5
1F509
330
2
100
AcDbEntity
  8
VLB
100
AcDbLine
 10
-3693.533465805745
 20
5509.712106273557
 30
0.0
 11
-3693.533465805745
 21
5494.712106273556
 31
0.0
  0
LINE
  5
1F50A
330
2
100
AcDbEntity
  8
VLB
100
AcDbLine
 10
-3692.660138248987
 20
5515.696752268439
 30
0.0
 11
-3693.406129762728
 21
5493.20912240975
 31
0.0
  0
CIRCLE
  5
1F50B
330
2
100
AcDbEntity
  8
VLB
100
AcDbCircle
 10
-3703.608277907866
 20
5483.176584682386
 30
0.0
 40
2.550000000006548
  0
LINE
  5
1F50C
330
2
100
AcDbEntity
  8
SPS
100
AcDbLine
 10
-3697.296921350791
 20
5483.176584682386
 30
0.0
 11
-3710.637607495433
 21
5483.176584682386
 31
0.0
  0
CIRCLE
  5
1F50D
330
2
100
AcDbEntity
  8
VLB
100
AcDbCircle
 10
-3703.608277907866
 20
5483.176584682386
 30
0.0
 40
5.000000000001818
  0
LINE
  5
1F50E
330
2
100
AcDbEntity
  8
SPS
100
AcDbLine
 10
-3703.608277907866
 20
5475.768341828423
 30
0.0
 11
-3703.608277907866
 21
5491.661193906266
 31
0.0
  0
LINE
  5
1F50F
330
2
100
AcDbEntity
  8
VLB
100
AcDbLine
 10
-4873.556342877701
 20
5486.909638515928
 30
0.0
 11
-4683.660801848765
 21
5493.209122409748
 31
0.0
  0
LINE
  5
1F510
330
2
100
AcDbEntity
  8
VLB
100
AcDbLine
 10
-4873.606075645283
 20
5488.408813839841
 30
0.0
 11
-4852.814154748694
 21
5510.110104709971
 31
0.0
  0
LINE
  5
1F511
330
2
100
AcDbEntity
  8
VLB
100
AcDbLine
 10
-4873.556342877701
 20
5486.909638515928
 30
0.0
 11
-4873.606075645283
 21
5488.408813839841
 31
0.0
  0
LINE
  5
1F512
330
2
100
AcDbEntity
  8
VLB
100
AcDbLine
 10
-4852.814154748694
 20
5510.110104709971
 30
0.0
 11
-4684.406793362506
 21
5515.696752268438
 31
0.0
  0
LINE
  5
1F513
330
2
100
AcDbEntity
  8
SPS
100
AcDbLine
 10
-4691.856773105913
 20
5489.935583781298
 30
0.0
 11
-4692.10543694383
 21
5497.431460400861
 31
0.0
  0
LINE
  5
1F514
330
2
100
AcDbEntity
  8
VLB
100
AcDbLine
 10
-4188.533465805747
 20
5526.012275801872
 30
0.0
 11
-4683.533465805749
 21
5509.712106273556
 31
0.0
  0
LINE
  5
1F515
330
2
100
AcDbEntity
  8
VLB
100
AcDbLine
 10
-4684.406793362506
 20
5515.696752268438
 30
0.0
 11
-4683.660801848765
 21
5493.209122409748
 31
0.0
  0
LINE
  5
1F516
330
2
100
AcDbEntity
  8
VLB
100
AcDbLine
 10
-4683.533465805749
 20
5509.712106273556
 30
0.0
 11
-4683.533465805749
 21
5494.712106273556
 31
0.0
  0
LINE
  5
1F517
330
2
100
AcDbEntity
  8
VLB
100
AcDbLine
 10
-4684.53346580574
 20
5488.030387139227
 30
0.0
 11
-4683.533465805742
 21
5488.030387139225
 31
0.0
  0
LINE
  5
1F518
330
2
100
AcDbEntity
  8
VLB
100
AcDbLine
 10
-4684.53346580574
 20
5478.030387139227
 30
0.0
 11
-4683.533465805742
 21
5478.030387139229
 31
0.0
  0
ARC
  5
1F519
330
2
100
AcDbEntity
  8
VLB
100
AcDbCircle
 10
-4672.533465805742
 20
5483.030387139227
 30
0.0
 40
12.99999999999925
100
AcDbArc
 50
157.3801350519214
 51
202.6198649480785
  0
LINE
  5
1F51A
330
2
100
AcDbEntity
  8
SPS
100
AcDbLine
 10
-4674.738761296015
 20
5483.030387139227
 30
0.0
 11
-4687.777951902026
 21
5483.030387139227
 31
0.0
  0
CIRCLE
  5
1F51B
330
2
100
AcDbEntity
  8
VLB
100
AcDbCircle
 10
-4673.35795733669
 20
5483.030387139227
 30
0.0
 40
2.550000000006548
  0
LINE
  5
1F51C
330
2
100
AcDbEntity
  8
SPS
100
AcDbLine
 10
-4679.669313893764
 20
5483.030387139227
 30
0.0
 11
-4666.328627749122
 21
5483.030387139227
 31
0.0
  0
CIRCLE
  5
1F51D
330
2
100
AcDbEntity
  8
VLB
100
AcDbCircle
 10
-4673.35795733669
 20
5483.030387139227
 30
0.0
 40
5.000000000001818
  0
LINE
  5
1F51E
330
2
100
AcDbEntity
  8
SPS
100
AcDbLine
 10
-4673.35795733669
 20
5475.622144285265
 30
0.0
 11
-4673.35795733669
 21
5491.514996363108
 31
0.0
  0
TEXT
  5
1F523
330
2
100
AcDbEntity
  8
VLB
100
AcDbText
 10
-5833.163746838329
 20
5816.851113222138
 30
0.0
 40
80.0
  1
FDA 31-56..-..
  7
ROMANS8
100
AcDbText
  0
LINE
  5
1F524
330
2
100
AcDbEntity
  8
SPS
100
AcDbLine
 10
-6489.832250088854
 20
4084.533646176899
 30
0.0
 11
-6489.832250088854
 21
2684.533646176895
 31
0.0
  0
LINE
  5
1F525
330
2
100
AcDbEntity
  8
SPS
100
AcDbLine
 10
-7132.832250088853
 20
3384.533646176896
 30
0.0
 11
-5846.832250088853
 21
3384.533646176896
 31
0.0
  0
LINE
  5
1F526
330
2
100
AcDbEntity
  8
VLB
100
AcDbLine
 10
-7117.832250088854
 20
4011.033646176897
 30
0.0
 11
-7117.832250088854
 21
2757.533646176898
 31
0.0
  0
LINE
  5
1F527
330
2
100
AcDbEntity
  8
VLB
100
AcDbLine
 10
-7116.332250088856
 20
2756.533646176897
 30
0.0
 11
-6571.332250088854
 21
2756.533646176896
 31
0.0
  0
LINE
  5
1F528
330
2
100
AcDbEntity
  8
VLB
100
AcDbLine
 10
-5861.832250088854
 20
2758.033646176896
 30
0.0
 11
-5861.832250088854
 21
4011.533646176894
 31
0.0
  0
LINE
  5
1F529
330
2
100
AcDbEntity
  8
VLB
100
AcDbLine
 10
-5863.332250088852
 20
4012.533646176896
 30
0.0
 11
-6408.332250088854
 21
4012.533646176897
 31
0.0
  0
LINE
  5
1F52C
330
2
100
AcDbEntity
  8
VLB
100
AcDbLine
 10
-6783.165584088855
 20
4018.666979176894
 30
0.0
 11
-6782.134248088856
 21
4018.071536176894
 31
0.0
  0
LINE
  5
1F52D
330
2
100
AcDbEntity
  8
VLB
100
AcDbLine
 10
-6788.832250088853
 20
4013.333646176896
 30
0.0
 11
-6789.832250088856
 21
4013.333646176896
 31
0.0
  0
LINE
  5
1F52E
330
2
100
AcDbEntity
  8
VLB
100
AcDbLine
 10
-6797.530253088858
 20
4014.000313176896
 30
0.0
 11
-6797.530253088858
 21
4018.071536176894
 31
0.0
  0
LINE
  5
1F52F
330
2
100
AcDbEntity
  8
VLB
100
AcDbLine
 10
-6793.681252088856
 20
4014.000313176896
 30
0.0
 11
-6793.681252088856
 21
4018.071536176894
 31
0.0
  0
LINE
  5
1F530
330
2
100
AcDbEntity
  8
VLB
100
AcDbLine
 10
-6797.332250088857
 20
4013.333646176896
 30
0.0
 11
-6797.332250088857
 21
4012.533646176897
 31
0.0
  0
LINE
  5
1F531
330
2
100
AcDbEntity
  8
VLB
100
AcDbLine
 10
-6797.332250088857
 20
4012.533646176897
 30
0.0
 11
-6797.332250088857
 21
4013.333646176896
 31
0.0
1001
ACAD
1000
ASC_BOUNDS
1002
{
1070
    16
1002
}
  0
LINE
  5
1F532
330
2
100
AcDbEntity
  8
VLB
100
AcDbLine
 10
-6795.765583088854
 20
4013.333646176896
 30
0.0
 11
-6795.765583088854
 21
4014.000313176896
 31
0.0
  0
LINE
  5
1F533
330
2
100
AcDbEntity
  8
VLB
100
AcDbLine
 10
-6796.498916088857
 20
4018.666979176894
 30
0.0
 11
-6797.530253088858
 21
4018.071536176894
 31
0.0
  0
ARC
  5
1F534
330
2
100
AcDbEntity
  8
VLB
100
AcDbCircle
 10
-6795.595051088858
 20
4015.293707176896
 30
0.0
 40
3.373272
100
AcDbArc
 50
55.43490699991969
 51
120.0000000000272
  0
LINE
  5
1F535
330
2
100
AcDbEntity
  8
VLB
100
AcDbLine
 10
-6795.765583088854
 20
4013.333646176896
 30
0.0
 11
-6788.832250088853
 21
4013.333646176896
 31
0.0
  0
LINE
  5
1F536
330
2
100
AcDbEntity
  8
VLB
100
AcDbLine
 10
-6797.530253088858
 20
4014.000313176896
 30
0.0
 11
-6788.832250088853
 21
4014.000313176896
 31
0.0
  0
LINE
  5
1F537
330
2
100
AcDbEntity
  8
VLB
100
AcDbLine
 10
-6789.832250088856
 20
4013.333646176896
 30
0.0
 11
-6797.332250088857
 21
4013.333646176896
 31
0.0
  0
ARC
  5
1F538
330
2
100
AcDbEntity
  8
VLB
100
AcDbCircle
 10
-6789.832250088858
 20
4005.929090176897
 30
0.0
 40
12.737889
100
AcDbArc
 50
85.49730800002157
 51
107.5879540000596
  0
LINE
  5
1F539
330
2
100
AcDbEntity
  8
VLB
100
AcDbLine
 10
-6796.498916088857
 20
4018.666979176894
 30
0.0
 11
-6788.832250088853
 21
4018.666979176894
 31
0.0
  0
LINE
  5
1F53A
330
2
100
AcDbEntity
  8
VLB
100
AcDbLine
 10
-6788.832250088853
 20
4014.000313176896
 30
0.0
 11
-6782.134248088856
 21
4014.000313176896
 31
0.0
  0
LINE
  5
1F53B
330
2
100
AcDbEntity
  8
VLB
100
AcDbLine
 10
-6782.332251088854
 20
4013.333646176896
 30
0.0
 11
-6788.832250088853
 21
4013.333646176896
 31
0.0
  0
LINE
  5
1F53C
330
2
100
AcDbEntity
  8
VLB
100
AcDbLine
 10
-6787.750343088854
 20
4013.333646176896
 30
0.0
 11
-6783.898918088856
 21
4013.333646176896
 31
0.0
  0
ARC
  5
1F53D
330
2
100
AcDbEntity
  8
VLB
100
AcDbCircle
 10
-6789.832250088858
 20
4005.929090176897
 30
0.0
 40
12.737889
100
AcDbArc
 50
72.41204599994038
 51
85.49730800002157
  0
LINE
  5
1F53E
330
2
100
AcDbEntity
  8
VLB
100
AcDbLine
 10
-6788.832250088853
 20
4018.666979176894
 30
0.0
 11
-6783.165584088855
 21
4018.666979176894
 31
0.0
  0
LINE
  5
1F53F
330
2
100
AcDbEntity
  8
SPS
100
AcDbLine
 10
-6789.832250088856
 20
3990.56609802053
 30
0.0
 11
-6789.832250088856
 21
4025.645666681653
 31
0.0
  0
ARC
  5
1F540
330
2
100
AcDbEntity
  8
VLB
100
AcDbCircle
 10
-6784.069450088857
 20
4015.293707176896
 30
0.0
 40
3.373272
100
AcDbArc
 50
59.99999999997275
 51
124.5650930000802
  0
LINE
  5
1F541
330
2
100
AcDbEntity
  8
VLB
100
AcDbLine
 10
-6785.983249088857
 20
4014.000313176896
 30
0.0
 11
-6785.983249088857
 21
4018.071536176894
 31
0.0
  0
LINE
  5
1F542
330
2
100
AcDbEntity
  8
VLB
100
AcDbLine
 10
-6782.134248088856
 20
4014.000313176896
 30
0.0
 11
-6782.134248088856
 21
4018.071536176894
 31
0.0
  0
LINE
  5
1F543
330
2
100
AcDbEntity
  8
VLB
100
AcDbLine
 10
-6783.898918088856
 20
4013.333646176896
 30
0.0
 11
-6783.898918088856
 21
4014.000313176896
 31
0.0
  0
LINE
  5
1F544
330
2
100
AcDbEntity
  8
VLB
100
AcDbLine
 10
-6782.332251088854
 20
4012.533646176897
 30
0.0
 11
-6782.332251088854
 21
4013.333646176896
 31
0.0
1001
ACAD
1000
ASC_BOUNDS
1002
{
1070
    16
1002
}
  0
LINE
  5
1F545
330
2
100
AcDbEntity
  8
VLB
100
AcDbLine
 10
-6183.165584088845
 20
4018.666979176894
 30
0.0
 11
-6182.134248088845
 21
4018.071536176894
 31
0.0
  0
LINE
  5
1F546
330
2
100
AcDbEntity
  8
VLB
100
AcDbLine
 10
-6188.832250088843
 20
4013.333646176896
 30
0.0
 11
-6189.832250088846
 21
4013.333646176896
 31
0.0
  0
LINE
  5
1F547
330
2
100
AcDbEntity
  8
VLB
100
AcDbLine
 10
-6197.530253088848
 20
4014.000313176896
 30
0.0
 11
-6197.530253088848
 21
4018.071536176894
 31
0.0
  0
LINE
  5
1F548
330
2
100
AcDbEntity
  8
VLB
100
AcDbLine
 10
-6193.681252088845
 20
4014.000313176896
 30
0.0
 11
-6193.681252088845
 21
4018.071536176894
 31
0.0
  0
LINE
  5
1F549
330
2
100
AcDbEntity
  8
VLB
100
AcDbLine
 10
-6197.332250088846
 20
4013.333646176896
 30
0.0
 11
-6197.332250088846
 21
4012.533646176897
 31
0.0
  0
LINE
  5
1F54A
330
2
100
AcDbEntity
  8
VLB
100
AcDbLine
 10
-6197.332250088846
 20
4012.533646176897
 30
0.0
 11
-6197.332250088846
 21
4013.333646176896
 31
0.0
1001
ACAD
1000
ASC_BOUNDS
1002
{
1070
    16
1002
}
  0
LINE
  5
1F54B
330
2
100
AcDbEntity
  8
VLB
100
AcDbLine
 10
-6195.765583088843
 20
4013.333646176896
 30
0.0
 11
-6195.765583088843
 21
4014.000313176896
 31
0.0
  0
LINE
  5
1F54C
330
2
100
AcDbEntity
  8
VLB
100
AcDbLine
 10
-6196.498916088847
 20
4018.666979176894
 30
0.0
 11
-6197.530253088848
 21
4018.071536176894
 31
0.0
  0
ARC
  5
1F54D
330
2
100
AcDbEntity
  8
VLB
100
AcDbCircle
 10
-6195.595051088847
 20
4015.293707176896
 30
0.0
 40
3.373272
100
AcDbArc
 50
55.43490699991969
 51
120.0000000000272
  0
LINE
  5
1F54E
330
2
100
AcDbEntity
  8
VLB
100
AcDbLine
 10
-6195.765583088843
 20
4013.333646176896
 30
0.0
 11
-6188.832250088843
 21
4013.333646176896
 31
0.0
  0
LINE
  5
1F54F
330
2
100
AcDbEntity
  8
VLB
100
AcDbLine
 10
-6197.530253088848
 20
4014.000313176896
 30
0.0
 11
-6188.832250088843
 21
4014.000313176896
 31
0.0
  0
LINE
  5
1F550
330
2
100
AcDbEntity
  8
VLB
100
AcDbLine
 10
-6189.832250088846
 20
4013.333646176896
 30
0.0
 11
-6197.332250088846
 21
4013.333646176896
 31
0.0
  0
ARC
  5
1F551
330
2
100
AcDbEntity
  8
VLB
100
AcDbCircle
 10
-6189.832250088848
 20
4005.929090176897
 30
0.0
 40
12.737889
100
AcDbArc
 50
85.49730800002157
 51
107.5879540000596
  0
LINE
  5
1F552
330
2
100
AcDbEntity
  8
VLB
100
AcDbLine
 10
-6196.498916088847
 20
4018.666979176894
 30
0.0
 11
-6188.832250088843
 21
4018.666979176894
 31
0.0
  0
LINE
  5
1F553
330
2
100
AcDbEntity
  8
VLB
100
AcDbLine
 10
-6188.832250088843
 20
4014.000313176896
 30
0.0
 11
-6182.134248088845
 21
4014.000313176896
 31
0.0
  0
LINE
  5
1F554
330
2
100
AcDbEntity
  8
VLB
100
AcDbLine
 10
-6182.332251088843
 20
4013.333646176896
 30
0.0
 11
-6188.832250088843
 21
4013.333646176896
 31
0.0
  0
LINE
  5
1F555
330
2
100
AcDbEntity
  8
VLB
100
AcDbLine
 10
-6187.750343088843
 20
4013.333646176896
 30
0.0
 11
-6183.898918088846
 21
4013.333646176896
 31
0.0
  0
ARC
  5
1F556
330
2
100
AcDbEntity
  8
VLB
100
AcDbCircle
 10
-6189.832250088848
 20
4005.929090176897
 30
0.0
 40
12.737889
100
AcDbArc
 50
72.41204599994038
 51
85.49730800002157
  0
LINE
  5
1F557
330
2
100
AcDbEntity
  8
VLB
100
AcDbLine
 10
-6188.832250088843
 20
4018.666979176894
 30
0.0
 11
-6183.165584088845
 21
4018.666979176894
 31
0.0
  0
LINE
  5
1F558
330
2
100
AcDbEntity
  8
SPS
100
AcDbLine
 10
-6189.832250088846
 20
3990.56609802053
 30
0.0
 11
-6189.832250088846
 21
4025.645666681653
 31
0.0
  0
ARC
  5
1F559
330
2
100
AcDbEntity
  8
VLB
100
AcDbCircle
 10
-6184.069450088846
 20
4015.293707176896
 30
0.0
 40
3.373272
100
AcDbArc
 50
59.99999999997275
 51
124.5650930000802
  0
LINE
  5
1F55A
330
2
100
AcDbEntity
  8
VLB
100
AcDbLine
 10
-6185.983249088848
 20
4014.000313176896
 30
0.0
 11
-6185.983249088848
 21
4018.071536176894
 31
0.0
  0
LINE
  5
1F55B
330
2
100
AcDbEntity
  8
VLB
100
AcDbLine
 10
-6182.134248088845
 20
4014.000313176896
 30
0.0
 11
-6182.134248088845
 21
4018.071536176894
 31
0.0
  0
LINE
  5
1F55C
330
2
100
AcDbEntity
  8
VLB
100
AcDbLine
 10
-6183.898918088846
 20
4013.333646176896
 30
0.0
 11
-6183.898918088846
 21
4014.000313176896
 31
0.0
  0
LINE
  5
1F55D
330
2
100
AcDbEntity
  8
VLB
100
AcDbLine
 10
-6182.332251088843
 20
4012.533646176897
 30
0.0
 11
-6182.332251088843
 21
4013.333646176896
 31
0.0
1001
ACAD
1000
ASC_BOUNDS
1002
{
1070
    16
1002
}
  0
LINE
  5
1F55E
330
2
100
AcDbEntity
  8
SPS
100
AcDbLine
 10
-7095.864701932487
 20
3084.533646176893
 30
0.0
 11
-7130.944270593611
 21
3084.533646176893
 31
0.0
  0
LINE
  5
1F55F
330
2
100
AcDbEntity
  8
VLB
100
AcDbLine
 10
-7117.832250088854
 20
3092.033645176896
 30
0.0
 11
-7118.632250088852
 21
3092.033645176896
 31
0.0
1001
ACAD
1000
ASC_BOUNDS
1002
{
1070
    16
1002
}
  0
LINE
  5
1F560
330
2
100
AcDbEntity
  8
VLB
100
AcDbLine
 10
-7118.632250088852
 20
3090.466978176893
 30
0.0
 11
-7119.298917088852
 21
3090.466978176893
 31
0.0
  0
LINE
  5
1F561
330
2
100
AcDbEntity
  8
VLB
100
AcDbLine
 10
-7119.298917088852
 20
3092.231648176894
 30
0.0
 11
-7123.370140088852
 21
3092.231648176894
 31
0.0
  0
LINE
  5
1F562
330
2
100
AcDbEntity
  8
VLB
100
AcDbLine
 10
-7119.298917088852
 20
3088.382647176891
 30
0.0
 11
-7123.370140088852
 21
3088.382647176891
 31
0.0
  0
ARC
  5
1F563
330
2
100
AcDbEntity
  8
VLB
100
AcDbCircle
 10
-7120.592311088852
 20
3090.296446176892
 30
0.0
 40
3.373272
100
AcDbArc
 50
149.9999999999727
 51
214.5650930000803
  0
LINE
  5
1F564
330
2
100
AcDbEntity
  8
VLB
100
AcDbLine
 10
-7123.965583088851
 20
3085.533646176896
 30
0.0
 11
-7123.965583088851
 21
3091.200312176894
 31
0.0
  0
ARC
  5
1F565
330
2
100
AcDbEntity
  8
VLB
100
AcDbCircle
 10
-7111.227694088853
 20
3084.533646176891
 30
0.0
 40
12.737889
100
AcDbArc
 50
162.4120459999403
 51
175.4973080000215
  0
LINE
  5
1F566
330
2
100
AcDbEntity
  8
VLB
100
AcDbLine
 10
-7118.632250088852
 20
3086.615553176896
 30
0.0
 11
-7118.632250088852
 21
3090.466978176893
 31
0.0
  0
LINE
  5
1F567
330
2
100
AcDbEntity
  8
VLB
100
AcDbLine
 10
-7118.632250088852
 20
3092.033645176896
 30
0.0
 11
-7118.632250088852
 21
3085.533646176896
 31
0.0
  0
LINE
  5
1F568
330
2
100
AcDbEntity
  8
VLB
100
AcDbLine
 10
-7119.298917088852
 20
3085.533646176896
 30
0.0
 11
-7119.298917088852
 21
3092.231648176894
 31
0.0
  0
LINE
  5
1F569
330
2
100
AcDbEntity
  8
VLB
100
AcDbLine
 10
-7123.965583088851
 20
3077.866980176892
 30
0.0
 11
-7123.965583088851
 21
3085.533646176896
 31
0.0
  0
ARC
  5
1F56A
330
2
100
AcDbEntity
  8
VLB
100
AcDbCircle
 10
-7111.227694088853
 20
3084.533646176891
 30
0.0
 40
12.737889
100
AcDbArc
 50
175.4973080000215
 51
197.5879540000595
  0
LINE
  5
1F56B
330
2
100
AcDbEntity
  8
VLB
100
AcDbLine
 10
-7118.632250088852
 20
3084.533646176893
 30
0.0
 11
-7118.632250088852
 21
3077.033646176893
 31
0.0
  0
LINE
  5
1F56C
330
2
100
AcDbEntity
  8
VLB
100
AcDbLine
 10
-7119.298917088852
 20
3076.835643176892
 30
0.0
 11
-7119.298917088852
 21
3085.533646176896
 31
0.0
  0
LINE
  5
1F56D
330
2
100
AcDbEntity
  8
VLB
100
AcDbLine
 10
-7118.632250088852
 20
3078.600313176895
 30
0.0
 11
-7118.632250088852
 21
3085.533646176896
 31
0.0
  0
ARC
  5
1F56E
330
2
100
AcDbEntity
  8
VLB
100
AcDbCircle
 10
-7120.592311088852
 20
3078.770845176891
 30
0.0
 40
3.373272
100
AcDbArc
 50
145.4349069999196
 51
210.0000000000272
  0
LINE
  5
1F56F
330
2
100
AcDbEntity
  8
VLB
100
AcDbLine
 10
-7123.965583088851
 20
3077.866980176892
 30
0.0
 11
-7123.370140088852
 21
3076.835643176892
 31
0.0
  0
LINE
  5
1F570
330
2
100
AcDbEntity
  8
VLB
100
AcDbLine
 10
-7118.632250088852
 20
3078.600313176895
 30
0.0
 11
-7119.298917088852
 21
3078.600313176895
 31
0.0
  0
LINE
  5
1F571
330
2
100
AcDbEntity
  8
VLB
100
AcDbLine
 10
-7117.832250088854
 20
3077.033646176893
 30
0.0
 11
-7118.632250088852
 21
3077.033646176893
 31
0.0
1001
ACAD
1000
ASC_BOUNDS
1002
{
1070
    16
1002
}
  0
LINE
  5
1F572
330
2
100
AcDbEntity
  8
VLB
100
AcDbLine
 10
-7118.632250088852
 20
3077.033646176893
 30
0.0
 11
-7117.832250088854
 21
3077.033646176893
 31
0.0
  0
LINE
  5
1F573
330
2
100
AcDbEntity
  8
VLB
100
AcDbLine
 10
-7119.298917088852
 20
3080.684644176894
 30
0.0
 11
-7123.370140088852
 21
3080.684644176894
 31
0.0
  0
LINE
  5
1F574
330
2
100
AcDbEntity
  8
VLB
100
AcDbLine
 10
-7119.298917088852
 20
3076.835643176892
 30
0.0
 11
-7123.370140088852
 21
3076.835643176892
 31
0.0
  0
LINE
  5
1F575
330
2
100
AcDbEntity
  8
VLB
100
AcDbLine
 10
-7118.632250088852
 20
3085.533646176896
 30
0.0
 11
-7118.632250088852
 21
3084.533646176893
 31
0.0
  0
LINE
  5
1F576
330
2
100
AcDbEntity
  8
VLB
100
AcDbLine
 10
-7123.965583088851
 20
3091.200312176894
 30
0.0
 11
-7123.370140088852
 21
3092.231648176894
 31
0.0
  0
LINE
  5
1F577
330
2
100
AcDbEntity
  8
SPS
100
AcDbLine
 10
-7095.864701932487
 20
3684.533646176904
 30
0.0
 11
-7130.944270593611
 21
3684.533646176904
 31
0.0
  0
LINE
  5
1F578
330
2
100
AcDbEntity
  8
VLB
100
AcDbLine
 10
-7117.832250088854
 20
3692.033645176907
 30
0.0
 11
-7118.632250088852
 21
3692.033645176907
 31
0.0
1001
ACAD
1000
ASC_BOUNDS
1002
{
1070
    16
1002
}
  0
LINE
  5
1F579
330
2
100
AcDbEntity
  8
VLB
100
AcDbLine
 10
-7118.632250088852
 20
3690.466978176904
 30
0.0
 11
-7119.298917088852
 21
3690.466978176904
 31
0.0
  0
LINE
  5
1F57A
330
2
100
AcDbEntity
  8
VLB
100
AcDbLine
 10
-7119.298917088852
 20
3692.231648176905
 30
0.0
 11
-7123.370140088852
 21
3692.231648176905
 31
0.0
  0
LINE
  5
1F57B
330
2
100
AcDbEntity
  8
VLB
100
AcDbLine
 10
-7119.298917088852
 20
3688.382647176903
 30
0.0
 11
-7123.370140088852
 21
3688.382647176903
 31
0.0
  0
ARC
  5
1F57C
330
2
100
AcDbEntity
  8
VLB
100
AcDbCircle
 10
-7120.592311088852
 20
3690.296446176903
 30
0.0
 40
3.373272
100
AcDbArc
 50
149.9999999999727
 51
214.5650930000803
  0
LINE
  5
1F57D
330
2
100
AcDbEntity
  8
VLB
100
AcDbLine
 10
-7123.965583088851
 20
3685.533646176907
 30
0.0
 11
-7123.965583088851
 21
3691.200312176905
 31
0.0
  0
ARC
  5
1F57E
330
2
100
AcDbEntity
  8
VLB
100
AcDbCircle
 10
-7111.227694088853
 20
3684.533646176903
 30
0.0
 40
12.737889
100
AcDbArc
 50
162.4120459999403
 51
175.4973080000215
  0
LINE
  5
1F57F
330
2
100
AcDbEntity
  8
VLB
100
AcDbLine
 10
-7118.632250088852
 20
3686.615553176907
 30
0.0
 11
-7118.632250088852
 21
3690.466978176904
 31
0.0
  0
LINE
  5
1F580
330
2
100
AcDbEntity
  8
VLB
100
AcDbLine
 10
-7118.632250088852
 20
3692.033645176907
 30
0.0
 11
-7118.632250088852
 21
3685.533646176907
 31
0.0
  0
LINE
  5
1F581
330
2
100
AcDbEntity
  8
VLB
100
AcDbLine
 10
-7119.298917088852
 20
3685.533646176907
 30
0.0
 11
-7119.298917088852
 21
3692.231648176905
 31
0.0
  0
LINE
  5
1F582
330
2
100
AcDbEntity
  8
VLB
100
AcDbLine
 10
-7123.965583088851
 20
3677.866980176903
 30
0.0
 11
-7123.965583088851
 21
3685.533646176907
 31
0.0
  0
ARC
  5
1F583
330
2
100
AcDbEntity
  8
VLB
100
AcDbCircle
 10
-7111.227694088853
 20
3684.533646176903
 30
0.0
 40
12.737889
100
AcDbArc
 50
175.4973080000215
 51
197.5879540000595
  0
LINE
  5
1F584
330
2
100
AcDbEntity
  8
VLB
100
AcDbLine
 10
-7118.632250088852
 20
3684.533646176904
 30
0.0
 11
-7118.632250088852
 21
3677.033646176904
 31
0.0
  0
LINE
  5
1F585
330
2
100
AcDbEntity
  8
VLB
100
AcDbLine
 10
-7119.298917088852
 20
3676.835643176902
 30
0.0
 11
-7119.298917088852
 21
3685.533646176907
 31
0.0
  0
LINE
  5
1F586
330
2
100
AcDbEntity
  8
VLB
100
AcDbLine
 10
-7118.632250088852
 20
3678.600313176906
 30
0.0
 11
-7118.632250088852
 21
3685.533646176907
 31
0.0
  0
ARC
  5
1F587
330
2
100
AcDbEntity
  8
VLB
100
AcDbCircle
 10
-7120.592311088852
 20
3678.770845176902
 30
0.0
 40
3.373272
100
AcDbArc
 50
145.4349069999196
 51
210.0000000000272
  0
LINE
  5
1F588
330
2
100
AcDbEntity
  8
VLB
100
AcDbLine
 10
-7123.965583088851
 20
3677.866980176903
 30
0.0
 11
-7123.370140088852
 21
3676.835643176902
 31
0.0
  0
LINE
  5
1F589
330
2
100
AcDbEntity
  8
VLB
100
AcDbLine
 10
-7118.632250088852
 20
3678.600313176906
 30
0.0
 11
-7119.298917088852
 21
3678.600313176906
 31
0.0
  0
LINE
  5
1F58A
330
2
100
AcDbEntity
  8
VLB
100
AcDbLine
 10
-7117.832250088854
 20
3677.033646176904
 30
0.0
 11
-7118.632250088852
 21
3677.033646176904
 31
0.0
1001
ACAD
1000
ASC_BOUNDS
1002
{
1070
    16
1002
}
  0
LINE
  5
1F58B
330
2
100
AcDbEntity
  8
VLB
100
AcDbLine
 10
-7118.632250088852
 20
3677.033646176904
 30
0.0
 11
-7117.832250088854
 21
3677.033646176904
 31
0.0
  0
LINE
  5
1F58C
330
2
100
AcDbEntity
  8
VLB
100
AcDbLine
 10
-7119.298917088852
 20
3680.684644176904
 30
0.0
 11
-7123.370140088852
 21
3680.684644176904
 31
0.0
  0
LINE
  5
1F58D
330
2
100
AcDbEntity
  8
VLB
100
AcDbLine
 10
-7119.298917088852
 20
3676.835643176902
 30
0.0
 11
-7123.370140088852
 21
3676.835643176902
 31
0.0
  0
LINE
  5
1F58E
330
2
100
AcDbEntity
  8
VLB
100
AcDbLine
 10
-7118.632250088852
 20
3685.533646176907
 30
0.0
 11
-7118.632250088852
 21
3684.533646176904
 31
0.0
  0
LINE
  5
1F58F
330
2
100
AcDbEntity
  8
VLB
100
AcDbLine
 10
-7123.965583088851
 20
3691.200312176905
 30
0.0
 11
-7123.370140088852
 21
3692.231648176905
 31
0.0
  0
LINE
  5
1F590
330
2
100
AcDbEntity
  8
SPS
100
AcDbLine
 10
-6189.83225008885
 20
2778.501194333263
 30
0.0
 11
-6189.83225008885
 21
2743.421625672139
 31
0.0
  0
LINE
  5
1F591
330
2
100
AcDbEntity
  8
VLB
100
AcDbLine
 10
-6197.332249088853
 20
2756.533646176897
 30
0.0
 11
-6197.332249088853
 21
2755.733646176897
 31
0.0
1001
ACAD
1000
ASC_BOUNDS
1002
{
1070
    16
1002
}
  0
LINE
  5
1F592
330
2
100
AcDbEntity
  8
VLB
100
AcDbLine
 10
-6195.76558208885
 20
2755.733646176897
 30
0.0
 11
-6195.76558208885
 21
2755.066979176898
 31
0.0
  0
LINE
  5
1F593
330
2
100
AcDbEntity
  8
VLB
100
AcDbLine
 10
-6197.530252088851
 20
2755.066979176898
 30
0.0
 11
-6197.530252088851
 21
2750.995756176899
 31
0.0
  0
LINE
  5
1F594
330
2
100
AcDbEntity
  8
VLB
100
AcDbLine
 10
-6193.681251088849
 20
2755.066979176898
 30
0.0
 11
-6193.681251088849
 21
2750.995756176899
 31
0.0
  0
ARC
  5
1F595
330
2
100
AcDbEntity
  8
VLB
100
AcDbCircle
 10
-6195.595050088851
 20
2753.773585176897
 30
0.0
 40
3.373272
100
AcDbArc
 50
239.9999999999727
 51
304.5650930000802
  0
LINE
  5
1F596
330
2
100
AcDbEntity
  8
VLB
100
AcDbLine
 10
-6190.832250088853
 20
2750.400313176899
 30
0.0
 11
-6196.498916088851
 21
2750.400313176899
 31
0.0
  0
ARC
  5
1F597
330
2
100
AcDbEntity
  8
VLB
100
AcDbCircle
 10
-6189.83225008885
 20
2763.138202176897
 30
0.0
 40
12.737889
100
AcDbArc
 50
252.4120459999403
 51
265.4973080000215
  0
LINE
  5
1F598
330
2
100
AcDbEntity
  8
VLB
100
AcDbLine
 10
-6191.914157088853
 20
2755.733646176897
 30
0.0
 11
-6195.76558208885
 21
2755.733646176897
 31
0.0
  0
LINE
  5
1F599
330
2
100
AcDbEntity
  8
VLB
100
AcDbLine
 10
-6197.332249088853
 20
2755.733646176897
 30
0.0
 11
-6190.832250088853
 21
2755.733646176897
 31
0.0
  0
LINE
  5
1F59A
330
2
100
AcDbEntity
  8
VLB
100
AcDbLine
 10
-6190.832250088853
 20
2755.066979176898
 30
0.0
 11
-6197.530252088851
 21
2755.066979176898
 31
0.0
  0
LINE
  5
1F59B
330
2
100
AcDbEntity
  8
VLB
100
AcDbLine
 10
-6183.165584088849
 20
2750.400313176899
 30
0.0
 11
-6190.832250088853
 21
2750.400313176899
 31
0.0
  0
ARC
  5
1F59C
330
2
100
AcDbEntity
  8
VLB
100
AcDbCircle
 10
-6189.83225008885
 20
2763.138202176897
 30
0.0
 40
12.737889
100
AcDbArc
 50
265.4973080000215
 51
287.5879540000595
  0
LINE
  5
1F59D
330
2
100
AcDbEntity
  8
VLB
100
AcDbLine
 10
-6189.83225008885
 20
2755.733646176897
 30
0.0
 11
-6182.33225008885
 21
2755.733646176897
 31
0.0
  0
LINE
  5
1F59E
330
2
100
AcDbEntity
  8
VLB
100
AcDbLine
 10
-6182.134247088849
 20
2755.066979176898
 30
0.0
 11
-6190.832250088853
 21
2755.066979176898
 31
0.0
  0
LINE
  5
1F59F
330
2
100
AcDbEntity
  8
VLB
100
AcDbLine
 10
-6183.898917088852
 20
2755.733646176897
 30
0.0
 11
-6190.832250088853
 21
2755.733646176897
 31
0.0
  0
ARC
  5
1F5A0
330
2
100
AcDbEntity
  8
VLB
100
AcDbCircle
 10
-6184.069449088849
 20
2753.773585176897
 30
0.0
 40
3.373272
100
AcDbArc
 50
235.4349069999196
 51
300.0000000000272
  0
LINE
  5
1F5A1
330
2
100
AcDbEntity
  8
VLB
100
AcDbLine
 10
-6183.165584088849
 20
2750.400313176899
 30
0.0
 11
-6182.134247088849
 21
2750.995756176899
 31
0.0
  0
LINE
  5
1F5A2
330
2
100
AcDbEntity
  8
VLB
100
AcDbLine
 10
-6183.898917088852
 20
2755.733646176897
 30
0.0
 11
-6183.898917088852
 21
2755.066979176898
 31
0.0
  0
LINE
  5
1F5A3
330
2
100
AcDbEntity
  8
VLB
100
AcDbLine
 10
-6182.33225008885
 20
2756.533646176897
 30
0.0
 11
-6182.33225008885
 21
2755.733646176897
 31
0.0
1001
ACAD
1000
ASC_BOUNDS
1002
{
1070
    16
1002
}
  0
LINE
  5
1F5A4
330
2
100
AcDbEntity
  8
VLB
100
AcDbLine
 10
-6182.33225008885
 20
2755.733646176897
 30
0.0
 11
-6182.33225008885
 21
2756.533646176897
 31
0.0
  0
LINE
  5
1F5A5
330
2
100
AcDbEntity
  8
VLB
100
AcDbLine
 10
-6185.983248088851
 20
2755.066979176898
 30
0.0
 11
-6185.983248088851
 21
2750.995756176899
 31
0.0
  0
LINE
  5
1F5A6
330
2
100
AcDbEntity
  8
VLB
100
AcDbLine
 10
-6182.134247088849
 20
2755.066979176898
 30
0.0
 11
-6182.134247088849
 21
2750.995756176899
 31
0.0
  0
LINE
  5
1F5A7
330
2
100
AcDbEntity
  8
VLB
100
AcDbLine
 10
-6190.832250088853
 20
2755.733646176897
 30
0.0
 11
-6189.83225008885
 21
2755.733646176897
 31
0.0
  0
LINE
  5
1F5A8
330
2
100
AcDbEntity
  8
VLB
100
AcDbLine
 10
-6196.498916088851
 20
2750.400313176899
 30
0.0
 11
-6197.530252088851
 21
2750.995756176899
 31
0.0
  0
LINE
  5
1F5A9
330
2
100
AcDbEntity
  8
SPS
100
AcDbLine
 10
-6789.832250088861
 20
2778.501194333264
 30
0.0
 11
-6789.832250088861
 21
2743.42162567214
 31
0.0
  0
LINE
  5
1F5AA
330
2
100
AcDbEntity
  8
VLB
100
AcDbLine
 10
-6797.332249088865
 20
2756.533646176897
 30
0.0
 11
-6797.332249088865
 21
2755.733646176898
 31
0.0
1001
ACAD
1000
ASC_BOUNDS
1002
{
1070
    16
1002
}
  0
LINE
  5
1F5AB
330
2
100
AcDbEntity
  8
VLB
100
AcDbLine
 10
-6795.765582088861
 20
2755.733646176898
 30
0.0
 11
-6795.765582088861
 21
2755.066979176898
 31
0.0
  0
LINE
  5
1F5AC
330
2
100
AcDbEntity
  8
VLB
100
AcDbLine
 10
-6797.530252088861
 20
2755.066979176898
 30
0.0
 11
-6797.530252088861
 21
2750.9957561769
 31
0.0
  0
LINE
  5
1F5AD
330
2
100
AcDbEntity
  8
VLB
100
AcDbLine
 10
-6793.68125108886
 20
2755.066979176898
 30
0.0
 11
-6793.68125108886
 21
2750.9957561769
 31
0.0
  0
ARC
  5
1F5AE
330
2
100
AcDbEntity
  8
VLB
100
AcDbCircle
 10
-6795.595050088862
 20
2753.773585176898
 30
0.0
 40
3.373272
100
AcDbArc
 50
239.9999999999727
 51
304.5650930000802
  0
LINE
  5
1F5AF
330
2
100
AcDbEntity
  8
VLB
100
AcDbLine
 10
-6790.832250088865
 20
2750.400313176899
 30
0.0
 11
-6796.498916088862
 21
2750.400313176899
 31
0.0
  0
ARC
  5
1F5B0
330
2
100
AcDbEntity
  8
VLB
100
AcDbCircle
 10
-6789.832250088861
 20
2763.138202176897
 30
0.0
 40
12.737889
100
AcDbArc
 50
252.4120459999403
 51
265.4973080000215
  0
LINE
  5
1F5B1
330
2
100
AcDbEntity
  8
VLB
100
AcDbLine
 10
-6791.914157088864
 20
2755.733646176898
 30
0.0
 11
-6795.765582088861
 21
2755.733646176898
 31
0.0
  0
LINE
  5
1F5B2
330
2
100
AcDbEntity
  8
VLB
100
AcDbLine
 10
-6797.332249088865
 20
2755.733646176898
 30
0.0
 11
-6790.832250088865
 21
2755.733646176898
 31
0.0
  0
LINE
  5
1F5B3
330
2
100
AcDbEntity
  8
VLB
100
AcDbLine
 10
-6790.832250088865
 20
2755.066979176898
 30
0.0
 11
-6797.530252088861
 21
2755.066979176898
 31
0.0
  0
LINE
  5
1F5B4
330
2
100
AcDbEntity
  8
VLB
100
AcDbLine
 10
-6783.16558408886
 20
2750.400313176899
 30
0.0
 11
-6790.832250088865
 21
2750.400313176899
 31
0.0
  0
ARC
  5
1F5B5
330
2
100
AcDbEntity
  8
VLB
100
AcDbCircle
 10
-6789.832250088861
 20
2763.138202176897
 30
0.0
 40
12.737889
100
AcDbArc
 50
265.4973080000215
 51
287.5879540000595
  0
LINE
  5
1F5B6
330
2
100
AcDbEntity
  8
VLB
100
AcDbLine
 10
-6789.832250088861
 20
2755.733646176898
 30
0.0
 11
-6782.33225008886
 21
2755.733646176898
 31
0.0
  0
LINE
  5
1F5B7
330
2
100
AcDbEntity
  8
VLB
100
AcDbLine
 10
-6782.134247088859
 20
2755.066979176898
 30
0.0
 11
-6790.832250088865
 21
2755.066979176898
 31
0.0
  0
LINE
  5
1F5B8
330
2
100
AcDbEntity
  8
VLB
100
AcDbLine
 10
-6783.898917088864
 20
2755.733646176898
 30
0.0
 11
-6790.832250088865
 21
2755.733646176898
 31
0.0
  0
ARC
  5
1F5B9
330
2
100
AcDbEntity
  8
VLB
100
AcDbCircle
 10
-6784.06944908886
 20
2753.773585176898
 30
0.0
 40
3.373272
100
AcDbArc
 50
235.4349069999196
 51
300.0000000000272
  0
LINE
  5
1F5BA
330
2
100
AcDbEntity
  8
VLB
100
AcDbLine
 10
-6783.16558408886
 20
2750.400313176899
 30
0.0
 11
-6782.134247088859
 21
2750.9957561769
 31
0.0
  0
LINE
  5
1F5BB
330
2
100
AcDbEntity
  8
VLB
100
AcDbLine
 10
-6783.898917088864
 20
2755.733646176898
 30
0.0
 11
-6783.898917088864
 21
2755.066979176898
 31
0.0
  0
LINE
  5
1F5BC
330
2
100
AcDbEntity
  8
VLB
100
AcDbLine
 10
-6782.33225008886
 20
2756.533646176897
 30
0.0
 11
-6782.33225008886
 21
2755.733646176898
 31
0.0
1001
ACAD
1000
ASC_BOUNDS
1002
{
1070
    16
1002
}
  0
LINE
  5
1F5BD
330
2
100
AcDbEntity
  8
VLB
100
AcDbLine
 10
-6782.33225008886
 20
2755.733646176898
 30
0.0
 11
-6782.33225008886
 21
2756.533646176897
 31
0.0
  0
LINE
  5
1F5BE
330
2
100
AcDbEntity
  8
VLB
100
AcDbLine
 10
-6785.983248088861
 20
2755.066979176898
 30
0.0
 11
-6785.983248088861
 21
2750.9957561769
 31
0.0
  0
LINE
  5
1F5BF
330
2
100
AcDbEntity
  8
VLB
100
AcDbLine
 10
-6782.134247088859
 20
2755.066979176898
 30
0.0
 11
-6782.134247088859
 21
2750.9957561769
 31
0.0
  0
LINE
  5
1F5C0
330
2
100
AcDbEntity
  8
VLB
100
AcDbLine
 10
-6790.832250088865
 20
2755.733646176898
 30
0.0
 11
-6789.832250088861
 21
2755.733646176898
 31
0.0
  0
LINE
  5
1F5C1
330
2
100
AcDbEntity
  8
VLB
100
AcDbLine
 10
-6796.498916088862
 20
2750.400313176899
 30
0.0
 11
-6797.530252088861
 21
2750.9957561769
 31
0.0
  0
LINE
  5
1F5C2
330
2
100
AcDbEntity
  8
SPS
100
AcDbLine
 10
-5883.799798245218
 20
3684.533646176899
 30
0.0
 11
-5848.720229584094
 21
3684.533646176899
 31
0.0
  0
LINE
  5
1F5C3
330
2
100
AcDbEntity
  8
VLB
100
AcDbLine
 10
-5861.832250088854
 20
3677.033647176896
 30
0.0
 11
-5861.032250088854
 21
3677.033647176896
 31
0.0
1001
ACAD
1000
ASC_BOUNDS
1002
{
1070
    16
1002
}
  0
LINE
  5
1F5C4
330
2
100
AcDbEntity
  8
VLB
100
AcDbLine
 10
-5861.032250088854
 20
3678.600314176899
 30
0.0
 11
-5860.365583088853
 21
3678.600314176899
 31
0.0
  0
LINE
  5
1F5C5
330
2
100
AcDbEntity
  8
VLB
100
AcDbLine
 10
-5860.365583088853
 20
3676.835644176899
 30
0.0
 11
-5856.294360088853
 21
3676.835644176899
 31
0.0
  0
LINE
  5
1F5C6
330
2
100
AcDbEntity
  8
VLB
100
AcDbLine
 10
-5860.365583088853
 20
3680.6846451769
 30
0.0
 11
-5856.294360088853
 21
3680.6846451769
 31
0.0
  0
ARC
  5
1F5C7
330
2
100
AcDbEntity
  8
VLB
100
AcDbCircle
 10
-5859.072189088852
 20
3678.7708461769
 30
0.0
 40
3.373272
100
AcDbArc
 50
329.9999999999726
 51
34.56509300008024
  0
LINE
  5
1F5C8
330
2
100
AcDbEntity
  8
VLB
100
AcDbLine
 10
-5855.698917088855
 20
3683.533646176896
 30
0.0
 11
-5855.698917088855
 21
3677.866980176898
 31
0.0
  0
ARC
  5
1F5C9
330
2
100
AcDbEntity
  8
VLB
100
AcDbCircle
 10
-5868.436806088851
 20
3684.5336461769
 30
0.0
 40
12.737889
100
AcDbArc
 50
342.4120459999402
 51
355.4973080000214
  0
LINE
  5
1F5CA
330
2
100
AcDbEntity
  8
VLB
100
AcDbLine
 10
-5861.032250088854
 20
3682.451739176896
 30
0.0
 11
-5861.032250088854
 21
3678.600314176899
 31
0.0
  0
LINE
  5
1F5CB
330
2
100
AcDbEntity
  8
VLB
100
AcDbLine
 10
-5861.032250088854
 20
3677.033647176896
 30
0.0
 11
-5861.032250088854
 21
3683.533646176896
 31
0.0
  0
LINE
  5
1F5CC
330
2
100
AcDbEntity
  8
VLB
100
AcDbLine
 10
-5860.365583088853
 20
3683.533646176896
 30
0.0
 11
-5860.365583088853
 21
3676.835644176899
 31
0.0
  0
LINE
  5
1F5CD
330
2
100
AcDbEntity
  8
VLB
100
AcDbLine
 10
-5855.698917088855
 20
3691.2003121769
 30
0.0
 11
-5855.698917088855
 21
3683.533646176896
 31
0.0
  0
ARC
  5
1F5CE
330
2
100
AcDbEntity
  8
VLB
100
AcDbCircle
 10
-5868.436806088851
 20
3684.5336461769
 30
0.0
 40
12.737889
100
AcDbArc
 50
355.4973080000214
 51
17.58795400005952
  0
LINE
  5
1F5CF
330
2
100
AcDbEntity
  8
VLB
100
AcDbLine
 10
-5861.032250088854
 20
3684.533646176899
 30
0.0
 11
-5861.032250088854
 21
3692.033646176899
 31
0.0
  0
LINE
  5
1F5D0
330
2
100
AcDbEntity
  8
VLB
100
AcDbLine
 10
-5860.365583088853
 20
3692.231649176901
 30
0.0
 11
-5860.365583088853
 21
3683.533646176896
 31
0.0
  0
LINE
  5
1F5D1
330
2
100
AcDbEntity
  8
VLB
100
AcDbLine
 10
-5861.032250088854
 20
3690.466979176896
 30
0.0
 11
-5861.032250088854
 21
3683.533646176896
 31
0.0
  0
ARC
  5
1F5D2
330
2
100
AcDbEntity
  8
VLB
100
AcDbCircle
 10
-5859.072189088852
 20
3690.296447176901
 30
0.0
 40
3.373272
100
AcDbArc
 50
325.4349069999196
 51
30.00000000002717
  0
LINE
  5
1F5D3
330
2
100
AcDbEntity
  8
VLB
100
AcDbLine
 10
-5855.698917088855
 20
3691.2003121769
 30
0.0
 11
-5856.294360088853
 21
3692.231649176901
 31
0.0
  0
LINE
  5
1F5D4
330
2
100
AcDbEntity
  8
VLB
100
AcDbLine
 10
-5861.032250088854
 20
3690.466979176896
 30
0.0
 11
-5860.365583088853
 21
3690.466979176896
 31
0.0
  0
LINE
  5
1F5D5
330
2
100
AcDbEntity
  8
VLB
100
AcDbLine
 10
-5861.832250088854
 20
3692.033646176899
 30
0.0
 11
-5861.032250088854
 21
3692.033646176899
 31
0.0
1001
ACAD
1000
ASC_BOUNDS
1002
{
1070
    16
1002
}
  0
LINE
  5
1F5D6
330
2
100
AcDbEntity
  8
VLB
100
AcDbLine
 10
-5861.032250088854
 20
3692.033646176899
 30
0.0
 11
-5861.832250088854
 21
3692.033646176899
 31
0.0
  0
LINE
  5
1F5D7
330
2
100
AcDbEntity
  8
VLB
100
AcDbLine
 10
-5860.365583088853
 20
3688.382648176898
 30
0.0
 11
-5856.294360088853
 21
3688.382648176898
 31
0.0
  0
LINE
  5
1F5D8
330
2
100
AcDbEntity
  8
VLB
100
AcDbLine
 10
-5860.365583088853
 20
3692.231649176901
 30
0.0
 11
-5856.294360088853
 21
3692.231649176901
 31
0.0
  0
LINE
  5
1F5D9
330
2
100
AcDbEntity
  8
VLB
100
AcDbLine
 10
-5861.032250088854
 20
3683.533646176896
 30
0.0
 11
-5861.032250088854
 21
3684.533646176899
 31
0.0
  0
LINE
  5
1F5DA
330
2
100
AcDbEntity
  8
VLB
100
AcDbLine
 10
-5855.698917088855
 20
3677.866980176898
 30
0.0
 11
-5856.294360088853
 21
3676.835644176899
 31
0.0
  0
LINE
  5
1F5DB
330
2
100
AcDbEntity
  8
SPS
100
AcDbLine
 10
-5883.79979824522
 20
3084.533646176888
 30
0.0
 11
-5848.720229584096
 21
3084.533646176888
 31
0.0
  0
LINE
  5
1F5DC
330
2
100
AcDbEntity
  8
VLB
100
AcDbLine
 10
-5861.832250088854
 20
3077.033647176885
 30
0.0
 11
-5861.032250088854
 21
3077.033647176885
 31
0.0
1001
ACAD
1000
ASC_BOUNDS
1002
{
1070
    16
1002
}
  0
LINE
  5
1F5DD
330
2
100
AcDbEntity
  8
VLB
100
AcDbLine
 10
-5861.032250088854
 20
3078.600314176888
 30
0.0
 11
-5860.365583088855
 21
3078.600314176888
 31
0.0
  0
LINE
  5
1F5DE
330
2
100
AcDbEntity
  8
VLB
100
AcDbLine
 10
-5860.365583088855
 20
3076.835644176887
 30
0.0
 11
-5856.294360088856
 21
3076.835644176887
 31
0.0
  0
LINE
  5
1F5DF
330
2
100
AcDbEntity
  8
VLB
100
AcDbLine
 10
-5860.365583088855
 20
3080.684645176889
 30
0.0
 11
-5856.294360088856
 21
3080.684645176889
 31
0.0
  0
ARC
  5
1F5E0
330
2
100
AcDbEntity
  8
VLB
100
AcDbCircle
 10
-5859.072189088855
 20
3078.770846176889
 30
0.0
 40
3.373272
100
AcDbArc
 50
329.9999999999726
 51
34.56509300008024
  0
LINE
  5
1F5E1
330
2
100
AcDbEntity
  8
VLB
100
AcDbLine
 10
-5855.698917088855
 20
3083.533646176884
 30
0.0
 11
-5855.698917088855
 21
3077.866980176887
 31
0.0
  0
ARC
  5
1F5E2
330
2
100
AcDbEntity
  8
VLB
100
AcDbCircle
 10
-5868.436806088854
 20
3084.53364617689
 30
0.0
 40
12.737889
100
AcDbArc
 50
342.4120459999402
 51
355.4973080000214
  0
LINE
  5
1F5E3
330
2
100
AcDbEntity
  8
VLB
100
AcDbLine
 10
-5861.032250088854
 20
3082.451739176885
 30
0.0
 11
-5861.032250088854
 21
3078.600314176888
 31
0.0
  0
LINE
  5
1F5E4
330
2
100
AcDbEntity
  8
VLB
100
AcDbLine
 10
-5861.032250088854
 20
3077.033647176885
 30
0.0
 11
-5861.032250088854
 21
3083.533646176884
 31
0.0
  0
LINE
  5
1F5E5
330
2
100
AcDbEntity
  8
VLB
100
AcDbLine
 10
-5860.365583088855
 20
3083.533646176884
 30
0.0
 11
-5860.365583088855
 21
3076.835644176887
 31
0.0
  0
LINE
  5
1F5E6
330
2
100
AcDbEntity
  8
VLB
100
AcDbLine
 10
-5855.698917088855
 20
3091.200312176889
 30
0.0
 11
-5855.698917088855
 21
3083.533646176884
 31
0.0
  0
ARC
  5
1F5E7
330
2
100
AcDbEntity
  8
VLB
100
AcDbCircle
 10
-5868.436806088854
 20
3084.53364617689
 30
0.0
 40
12.737889
100
AcDbArc
 50
355.4973080000214
 51
17.58795400005952
  0
LINE
  5
1F5E8
330
2
100
AcDbEntity
  8
VLB
100
AcDbLine
 10
-5861.032250088854
 20
3084.533646176888
 30
0.0
 11
-5861.032250088854
 21
3092.033646176888
 31
0.0
  0
LINE
  5
1F5E9
330
2
100
AcDbEntity
  8
VLB
100
AcDbLine
 10
-5860.365583088855
 20
3092.231649176889
 30
0.0
 11
-5860.365583088855
 21
3083.533646176884
 31
0.0
  0
LINE
  5
1F5EA
330
2
100
AcDbEntity
  8
VLB
100
AcDbLine
 10
-5861.032250088854
 20
3090.466979176885
 30
0.0
 11
-5861.032250088854
 21
3083.533646176884
 31
0.0
  0
ARC
  5
1F5EB
330
2
100
AcDbEntity
  8
VLB
100
AcDbCircle
 10
-5859.072189088855
 20
3090.296447176891
 30
0.0
 40
3.373272
100
AcDbArc
 50
325.4349069999196
 51
30.00000000002717
  0
LINE
  5
1F5EC
330
2
100
AcDbEntity
  8
VLB
100
AcDbLine
 10
-5855.698917088855
 20
3091.200312176889
 30
0.0
 11
-5856.294360088856
 21
3092.231649176889
 31
0.0
  0
LINE
  5
1F5ED
330
2
100
AcDbEntity
  8
VLB
100
AcDbLine
 10
-5861.032250088854
 20
3090.466979176885
 30
0.0
 11
-5860.365583088855
 21
3090.466979176885
 31
0.0
  0
LINE
  5
1F5EE
330
2
100
AcDbEntity
  8
VLB
100
AcDbLine
 10
-5861.832250088854
 20
3092.033646176888
 30
0.0
 11
-5861.032250088854
 21
3092.033646176888
 31
0.0
1001
ACAD
1000
ASC_BOUNDS
1002
{
1070
    16
1002
}
  0
LINE
  5
1F5EF
330
2
100
AcDbEntity
  8
VLB
100
AcDbLine
 10
-5861.032250088854
 20
3092.033646176888
 30
0.0
 11
-5861.832250088854
 21
3092.033646176888
 31
0.0
  0
LINE
  5
1F5F0
330
2
100
AcDbEntity
  8
VLB
100
AcDbLine
 10
-5860.365583088855
 20
3088.382648176887
 30
0.0
 11
-5856.294360088856
 21
3088.382648176887
 31
0.0
  0
LINE
  5
1F5F1
330
2
100
AcDbEntity
  8
VLB
100
AcDbLine
 10
-5860.365583088855
 20
3092.231649176889
 30
0.0
 11
-5856.294360088856
 21
3092.231649176889
 31
0.0
  0
LINE
  5
1F5F2
330
2
100
AcDbEntity
  8
VLB
100
AcDbLine
 10
-5861.032250088854
 20
3083.533646176884
 30
0.0
 11
-5861.032250088854
 21
3084.533646176888
 31
0.0
  0
LINE
  5
1F5F3
330
2
100
AcDbEntity
  8
VLB
100
AcDbLine
 10
-5855.698917088855
 20
3077.866980176887
 30
0.0
 11
-5856.294360088856
 21
3076.835644176887
 31
0.0
  0
LINE
  5
1F5F4
330
2
100
AcDbEntity
  8
VLB
100
AcDbLine
 10
-6984.832250088856
 20
3878.5336461769
 30
0.0
 11
-6984.832250088856
 21
2890.533646176894
 31
0.0
  0
LINE
  5
1F5F5
330
2
100
AcDbEntity
  8
VLB
100
AcDbLine
 10
-6983.832250088855
 20
2889.533646176895
 30
0.0
 11
-6569.332250088854
 21
2889.533646176895
 31
0.0
  0
LINE
  5
1F5F6
330
2
100
AcDbEntity
  8
VLB
100
AcDbLine
 10
-5994.832250088851
 20
2890.533646176894
 30
0.0
 11
-5994.832250088851
 21
3878.533646176898
 31
0.0
  0
LINE
  5
1F5F7
330
2
100
AcDbEntity
  8
VLB
100
AcDbLine
 10
-5995.832250088852
 20
3879.533646176898
 30
0.0
 11
-6410.332250088851
 21
3879.533646176898
 31
0.0
  0
LINE
  5
1F5F8
330
2
100
AcDbEntity
  8
VLB
100
AcDbLine
 10
-5994.832250088851
 20
3878.533646176897
 30
0.0
 11
-6410.332250088851
 21
3878.533646176898
 31
0.0
  0
LINE
  5
1F5F9
330
2
100
AcDbEntity
  8
VLB
100
AcDbLine
 10
-6983.832250088855
 20
3879.533646176898
 30
0.0
 11
-6983.832250088855
 21
2889.533646176895
 31
0.0
  0
LINE
  5
1F5FA
330
2
100
AcDbEntity
  8
VLB
100
AcDbLine
 10
-6984.832250088856
 20
2890.533646176894
 30
0.0
 11
-6569.332250088854
 21
2890.533646176894
 31
0.0
  0
LINE
  5
1F5FB
330
2
100
AcDbEntity
  8
VLB
100
AcDbLine
 10
-5995.832250088852
 20
2889.533646176895
 30
0.0
 11
-5995.832250088852
 21
3879.533646176898
 31
0.0
  0
LINE
  5
1F5FE
330
2
100
AcDbEntity
  8
VLB
100
AcDbLine
 10
-6571.332250088854
 20
4069.533646176898
 30
0.0
 11
-6408.332250088854
 21
4069.533646176898
 31
0.0
  0
LINE
  5
1F5FF
330
2
100
AcDbEntity
  8
VLB
100
AcDbLine
 10
-6569.332250088854
 20
3897.833646176898
 30
0.0
 11
-6410.332250088853
 21
3897.833646176898
 31
0.0
  0
LINE
  5
1F600
330
2
100
AcDbEntity
  8
VLB
100
AcDbLine
 10
-6569.832250088854
 20
3879.533646176898
 30
0.0
 11
-6569.832250088854
 21
4069.533646176898
 31
0.0
  0
LINE
  5
1F601
330
2
100
AcDbEntity
  8
VLB
100
AcDbLine
 10
-6571.332250088854
 20
3879.533646176898
 30
0.0
 11
-6571.332250088854
 21
4069.533646176898
 31
0.0
  0
LINE
  5
1F602
330
2
100
AcDbEntity
  8
VLB
100
AcDbLine
 10
-6569.332250088852
 20
3879.533646176898
 30
0.0
 11
-6571.332250088854
 21
3879.533646176898
 31
0.0
  0
CIRCLE
  5
1F603
330
2
100
AcDbEntity
  8
VLB
100
AcDbCircle
 10
-6539.832250088854
 20
3887.833646176899
 30
0.0
 40
2.550000000006548
  0
LINE
  5
1F604
330
2
100
AcDbEntity
  8
SPS
100
AcDbLine
 10
-6539.832250088854
 20
3895.24188903086
 30
0.0
 11
-6539.832250088854
 21
3879.349036953018
 31
0.0
  0
CIRCLE
  5
1F605
330
2
100
AcDbEntity
  8
VLB
100
AcDbCircle
 10
-6539.832250088854
 20
3887.833646176899
 30
0.0
 40
5.000000000001818
  0
LINE
  5
1F606
330
2
100
AcDbEntity
  8
SPS
100
AcDbLine
 10
-6533.520893531779
 20
3887.833646176899
 30
0.0
 11
-6546.861579676421
 21
3887.833646176899
 31
0.0
  0
LINE
  5
1F607
330
2
100
AcDbEntity
  8
VLB
100
AcDbLine
 10
-6569.332250088854
 20
3878.533646176899
 30
0.0
 11
-6569.332250088854
 21
3897.833646176898
 31
0.0
  0
LINE
  5
1F608
330
2
100
AcDbEntity
  8
VLB
100
AcDbLine
 10
-6569.832250088854
 20
4048.033646176898
 30
0.0
 11
-6571.332250088854
 21
4048.033646176898
 31
0.0
  0
LINE
  5
1F609
330
2
100
AcDbEntity
  8
VLB
100
AcDbLine
 10
-6409.832250088854
 20
4069.533646176898
 30
0.0
 11
-6409.832250088854
 21
3879.533646176898
 31
0.0
  0
LINE
  5
1F60A
330
2
100
AcDbEntity
  8
VLB
100
AcDbLine
 10
-6408.332250088854
 20
4069.533646176898
 30
0.0
 11
-6408.332250088854
 21
3879.533646176898
 31
0.0
  0
LINE
  5
1F60B
330
2
100
AcDbEntity
  8
VLB
100
AcDbLine
 10
-6408.332250088854
 20
3879.533646176898
 30
0.0
 11
-6410.332250088849
 21
3879.533646176898
 31
0.0
  0
CIRCLE
  5
1F60C
330
2
100
AcDbEntity
  8
VLB
100
AcDbCircle
 10
-6439.832250088854
 20
3887.833646176899
 30
0.0
 40
5.000000000001818
  0
CIRCLE
  5
1F60D
330
2
100
AcDbEntity
  8
VLB
100
AcDbCircle
 10
-6439.832250088854
 20
3887.833646176899
 30
0.0
 40
2.550000000006548
  0
LINE
  5
1F60E
330
2
100
AcDbEntity
  8
SPS
100
AcDbLine
 10
-6433.520893531779
 20
3887.833646176899
 30
0.0
 11
-6446.861579676421
 21
3887.833646176899
 31
0.0
  0
LINE
  5
1F60F
330
2
100
AcDbEntity
  8
SPS
100
AcDbLine
 10
-6439.832250088854
 20
3895.24188903086
 30
0.0
 11
-6439.832250088854
 21
3879.349036953018
 31
0.0
  0
LINE
  5
1F610
330
2
100
AcDbEntity
  8
VLB
100
AcDbLine
 10
-6410.332250088851
 20
3878.533646176899
 30
0.0
 11
-6410.332250088853
 21
3897.833646176898
 31
0.0
  0
LINE
  5
1F611
330
2
100
AcDbEntity
  8
VLB
100
AcDbLine
 10
-6408.332250088854
 20
4048.033646176896
 30
0.0
 11
-6409.832250088854
 21
4048.033646176898
 31
0.0
  0
LINE
  5
1F613
330
2
100
AcDbEntity
  8
VLB
100
AcDbLine
 10
-6408.332250088854
 20
2699.533646176894
 30
0.0
 11
-6408.332250088854
 21
2889.533646176895
 31
0.0
  0
LINE
  5
1F614
330
2
100
AcDbEntity
  8
VLB
100
AcDbLine
 10
-6409.832250088854
 20
2699.533646176894
 30
0.0
 11
-6409.832250088854
 21
2889.533646176895
 31
0.0
  0
LINE
  5
1F615
330
2
100
AcDbEntity
  8
VLB
100
AcDbLine
 10
-6571.332250088854
 20
2889.533646176895
 30
0.0
 11
-6571.332250088854
 21
2699.533646176894
 31
0.0
  0
LINE
  5
1F616
330
2
100
AcDbEntity
  8
VLB
100
AcDbLine
 10
-6569.832250088854
 20
2889.533646176895
 30
0.0
 11
-6569.832250088854
 21
2699.533646176894
 31
0.0
  0
LINE
  5
1F617
330
2
100
AcDbEntity
  8
VLB
100
AcDbLine
 10
-6410.332250088851
 20
2890.533646176894
 30
0.0
 11
-6410.332250088853
 21
2871.233646176894
 31
0.0
  0
LINE
  5
1F618
330
2
100
AcDbEntity
  8
SPS
100
AcDbLine
 10
-6439.832250088854
 20
2873.825403322932
 30
0.0
 11
-6439.832250088854
 21
2889.718255400774
 31
0.0
  0
LINE
  5
1F619
330
2
100
AcDbEntity
  8
SPS
100
AcDbLine
 10
-6433.520893531779
 20
2881.233646176895
 30
0.0
 11
-6446.861579676421
 21
2881.233646176895
 31
0.0
  0
CIRCLE
  5
1F61A
330
2
100
AcDbEntity
  8
VLB
100
AcDbCircle
 10
-6439.832250088854
 20
2881.233646176895
 30
0.0
 40
2.550000000006548
  0
CIRCLE
  5
1F61B
330
2
100
AcDbEntity
  8
VLB
100
AcDbCircle
 10
-6439.832250088854
 20
2881.233646176895
 30
0.0
 40
5.000000000001818
  0
LINE
  5
1F61C
330
2
100
AcDbEntity
  8
VLB
100
AcDbLine
 10
-6408.332250088854
 20
2889.533646176895
 30
0.0
 11
-6410.332250088849
 21
2889.533646176895
 31
0.0
  0
LINE
  5
1F61D
330
2
100
AcDbEntity
  8
VLB
100
AcDbLine
 10
-6569.332250088854
 20
2890.533646176894
 30
0.0
 11
-6569.332250088854
 21
2871.233646176894
 31
0.0
  0
LINE
  5
1F61E
330
2
100
AcDbEntity
  8
SPS
100
AcDbLine
 10
-6533.520893531779
 20
2881.233646176895
 30
0.0
 11
-6546.861579676421
 21
2881.233646176895
 31
0.0
  0
CIRCLE
  5
1F61F
330
2
100
AcDbEntity
  8
VLB
100
AcDbCircle
 10
-6539.832250088854
 20
2881.233646176895
 30
0.0
 40
5.000000000001818
  0
LINE
  5
1F620
330
2
100
AcDbEntity
  8
SPS
100
AcDbLine
 10
-6539.832250088854
 20
2873.825403322932
 30
0.0
 11
-6539.832250088854
 21
2889.718255400774
 31
0.0
  0
CIRCLE
  5
1F621
330
2
100
AcDbEntity
  8
VLB
100
AcDbCircle
 10
-6539.832250088854
 20
2881.233646176895
 30
0.0
 40
2.550000000006548
  0
LINE
  5
1F622
330
2
100
AcDbEntity
  8
VLB
100
AcDbLine
 10
-6569.332250088852
 20
2889.533646176895
 30
0.0
 11
-6571.332250088854
 21
2889.533646176895
 31
0.0
  0
LINE
  5
1F623
330
2
100
AcDbEntity
  8
VLB
100
AcDbLine
 10
-6569.332250088854
 20
2871.233646176894
 30
0.0
 11
-6410.332250088853
 21
2871.233646176894
 31
0.0
  0
LINE
  5
1F625
330
2
100
AcDbEntity
  8
VLB
100
AcDbLine
 10
-6408.332250088854
 20
2721.033646176897
 30
0.0
 11
-6409.832250088854
 21
2721.033646176894
 31
0.0
  0
LINE
  5
1F626
330
2
100
AcDbEntity
  8
VLB
100
AcDbLine
 10
-6569.832250088854
 20
2721.033646176894
 30
0.0
 11
-6571.332250088854
 21
2721.033646176894
 31
0.0
  0
LINE
  5
1F627
330
2
100
AcDbEntity
  8
VLB
100
AcDbLine
 10
-6571.332250088854
 20
2699.533646176894
 30
0.0
 11
-6408.332250088854
 21
2699.533646176894
 31
0.0
  0
LINE
  5
1F628
330
2
100
AcDbEntity
  8
VLB
100
AcDbLine
 10
-6569.332250088854
 20
3879.533646176898
 30
0.0
 11
-6983.832250088855
 21
3879.5336461769
 31
0.0
  0
LINE
  5
1F629
330
2
100
AcDbEntity
  8
VLB
100
AcDbLine
 10
-6569.332250088854
 20
3878.533646176899
 30
0.0
 11
-6984.832250088856
 21
3878.533646176899
 31
0.0
  0
LINE
  5
1F62A
330
2
100
AcDbEntity
  8
VLB
100
AcDbLine
 10
-6571.332250088854
 20
4012.533646176897
 30
0.0
 11
-7116.832250088852
 21
4012.533646176898
 31
0.0
  0
LINE
  5
1F62B
330
2
100
AcDbEntity
  8
VLB
100
AcDbLine
 10
-6408.332250088854
 20
2756.533646176896
 30
0.0
 11
-5862.832250088855
 21
2756.533646176896
 31
0.0
  0
LINE
  5
1F62C
330
2
100
AcDbEntity
  8
VLB
100
AcDbLine
 10
-6410.332250088849
 20
2889.533646176895
 30
0.0
 11
-5995.832250088852
 21
2889.533646176895
 31
0.0
  0
LINE
  5
1F62D
330
2
100
AcDbEntity
  8
VLB
100
AcDbLine
 10
-6410.332250088849
 20
2890.533646176894
 30
0.0
 11
-5994.832250088851
 21
2890.533646176894
 31
0.0
  0
LINE
  5
1F630
330
2
100
AcDbEntity
  8
VLB
100
AcDbLine
 10
-6973.288547674306
 20
3858.174994762354
 30
0.0
 11
-6968.381069374307
 21
3849.674994762354
 31
0.0
  0
LINE
  5
1F631
330
2
100
AcDbEntity
  8
SPS
100
AcDbLine
 10
-6963.473598674307
 20
3858.174994762354
 30
0.0
 11
-6963.473598674307
 21
3847.674994762353
 31
0.0
  0
LINE
  5
1F632
330
2
100
AcDbEntity
  8
SPS
100
AcDbLine
 10
-6963.473598674307
 20
3858.174994762354
 30
0.0
 11
-6973.973598674307
 21
3858.174994762354
 31
0.0
  0
LINE
  5
1F633
330
2
100
AcDbEntity
  8
VLB
100
AcDbLine
 10
-6968.381069374307
 20
3866.674994762353
 30
0.0
 11
-6973.288547674306
 21
3858.174994762354
 31
0.0
  0
LINE
  5
1F634
330
2
100
AcDbEntity
  8
SPS
100
AcDbLine
 10
-6963.473598674307
 20
3858.174994762354
 30
0.0
 11
-6963.473598674307
 21
3868.674994762354
 31
0.0
  0
LINE
  5
1F635
330
2
100
AcDbEntity
  8
VLB
100
AcDbLine
 10
-6958.566127974307
 20
3849.674994762354
 30
0.0
 11
-6953.658649674306
 21
3858.174994762354
 31
0.0
  0
LINE
  5
1F636
330
2
100
AcDbEntity
  8
VLB
100
AcDbLine
 10
-6953.658649674306
 20
3858.174994762354
 30
0.0
 11
-6958.566127974307
 21
3866.674994762353
 31
0.0
  0
LINE
  5
1F637
330
2
100
AcDbEntity
  8
VLB
100
AcDbLine
 10
-6958.566127974307
 20
3866.674994762353
 30
0.0
 11
-6968.381069374307
 21
3866.674994762353
 31
0.0
  0
LINE
  5
1F638
330
2
100
AcDbEntity
  8
SPS
100
AcDbLine
 10
-6963.473598674307
 20
3858.174994762354
 30
0.0
 11
-6952.973598674308
 21
3858.174994762354
 31
0.0
  0
LINE
  5
1F639
330
2
100
AcDbEntity
  8
VLB
100
AcDbLine
 10
-6968.381069374307
 20
3849.674994762354
 30
0.0
 11
-6958.566127974307
 21
3849.674994762354
 31
0.0
  0
CIRCLE
  5
1F63A
330
2
100
AcDbEntity
  8
VLB
100
AcDbCircle
 10
-6963.473598674305
 20
3858.174994762354
 30
0.0
 40
8.5
  0
ARC
  5
1F63B
330
2
100
AcDbEntity
  8
VLB
100
AcDbCircle
 10
-6973.832250088851
 20
3869.327412478563
 30
0.0
 40
12.99999999999925
100
AcDbArc
 50
157.380135051969
 51
202.6198649480308
  0
LINE
  5
1F63C
330
2
100
AcDbEntity
  8
VLB
100
AcDbLine
 10
-6985.832250088852
 20
3874.327412478564
 30
0.0
 11
-6984.832250088851
 21
3874.32741247856
 31
0.0
  0
LINE
  5
1F63D
330
2
100
AcDbEntity
  8
VLB
100
AcDbLine
 10
-6985.832250088852
 20
3864.327412478564
 30
0.0
 11
-6984.832250088851
 21
3864.327412478564
 31
0.0
  0
LINE
  5
1F63E
330
2
100
AcDbEntity
  8
SPS
100
AcDbLine
 10
-6976.037545579128
 20
3869.327412478563
 30
0.0
 11
-6989.076736185137
 21
3869.327412478563
 31
0.0
  0
LINE
  5
1F63F
330
2
100
AcDbEntity
  8
SPS
100
AcDbLine
 10
-6972.077775165466
 20
3870.738941667172
 30
0.0
 11
-6972.077775165466
 21
3883.778132273181
 31
0.0
  0
LINE
  5
1F640
330
2
100
AcDbEntity
  8
VLB
100
AcDbLine
 10
-6977.077775165466
 20
3880.533646176896
 30
0.0
 11
-6977.077775165466
 21
3879.533646176897
 31
0.0
  0
ARC
  5
1F641
330
2
100
AcDbEntity
  8
VLB
100
AcDbCircle
 10
-6972.077775165466
 20
3868.533646176897
 30
0.0
 40
12.99999999999925
100
AcDbArc
 50
74.0576313944422
 51
105.9423686055577
  0
ARC
  5
1F642
330
2
100
AcDbEntity
  8
VLB
100
AcDbCircle
 10
-6972.077775165494
 20
3868.533646177014
 30
0.0
 40
12.9999999998802
100
AcDbArc
 50
105.9423686055577
 51
112.6198649481446
  0
ARC
  5
1F643
330
2
100
AcDbEntity
  8
VLB
100
AcDbCircle
 10
-6972.077775165519
 20
3868.533646176777
 30
0.0
 40
13.00000000013173
100
AcDbArc
 50
67.38013505192149
 51
74.0576313944422
  0
LINE
  5
1F644
330
2
100
AcDbEntity
  8
VLB
100
AcDbLine
 10
-6967.077775165465
 20
3880.533646176896
 30
0.0
 11
-6967.07777516547
 21
3879.533646176897
 31
0.0
  0
LINE
  5
1F645
330
2
100
AcDbEntity
  8
VLS
100
AcDbLine
 10
-6983.832250088855
 20
3878.5336461769
 30
0.0
 11
-6969.69602653384
 21
3864.397422621886
 31
0.0
  0
LINE
  5
1F646
330
2
100
AcDbEntity
  8
VLS
100
AcDbLine
 10
-6957.251170814775
 20
3851.95256690282
 30
0.0
 11
-6489.832250088854
 21
3384.533646176898
 31
0.0
  0
LINE
  5
1F647
330
2
100
AcDbEntity
  8
VLS
100
AcDbLine
 10
-6983.832250088856
 20
2890.533646176894
 30
0.0
 11
-6969.696026533845
 21
2904.669869731909
 31
0.0
  0
LINE
  5
1F648
330
2
100
AcDbEntity
  8
VLB
100
AcDbLine
 10
-6985.832250088853
 20
2907.288121100284
 30
0.0
 11
-6984.832250088856
 21
2907.28812110028
 31
0.0
  0
ARC
  5
1F649
330
2
100
AcDbEntity
  8
VLB
100
AcDbCircle
 10
-6973.832250088735
 20
2902.288121100231
 30
0.0
 40
13.00000000013173
100
AcDbArc
 50
157.3801350519214
 51
164.0576313944421
  0
ARC
  5
1F64A
330
2
100
AcDbEntity
  8
VLB
100
AcDbCircle
 10
-6973.832250088971
 20
2902.288121100255
 30
0.0
 40
12.9999999998802
100
AcDbArc
 50
195.9423686055577
 51
202.6198649481446
  0
ARC
  5
1F64B
330
2
100
AcDbEntity
  8
VLB
100
AcDbCircle
 10
-6973.832250088854
 20
2902.288121100284
 30
0.0
 40
12.99999999999925
100
AcDbArc
 50
164.0576313944421
 51
195.9423686055577
  0
LINE
  5
1F64C
330
2
100
AcDbEntity
  8
VLB
100
AcDbLine
 10
-6985.832250088853
 20
2897.288121100284
 30
0.0
 11
-6984.832250088856
 21
2897.288121100284
 31
0.0
  0
LINE
  5
1F64D
330
2
100
AcDbEntity
  8
SPS
100
AcDbLine
 10
-6976.037545579129
 20
2902.288121100284
 30
0.0
 11
-6989.07673618514
 21
2902.288121100284
 31
0.0
  0
LINE
  5
1F64E
330
2
100
AcDbEntity
  8
SPS
100
AcDbLine
 10
-6974.62601639052
 20
2898.328350686623
 30
0.0
 11
-6974.62601639052
 21
2885.289160080612
 31
0.0
  0
LINE
  5
1F64F
330
2
100
AcDbEntity
  8
VLB
100
AcDbLine
 10
-6969.62601639052
 20
2888.533646176898
 30
0.0
 11
-6969.62601639052
 21
2889.533646176898
 31
0.0
  0
LINE
  5
1F650
330
2
100
AcDbEntity
  8
VLB
100
AcDbLine
 10
-6979.626016390522
 20
2888.533646176898
 30
0.0
 11
-6979.626016390517
 21
2889.533646176898
 31
0.0
  0
ARC
  5
1F651
330
2
100
AcDbEntity
  8
VLB
100
AcDbCircle
 10
-6974.62601639052
 20
2900.533646176898
 30
0.0
 40
12.99999999999925
100
AcDbArc
 50
247.380135051969
 51
292.6198649480308
  0
CIRCLE
  5
1F652
330
2
100
AcDbEntity
  8
VLB
100
AcDbCircle
 10
-6963.473598674311
 20
2910.892297591445
 30
0.0
 40
8.5
  0
LINE
  5
1F653
330
2
100
AcDbEntity
  8
VLB
100
AcDbLine
 10
-6954.973598674311
 20
2905.984826891442
 30
0.0
 11
-6954.973598674311
 21
2915.799768291443
 31
0.0
  0
LINE
  5
1F654
330
2
100
AcDbEntity
  8
SPS
100
AcDbLine
 10
-6963.473598674311
 20
2910.892297591443
 30
0.0
 11
-6963.473598674311
 21
2921.392297591443
 31
0.0
  0
LINE
  5
1F655
330
2
100
AcDbEntity
  8
VLB
100
AcDbLine
 10
-6971.97359867431
 20
2915.799768291443
 30
0.0
 11
-6971.97359867431
 21
2905.984826891442
 31
0.0
  0
LINE
  5
1F656
330
2
100
AcDbEntity
  8
VLB
100
AcDbLine
 10
-6963.473598674311
 20
2920.707246591444
 30
0.0
 11
-6971.97359867431
 21
2915.799768291443
 31
0.0
  0
LINE
  5
1F657
330
2
100
AcDbEntity
  8
VLB
100
AcDbLine
 10
-6954.973598674311
 20
2915.799768291443
 30
0.0
 11
-6963.473598674311
 21
2920.707246591444
 31
0.0
  0
LINE
  5
1F658
330
2
100
AcDbEntity
  8
SPS
100
AcDbLine
 10
-6963.473598674311
 20
2910.892297591443
 30
0.0
 11
-6973.973598674311
 21
2910.892297591443
 31
0.0
  0
LINE
  5
1F659
330
2
100
AcDbEntity
  8
VLB
100
AcDbLine
 10
-6971.97359867431
 20
2905.984826891442
 30
0.0
 11
-6963.473598674311
 21
2901.077348591443
 31
0.0
  0
LINE
  5
1F65A
330
2
100
AcDbEntity
  8
SPS
100
AcDbLine
 10
-6963.473598674311
 20
2910.892297591443
 30
0.0
 11
-6963.473598674311
 21
2900.392297591443
 31
0.0
  0
LINE
  5
1F65B
330
2
100
AcDbEntity
  8
SPS
100
AcDbLine
 10
-6963.473598674311
 20
2910.892297591443
 30
0.0
 11
-6952.973598674311
 21
2910.892297591443
 31
0.0
  0
LINE
  5
1F65C
330
2
100
AcDbEntity
  8
VLB
100
AcDbLine
 10
-6963.473598674311
 20
2901.077348591443
 30
0.0
 11
-6954.973598674311
 21
2905.984826891442
 31
0.0
  0
LINE
  5
1F65D
330
2
100
AcDbEntity
  8
VLS
100
AcDbLine
 10
-6957.251170814777
 20
2917.114725450975
 30
0.0
 11
-6489.832250088856
 21
3384.533646176896
 31
0.0
  0
LINE
  5
1F65E
330
2
100
AcDbEntity
  8
VLS
100
AcDbLine
 10
-5995.832250088852
 20
2890.533646176893
 30
0.0
 11
-6009.968473643866
 21
2904.669869731907
 31
0.0
  0
LINE
  5
1F65F
330
2
100
AcDbEntity
  8
VLB
100
AcDbLine
 10
-6012.586725012241
 20
2888.533646176897
 30
0.0
 11
-6012.586725012237
 21
2889.533646176896
 31
0.0
  0
ARC
  5
1F660
330
2
100
AcDbEntity
  8
VLB
100
AcDbCircle
 10
-6007.586725012188
 20
2900.533646177015
 30
0.0
 40
13.00000000013173
100
AcDbArc
 50
247.3801350519214
 51
254.0576313944421
  0
ARC
  5
1F661
330
2
100
AcDbEntity
  8
VLB
100
AcDbCircle
 10
-6007.586725012212
 20
2900.533646176779
 30
0.0
 40
12.9999999998802
100
AcDbArc
 50
285.9423686055577
 51
292.6198649481445
  0
ARC
  5
1F662
330
2
100
AcDbEntity
  8
VLB
100
AcDbCircle
 10
-6007.586725012242
 20
2900.533646176896
 30
0.0
 40
12.99999999999925
100
AcDbArc
 50
254.0576313944421
 51
285.9423686055577
  0
LINE
  5
1F663
330
2
100
AcDbEntity
  8
VLB
100
AcDbLine
 10
-6002.586725012241
 20
2888.533646176897
 30
0.0
 11
-6002.586725012241
 21
2889.533646176896
 31
0.0
  0
LINE
  5
1F664
330
2
100
AcDbEntity
  8
SPS
100
AcDbLine
 10
-6007.586725012242
 20
2898.328350686622
 30
0.0
 11
-6007.586725012242
 21
2885.289160080612
 31
0.0
  0
LINE
  5
1F665
330
2
100
AcDbEntity
  8
SPS
100
AcDbLine
 10
-6003.62695459858
 20
2899.739879875229
 30
0.0
 11
-5990.587763992569
 21
2899.739879875229
 31
0.0
  0
LINE
  5
1F666
330
2
100
AcDbEntity
  8
VLB
100
AcDbLine
 10
-5993.832250088855
 20
2904.739879875229
 30
0.0
 11
-5994.832250088855
 21
2904.739879875229
 31
0.0
  0
LINE
  5
1F667
330
2
100
AcDbEntity
  8
VLB
100
AcDbLine
 10
-5993.832250088855
 20
2894.739879875229
 30
0.0
 11
-5994.832250088855
 21
2894.739879875233
 31
0.0
  0
ARC
  5
1F668
330
2
100
AcDbEntity
  8
VLB
100
AcDbCircle
 10
-6005.832250088855
 20
2899.739879875229
 30
0.0
 40
12.99999999999925
100
AcDbArc
 50
337.380135051969
 51
22.61986494803085
  0
CIRCLE
  5
1F669
330
2
100
AcDbEntity
  8
VLB
100
AcDbCircle
 10
-6016.190901503402
 20
2910.892297591439
 30
0.0
 40
8.5
  0
LINE
  5
1F66A
330
2
100
AcDbEntity
  8
VLB
100
AcDbLine
 10
-6011.283430803399
 20
2919.392297591439
 30
0.0
 11
-6021.0983722034
 21
2919.392297591439
 31
0.0
  0
LINE
  5
1F66B
330
2
100
AcDbEntity
  8
SPS
100
AcDbLine
 10
-6016.190901503399
 20
2910.892297591439
 30
0.0
 11
-6026.6909015034
 21
2910.892297591439
 31
0.0
  0
LINE
  5
1F66C
330
2
100
AcDbEntity
  8
VLB
100
AcDbLine
 10
-6021.0983722034
 20
2902.39229759144
 30
0.0
 11
-6011.283430803399
 21
2902.39229759144
 31
0.0
  0
LINE
  5
1F66D
330
2
100
AcDbEntity
  8
VLB
100
AcDbLine
 10
-6026.005850503401
 20
2910.892297591439
 30
0.0
 11
-6021.0983722034
 21
2902.39229759144
 31
0.0
  0
LINE
  5
1F66E
330
2
100
AcDbEntity
  8
VLB
100
AcDbLine
 10
-6021.0983722034
 20
2919.392297591439
 30
0.0
 11
-6026.005850503401
 21
2910.892297591439
 31
0.0
  0
LINE
  5
1F66F
330
2
100
AcDbEntity
  8
SPS
100
AcDbLine
 10
-6016.190901503399
 20
2910.892297591439
 30
0.0
 11
-6016.190901503399
 21
2900.392297591439
 31
0.0
  0
LINE
  5
1F670
330
2
100
AcDbEntity
  8
VLB
100
AcDbLine
 10
-6011.283430803399
 20
2902.39229759144
 30
0.0
 11
-6006.3759525034
 21
2910.892297591439
 31
0.0
  0
LINE
  5
1F671
330
2
100
AcDbEntity
  8
SPS
100
AcDbLine
 10
-6016.190901503399
 20
2910.892297591439
 30
0.0
 11
-6005.6909015034
 21
2910.892297591439
 31
0.0
  0
LINE
  5
1F672
330
2
100
AcDbEntity
  8
SPS
100
AcDbLine
 10
-6016.190901503399
 20
2910.892297591439
 30
0.0
 11
-6016.190901503399
 21
2921.39229759144
 31
0.0
  0
LINE
  5
1F673
330
2
100
AcDbEntity
  8
VLB
100
AcDbLine
 10
-6006.3759525034
 20
2910.892297591439
 30
0.0
 11
-6011.283430803399
 21
2919.392297591439
 31
0.0
  0
LINE
  5
1F674
330
2
100
AcDbEntity
  8
VLS
100
AcDbLine
 10
-6022.413329362931
 20
2917.114725450973
 30
0.0
 11
-6489.832250088854
 21
3384.533646176895
 31
0.0
  0
LINE
  5
1F675
330
2
100
AcDbEntity
  8
VLS
100
AcDbLine
 10
-5995.83225008885
 20
3878.533646176897
 30
0.0
 11
-6009.968473643863
 21
3864.397422621883
 31
0.0
  0
LINE
  5
1F676
330
2
100
AcDbEntity
  8
VLB
100
AcDbLine
 10
-5993.832250088853
 20
3861.779171253509
 30
0.0
 11
-5994.832250088851
 21
3861.779171253512
 31
0.0
  0
ARC
  5
1F677
330
2
100
AcDbEntity
  8
VLB
100
AcDbCircle
 10
-6005.832250088971
 20
3866.779171253561
 30
0.0
 40
13.00000000013173
100
AcDbArc
 50
337.3801350519214
 51
344.0576313944421
  0
ARC
  5
1F678
330
2
100
AcDbEntity
  8
VLB
100
AcDbCircle
 10
-6005.832250088736
 20
3866.779171253537
 30
0.0
 40
12.9999999998802
100
AcDbArc
 50
15.9423686055577
 51
22.61986494814455
  0
ARC
  5
1F679
330
2
100
AcDbEntity
  8
VLB
100
AcDbCircle
 10
-6005.832250088851
 20
3866.779171253508
 30
0.0
 40
12.99999999999925
100
AcDbArc
 50
344.0576313944421
 51
15.9423686055577
  0
LINE
  5
1F67A
330
2
100
AcDbEntity
  8
VLB
100
AcDbLine
 10
-5993.832250088853
 20
3871.779171253509
 30
0.0
 11
-5994.832250088851
 21
3871.779171253509
 31
0.0
  0
LINE
  5
1F67B
330
2
100
AcDbEntity
  8
SPS
100
AcDbLine
 10
-6003.626954598578
 20
3866.779171253508
 30
0.0
 11
-5990.587763992568
 21
3866.779171253508
 31
0.0
  0
LINE
  5
1F67C
330
2
100
AcDbEntity
  8
SPS
100
AcDbLine
 10
-6005.038483787186
 20
3870.73894166717
 30
0.0
 11
-6005.038483787186
 21
3883.77813227318
 31
0.0
  0
LINE
  5
1F67D
330
2
100
AcDbEntity
  8
VLB
100
AcDbLine
 10
-6010.038483787186
 20
3880.533646176894
 30
0.0
 11
-6010.038483787186
 21
3879.533646176895
 31
0.0
  0
LINE
  5
1F67E
330
2
100
AcDbEntity
  8
VLB
100
AcDbLine
 10
-6000.038483787186
 20
3880.533646176894
 30
0.0
 11
-6000.038483787189
 21
3879.533646176895
 31
0.0
  0
ARC
  5
1F67F
330
2
100
AcDbEntity
  8
VLB
100
AcDbCircle
 10
-6005.038483787186
 20
3868.533646176894
 30
0.0
 40
12.99999999999925
100
AcDbArc
 50
67.380135051969
 51
112.6198649480307
  0
CIRCLE
  5
1F680
330
2
100
AcDbEntity
  8
VLB
100
AcDbCircle
 10
-6016.190901503396
 20
3858.174994762348
 30
0.0
 40
8.5
  0
LINE
  5
1F681
330
2
100
AcDbEntity
  8
VLB
100
AcDbLine
 10
-6024.690901503396
 20
3863.082465462349
 30
0.0
 11
-6024.690901503396
 21
3853.267524062349
 31
0.0
  0
LINE
  5
1F682
330
2
100
AcDbEntity
  8
SPS
100
AcDbLine
 10
-6016.190901503396
 20
3858.17499476235
 30
0.0
 11
-6016.190901503396
 21
3847.674994762349
 31
0.0
  0
LINE
  5
1F683
330
2
100
AcDbEntity
  8
VLB
100
AcDbLine
 10
-6007.690901503396
 20
3853.267524062349
 30
0.0
 11
-6007.690901503396
 21
3863.082465462349
 31
0.0
  0
LINE
  5
1F684
330
2
100
AcDbEntity
  8
VLB
100
AcDbLine
 10
-6016.190901503396
 20
3848.360045762348
 30
0.0
 11
-6007.690901503396
 21
3853.267524062349
 31
0.0
  0
LINE
  5
1F685
330
2
100
AcDbEntity
  8
VLB
100
AcDbLine
 10
-6024.690901503396
 20
3853.267524062349
 30
0.0
 11
-6016.190901503396
 21
3848.360045762348
 31
0.0
  0
LINE
  5
1F686
330
2
100
AcDbEntity
  8
SPS
100
AcDbLine
 10
-6016.190901503396
 20
3858.17499476235
 30
0.0
 11
-6005.690901503396
 21
3858.17499476235
 31
0.0
  0
LINE
  5
1F687
330
2
100
AcDbEntity
  8
VLB
100
AcDbLine
 10
-6007.690901503396
 20
3863.082465462349
 30
0.0
 11
-6016.190901503396
 21
3867.989943762349
 31
0.0
  0
LINE
  5
1F688
330
2
100
AcDbEntity
  8
SPS
100
AcDbLine
 10
-6016.190901503396
 20
3858.17499476235
 30
0.0
 11
-6016.190901503396
 21
3868.674994762349
 31
0.0
  0
LINE
  5
1F689
330
2
100
AcDbEntity
  8
SPS
100
AcDbLine
 10
-6016.190901503396
 20
3858.17499476235
 30
0.0
 11
-6026.690901503396
 21
3858.17499476235
 31
0.0
  0
LINE
  5
1F68A
330
2
100
AcDbEntity
  8
VLB
100
AcDbLine
 10
-6016.190901503396
 20
3867.989943762349
 30
0.0
 11
-6024.690901503396
 21
3863.082465462349
 31
0.0
  0
LINE
  5
1F68B
330
2
100
AcDbEntity
  8
VLS
100
AcDbLine
 10
-6022.41332936293
 20
3851.952566902817
 30
0.0
 11
-6489.832250088851
 21
3384.533646176897
 31
0.0
  0
LINE
  5
1F68D
330
2
100
AcDbEntity
  8
SPS
100
AcDbLine
 10
-7056.771114957768
 20
3497.533646176894
 30
0.0
 11
-7018.389046510538
 21
3497.533646176894
 31
0.0
  0
LINE
  5
1F68E
330
2
100
AcDbEntity
  8
SPS
100
AcDbLine
 10
-7034.832250088856
 20
3513.906614123656
 30
0.0
 11
-7034.832250088856
 21
3479.014062905256
 31
0.0
  0
LINE
  5
1F68F
330
2
100
AcDbEntity
  8
SPS
100
AcDbLine
 10
-6984.832250088856
 20
3421.906614123656
 30
0.0
 11
-6984.832250088856
 21
3387.014062905256
 31
0.0
  0
LINE
  5
1F690
330
2
100
AcDbEntity
  8
SPS
100
AcDbLine
 10
-7006.771114957768
 20
3405.533646176894
 30
0.0
 11
-6968.389046510537
 21
3405.533646176894
 31
0.0
  0
LINE
  5
1F691
330
2
100
AcDbEntity
  8
VLB
100
AcDbLine
 10
-7028.332250088856
 20
3501.286415676895
 30
0.0
 11
-7034.832250088856
 21
3505.039185076894
 31
0.0
  0
LINE
  5
1F692
330
2
100
AcDbEntity
  8
VLB
100
AcDbLine
 10
-7034.832250088856
 20
3505.039185076894
 30
0.0
 11
-7041.332250088855
 21
3501.286415676895
 31
0.0
  0
LINE
  5
1F693
330
2
100
AcDbEntity
  8
SPS
100
AcDbLine
 10
-7034.832250088856
 20
3497.533646176894
 30
0.0
 11
-7043.332250088855
 21
3497.533646176894
 31
0.0
  0
LINE
  5
1F694
330
2
100
AcDbEntity
  8
VLB
100
AcDbLine
 10
-7041.332250088855
 20
3493.780876676895
 30
0.0
 11
-7034.832250088856
 21
3490.028107276895
 31
0.0
  0
LINE
  5
1F695
330
2
100
AcDbEntity
  8
SPS
100
AcDbLine
 10
-7034.832250088856
 20
3497.533646176894
 30
0.0
 11
-7034.832250088856
 21
3489.033646176894
 31
0.0
  0
LINE
  5
1F696
330
2
100
AcDbEntity
  8
VLB
100
AcDbLine
 10
-7034.832250088856
 20
3490.028107276895
 30
0.0
 11
-7028.332250088856
 21
3493.780876676895
 31
0.0
  0
LINE
  5
1F697
330
2
100
AcDbEntity
  8
SPS
100
AcDbLine
 10
-7034.832250088856
 20
3497.533646176894
 30
0.0
 11
-7026.332250088855
 21
3497.533646176894
 31
0.0
  0
LINE
  5
1F698
330
2
100
AcDbEntity
  8
SPS
100
AcDbLine
 10
-7034.832250088856
 20
3497.533646176894
 30
0.0
 11
-7034.832250088856
 21
3506.033646176895
 31
0.0
  0
LINE
  5
1F699
330
2
100
AcDbEntity
  8
VLB
100
AcDbLine
 10
-7041.332250088855
 20
3501.286415676895
 30
0.0
 11
-7041.332250088855
 21
3493.780876676895
 31
0.0
  0
LINE
  5
1F69A
330
2
100
AcDbEntity
  8
VLB
100
AcDbLine
 10
-7028.332250088856
 20
3493.780876676895
 30
0.0
 11
-7028.332250088856
 21
3501.286415676895
 31
0.0
  0
CIRCLE
  5
1F69B
330
2
100
AcDbEntity
  8
VLB
100
AcDbCircle
 10
-7034.832250088856
 20
3497.533646176894
 30
0.0
 40
6.5
  0
LINE
  5
1F69D
330
2
100
AcDbEntity
  8
VLB
100
AcDbLine
 10
-6984.832250088856
 20
3413.039185076894
 30
0.0
 11
-6991.332250088856
 21
3409.286415676894
 31
0.0
  0
LINE
  5
1F69E
330
2
100
AcDbEntity
  8
SPS
100
AcDbLine
 10
-6984.832250088856
 20
3405.533646176894
 30
0.0
 11
-6993.332250088855
 21
3405.533646176894
 31
0.0
  0
LINE
  5
1F69F
330
2
100
AcDbEntity
  8
VLB
100
AcDbLine
 10
-6991.332250088856
 20
3401.780876676895
 30
0.0
 11
-6984.832250088856
 21
3398.028107276894
 31
0.0
  0
LINE
  5
1F6A0
330
2
100
AcDbEntity
  8
SPS
100
AcDbLine
 10
-6984.832250088856
 20
3405.533646176894
 30
0.0
 11
-6984.832250088856
 21
3397.033646176895
 31
0.0
  0
LINE
  5
1F6A2
330
2
100
AcDbEntity
  8
SPS
100
AcDbLine
 10
-6984.832250088856
 20
3405.533646176894
 30
0.0
 11
-6976.332250088855
 21
3405.533646176894
 31
0.0
  0
LINE
  5
1F6A3
330
2
100
AcDbEntity
  8
SPS
100
AcDbLine
 10
-6984.832250088856
 20
3405.533646176894
 30
0.0
 11
-6984.832250088856
 21
3414.033646176894
 31
0.0
  0
LINE
  5
1F6A4
330
2
100
AcDbEntity
  8
VLB
100
AcDbLine
 10
-6991.332250088856
 20
3409.286415676894
 30
0.0
 11
-6991.332250088856
 21
3401.780876676895
 31
0.0
  0
ARC
  5
1F6A6
330
2
100
AcDbEntity
  8
VLB
100
AcDbCircle
 10
-6984.832250088856
 20
3405.533646176894
 30
0.0
 40
6.5
100
AcDbArc
 50
90.0
 51
270.0
  0
CIRCLE
  5
1F6A7
330
2
100
AcDbEntity
  8
VLB
100
AcDbCircle
 10
-7034.832250088856
 20
3271.533646176898
 30
0.0
 40
6.5
  0
LINE
  5
1F6A8
330
2
100
AcDbEntity
  8
VLB
100
AcDbLine
 10
-7028.332250088856
 20
3275.286415676898
 30
0.0
 11
-7028.332250088856
 21
3267.780876676898
 31
0.0
  0
LINE
  5
1F6A9
330
2
100
AcDbEntity
  8
VLB
100
AcDbLine
 10
-7041.332250088855
 20
3267.780876676898
 30
0.0
 11
-7041.332250088855
 21
3275.286415676898
 31
0.0
  0
LINE
  5
1F6AA
330
2
100
AcDbEntity
  8
SPS
100
AcDbLine
 10
-7034.832250088856
 20
3271.533646176898
 30
0.0
 11
-7034.832250088856
 21
3263.033646176898
 31
0.0
  0
LINE
  5
1F6AB
330
2
100
AcDbEntity
  8
SPS
100
AcDbLine
 10
-7034.832250088856
 20
3271.533646176898
 30
0.0
 11
-7026.332250088855
 21
3271.533646176898
 31
0.0
  0
LINE
  5
1F6AC
330
2
100
AcDbEntity
  8
VLB
100
AcDbLine
 10
-7034.832250088856
 20
3279.039185076898
 30
0.0
 11
-7028.332250088856
 21
3275.286415676898
 31
0.0
  0
LINE
  5
1F6AD
330
2
100
AcDbEntity
  8
SPS
100
AcDbLine
 10
-7034.832250088856
 20
3271.533646176898
 30
0.0
 11
-7034.832250088856
 21
3280.033646176898
 31
0.0
  0
LINE
  5
1F6AE
330
2
100
AcDbEntity
  8
VLB
100
AcDbLine
 10
-7041.332250088855
 20
3275.286415676898
 30
0.0
 11
-7034.832250088856
 21
3279.039185076898
 31
0.0
  0
LINE
  5
1F6AF
330
2
100
AcDbEntity
  8
SPS
100
AcDbLine
 10
-7034.832250088856
 20
3271.533646176898
 30
0.0
 11
-7043.332250088855
 21
3271.533646176898
 31
0.0
  0
LINE
  5
1F6B0
330
2
100
AcDbEntity
  8
VLB
100
AcDbLine
 10
-7034.832250088856
 20
3264.028107276898
 30
0.0
 11
-7041.332250088855
 21
3267.780876676898
 31
0.0
  0
LINE
  5
1F6B1
330
2
100
AcDbEntity
  8
VLB
100
AcDbLine
 10
-7028.332250088856
 20
3267.780876676898
 30
0.0
 11
-7034.832250088856
 21
3264.028107276898
 31
0.0
  0
LINE
  5
1F6B2
330
2
100
AcDbEntity
  8
SPS
100
AcDbLine
 10
-7034.832250088856
 20
3255.160678230136
 30
0.0
 11
-7034.832250088856
 21
3290.053229448536
 31
0.0
  0
LINE
  5
1F6B3
330
2
100
AcDbEntity
  8
SPS
100
AcDbLine
 10
-7056.771114957768
 20
3271.533646176898
 30
0.0
 11
-7018.389046510538
 21
3271.533646176898
 31
0.0
  0
ARC
  5
1F6B4
330
2
100
AcDbEntity
  8
VLB
100
AcDbCircle
 10
-6984.832250088856
 20
3363.533646176898
 30
0.0
 40
6.5
100
AcDbArc
 50
90.00000000000003
 51
270.0
  0
LINE
  5
1F6B5
330
2
100
AcDbEntity
  8
VLB
100
AcDbLine
 10
-6991.332250088856
 20
3359.780876676898
 30
0.0
 11
-6991.332250088856
 21
3367.286415676898
 31
0.0
  0
LINE
  5
1F6B6
330
2
100
AcDbEntity
  8
SPS
100
AcDbLine
 10
-6984.832250088856
 20
3363.533646176898
 30
0.0
 11
-6984.832250088856
 21
3355.033646176898
 31
0.0
  0
LINE
  5
1F6B7
330
2
100
AcDbEntity
  8
SPS
100
AcDbLine
 10
-6984.832250088856
 20
3363.533646176898
 30
0.0
 11
-6976.332250088855
 21
3363.533646176898
 31
0.0
  0
LINE
  5
1F6B8
330
2
100
AcDbEntity
  8
SPS
100
AcDbLine
 10
-6984.832250088856
 20
3363.533646176898
 30
0.0
 11
-6984.832250088856
 21
3372.033646176898
 31
0.0
  0
LINE
  5
1F6B9
330
2
100
AcDbEntity
  8
VLB
100
AcDbLine
 10
-6991.332250088856
 20
3367.286415676898
 30
0.0
 11
-6984.832250088856
 21
3371.039185076898
 31
0.0
  0
LINE
  5
1F6BA
330
2
100
AcDbEntity
  8
SPS
100
AcDbLine
 10
-6984.832250088856
 20
3363.533646176898
 30
0.0
 11
-6993.332250088855
 21
3363.533646176898
 31
0.0
  0
LINE
  5
1F6BB
330
2
100
AcDbEntity
  8
VLB
100
AcDbLine
 10
-6984.832250088856
 20
3356.028107276898
 30
0.0
 11
-6991.332250088856
 21
3359.780876676898
 31
0.0
  0
LINE
  5
1F6BC
330
2
100
AcDbEntity
  8
SPS
100
AcDbLine
 10
-7006.771114957768
 20
3363.533646176898
 30
0.0
 11
-6968.389046510537
 21
3363.533646176898
 31
0.0
  0
LINE
  5
1F6BD
330
2
100
AcDbEntity
  8
SPS
100
AcDbLine
 10
-6984.832250088856
 20
3347.160678230137
 30
0.0
 11
-6984.832250088856
 21
3382.053229448537
 31
0.0
  0
LINE
  5
1F748
330
2
100
AcDbEntity
  8
SPS
100
AcDbLine
 10
-5922.893385219939
 20
3271.533646176898
 30
0.0
 11
-5961.27545366717
 21
3271.533646176898
 31
0.0
  0
LINE
  5
1F749
330
2
100
AcDbEntity
  8
SPS
100
AcDbLine
 10
-5944.832250088851
 20
3255.160678230136
 30
0.0
 11
-5944.832250088851
 21
3290.053229448536
 31
0.0
  0
LINE
  5
1F74A
330
2
100
AcDbEntity
  8
VLB
100
AcDbLine
 10
-5951.332250088852
 20
3267.780876676898
 30
0.0
 11
-5944.832250088851
 21
3264.028107276898
 31
0.0
  0
LINE
  5
1F74B
330
2
100
AcDbEntity
  8
VLB
100
AcDbLine
 10
-5944.832250088851
 20
3264.028107276898
 30
0.0
 11
-5938.332250088851
 21
3267.780876676898
 31
0.0
  0
LINE
  5
1F74C
330
2
100
AcDbEntity
  8
SPS
100
AcDbLine
 10
-5944.832250088851
 20
3271.533646176898
 30
0.0
 11
-5936.332250088852
 21
3271.533646176898
 31
0.0
  0
LINE
  5
1F74D
330
2
100
AcDbEntity
  8
VLB
100
AcDbLine
 10
-5938.332250088851
 20
3275.286415676898
 30
0.0
 11
-5944.832250088851
 21
3279.039185076898
 31
0.0
  0
LINE
  5
1F74E
330
2
100
AcDbEntity
  8
SPS
100
AcDbLine
 10
-5944.832250088851
 20
3271.533646176898
 30
0.0
 11
-5944.832250088851
 21
3280.033646176898
 31
0.0
  0
LINE
  5
1F74F
330
2
100
AcDbEntity
  8
VLB
100
AcDbLine
 10
-5944.832250088851
 20
3279.039185076898
 30
0.0
 11
-5951.332250088852
 21
3275.286415676898
 31
0.0
  0
LINE
  5
1F750
330
2
100
AcDbEntity
  8
SPS
100
AcDbLine
 10
-5944.832250088851
 20
3271.533646176898
 30
0.0
 11
-5953.332250088852
 21
3271.533646176898
 31
0.0
  0
LINE
  5
1F751
330
2
100
AcDbEntity
  8
SPS
100
AcDbLine
 10
-5944.832250088851
 20
3271.533646176898
 30
0.0
 11
-5944.832250088851
 21
3263.033646176898
 31
0.0
  0
LINE
  5
1F752
330
2
100
AcDbEntity
  8
VLB
100
AcDbLine
 10
-5938.332250088851
 20
3267.780876676898
 30
0.0
 11
-5938.332250088851
 21
3275.286415676898
 31
0.0
  0
LINE
  5
1F753
330
2
100
AcDbEntity
  8
VLB
100
AcDbLine
 10
-5951.332250088852
 20
3275.286415676898
 30
0.0
 11
-5951.332250088852
 21
3267.780876676898
 31
0.0
  0
CIRCLE
  5
1F754
330
2
100
AcDbEntity
  8
VLB
100
AcDbCircle
 10
-5944.832250088851
 20
3271.533646176898
 30
0.0
 40
6.5
  0
LINE
  5
1F755
330
2
100
AcDbEntity
  8
SPS
100
AcDbLine
 10
-5994.832250088851
 20
3347.160678230137
 30
0.0
 11
-5994.832250088851
 21
3382.053229448537
 31
0.0
  0
LINE
  5
1F756
330
2
100
AcDbEntity
  8
SPS
100
AcDbLine
 10
-5972.893385219939
 20
3363.533646176898
 30
0.0
 11
-6011.275453667169
 21
3363.533646176898
 31
0.0
  0
LINE
  5
1F757
330
2
100
AcDbEntity
  8
VLB
100
AcDbLine
 10
-5994.832250088851
 20
3356.028107276898
 30
0.0
 11
-5988.332250088852
 21
3359.780876676898
 31
0.0
  0
LINE
  5
1F758
330
2
100
AcDbEntity
  8
SPS
100
AcDbLine
 10
-5994.832250088851
 20
3363.533646176898
 30
0.0
 11
-5986.332250088851
 21
3363.533646176898
 31
0.0
  0
LINE
  5
1F759
330
2
100
AcDbEntity
  8
VLB
100
AcDbLine
 10
-5988.332250088852
 20
3367.286415676898
 30
0.0
 11
-5994.832250088851
 21
3371.039185076898
 31
0.0
  0
LINE
  5
1F75A
330
2
100
AcDbEntity
  8
SPS
100
AcDbLine
 10
-5994.832250088851
 20
3363.533646176898
 30
0.0
 11
-5994.832250088851
 21
3372.033646176898
 31
0.0
  0
LINE
  5
1F75B
330
2
100
AcDbEntity
  8
SPS
100
AcDbLine
 10
-5994.832250088851
 20
3363.533646176898
 30
0.0
 11
-6003.332250088852
 21
3363.533646176898
 31
0.0
  0
LINE
  5
1F75C
330
2
100
AcDbEntity
  8
SPS
100
AcDbLine
 10
-5994.832250088851
 20
3363.533646176898
 30
0.0
 11
-5994.832250088851
 21
3355.033646176898
 31
0.0
  0
LINE
  5
1F75D
330
2
100
AcDbEntity
  8
VLB
100
AcDbLine
 10
-5988.332250088852
 20
3359.780876676898
 30
0.0
 11
-5988.332250088852
 21
3367.286415676898
 31
0.0
  0
ARC
  5
1F75E
330
2
100
AcDbEntity
  8
VLB
100
AcDbCircle
 10
-5994.832250088851
 20
3363.533646176898
 30
0.0
 40
6.5
100
AcDbArc
 50
270.0
 51
89.99999999999998
  0
ARC
  5
1F75F
330
2
100
AcDbEntity
  8
VLB
100
AcDbCircle
 10
-5994.832250088851
 20
3405.533646176894
 30
0.0
 40
6.5
100
AcDbArc
 50
270.0
 51
90.0
  0
LINE
  5
1F760
330
2
100
AcDbEntity
  8
VLB
100
AcDbLine
 10
-5988.332250088852
 20
3409.286415676894
 30
0.0
 11
-5988.332250088852
 21
3401.780876676895
 31
0.0
  0
LINE
  5
1F761
330
2
100
AcDbEntity
  8
SPS
100
AcDbLine
 10
-5994.832250088851
 20
3405.533646176894
 30
0.0
 11
-5994.832250088851
 21
3414.033646176894
 31
0.0
  0
LINE
  5
1F762
330
2
100
AcDbEntity
  8
SPS
100
AcDbLine
 10
-5994.832250088851
 20
3405.533646176894
 30
0.0
 11
-6003.332250088852
 21
3405.533646176894
 31
0.0
  0
LINE
  5
1F763
330
2
100
AcDbEntity
  8
SPS
100
AcDbLine
 10
-5994.832250088851
 20
3405.533646176894
 30
0.0
 11
-5994.832250088851
 21
3397.033646176895
 31
0.0
  0
LINE
  5
1F764
330
2
100
AcDbEntity
  8
VLB
100
AcDbLine
 10
-5988.332250088852
 20
3401.780876676895
 30
0.0
 11
-5994.832250088851
 21
3398.028107276894
 31
0.0
  0
LINE
  5
1F765
330
2
100
AcDbEntity
  8
SPS
100
AcDbLine
 10
-5994.832250088851
 20
3405.533646176894
 30
0.0
 11
-5986.332250088851
 21
3405.533646176894
 31
0.0
  0
LINE
  5
1F766
330
2
100
AcDbEntity
  8
VLB
100
AcDbLine
 10
-5994.832250088851
 20
3413.039185076894
 30
0.0
 11
-5988.332250088852
 21
3409.286415676894
 31
0.0
  0
LINE
  5
1F767
330
2
100
AcDbEntity
  8
SPS
100
AcDbLine
 10
-5972.893385219939
 20
3405.533646176894
 30
0.0
 11
-6011.275453667169
 21
3405.533646176894
 31
0.0
  0
LINE
  5
1F768
330
2
100
AcDbEntity
  8
SPS
100
AcDbLine
 10
-5994.832250088851
 20
3421.906614123656
 30
0.0
 11
-5994.832250088851
 21
3387.014062905256
 31
0.0
  0
CIRCLE
  5
1F769
330
2
100
AcDbEntity
  8
VLB
100
AcDbCircle
 10
-5944.832250088851
 20
3497.533646176894
 30
0.0
 40
6.5
  0
LINE
  5
1F76A
330
2
100
AcDbEntity
  8
VLB
100
AcDbLine
 10
-5951.332250088852
 20
3493.780876676895
 30
0.0
 11
-5951.332250088852
 21
3501.286415676895
 31
0.0
  0
LINE
  5
1F76B
330
2
100
AcDbEntity
  8
VLB
100
AcDbLine
 10
-5938.332250088851
 20
3501.286415676895
 30
0.0
 11
-5938.332250088851
 21
3493.780876676895
 31
0.0
  0
LINE
  5
1F76C
330
2
100
AcDbEntity
  8
SPS
100
AcDbLine
 10
-5944.832250088851
 20
3497.533646176894
 30
0.0
 11
-5944.832250088851
 21
3506.033646176895
 31
0.0
  0
LINE
  5
1F76D
330
2
100
AcDbEntity
  8
SPS
100
AcDbLine
 10
-5944.832250088851
 20
3497.533646176894
 30
0.0
 11
-5953.332250088852
 21
3497.533646176894
 31
0.0
  0
LINE
  5
1F76E
330
2
100
AcDbEntity
  8
VLB
100
AcDbLine
 10
-5944.832250088851
 20
3490.028107276895
 30
0.0
 11
-5951.332250088852
 21
3493.780876676895
 31
0.0
  0
LINE
  5
1F76F
330
2
100
AcDbEntity
  8
SPS
100
AcDbLine
 10
-5944.832250088851
 20
3497.533646176894
 30
0.0
 11
-5944.832250088851
 21
3489.033646176894
 31
0.0
  0
LINE
  5
1F770
330
2
100
AcDbEntity
  8
VLB
100
AcDbLine
 10
-5938.332250088851
 20
3493.780876676895
 30
0.0
 11
-5944.832250088851
 21
3490.028107276895
 31
0.0
  0
LINE
  5
1F771
330
2
100
AcDbEntity
  8
SPS
100
AcDbLine
 10
-5944.832250088851
 20
3497.533646176894
 30
0.0
 11
-5936.332250088852
 21
3497.533646176894
 31
0.0
  0
LINE
  5
1F772
330
2
100
AcDbEntity
  8
VLB
100
AcDbLine
 10
-5944.832250088851
 20
3505.039185076894
 30
0.0
 11
-5938.332250088851
 21
3501.286415676895
 31
0.0
  0
LINE
  5
1F773
330
2
100
AcDbEntity
  8
VLB
100
AcDbLine
 10
-5951.332250088852
 20
3501.286415676895
 30
0.0
 11
-5944.832250088851
 21
3505.039185076894
 31
0.0
  0
LINE
  5
1F774
330
2
100
AcDbEntity
  8
SPS
100
AcDbLine
 10
-5944.832250088851
 20
3513.906614123656
 30
0.0
 11
-5944.832250088851
 21
3479.014062905256
 31
0.0
  0
LINE
  5
1F775
330
2
100
AcDbEntity
  8
SPS
100
AcDbLine
 10
-5922.893385219939
 20
3497.533646176894
 30
0.0
 11
-5961.27545366717
 21
3497.533646176894
 31
0.0
  0
ARC
  5
1F776
330
2
100
AcDbEntity
  8
VLB
100
AcDbCircle
 10
-7073.832250088854
 20
3384.533646176896
 30
0.0
 40
5.0
100
AcDbArc
 50
270.0
 51
90.0
  0
LINE
  5
1F777
330
2
100
AcDbEntity
  8
SPS
100
AcDbLine
 10
-7073.832250088854
 20
3392.533646176896
 30
0.0
 11
-7073.832250088854
 21
3376.533646176896
 31
0.0
  0
ARC
  5
1F778
330
2
100
AcDbEntity
  8
VLB
100
AcDbCircle
 10
-7108.832250088854
 20
3384.533646176896
 30
0.0
 40
5.0
100
AcDbArc
 50
90.0
 51
270.0
  0
LINE
  5
1F779
330
2
100
AcDbEntity
  8
SPS
100
AcDbLine
 10
-7108.832250088854
 20
3392.533646176896
 30
0.0
 11
-7108.832250088854
 21
3376.533646176896
 31
0.0
  0
LINE
  5
1F77A
330
2
100
AcDbEntity
  8
SPS
100
AcDbLine
 10
-7091.332250088851
 20
3400.033646176894
 30
0.0
 11
-7091.332250088851
 21
3369.033646176898
 31
0.0
  0
LINE
  5
1F77B
330
2
100
AcDbEntity
  8
SPS
100
AcDbLine
 10
-7116.832250088854
 20
3384.533646176896
 30
0.0
 11
-7065.832250088853
 21
3384.533646176896
 31
0.0
  0
ARC
  5
1F77C
330
2
100
AcDbEntity
  8
VLB
100
AcDbCircle
 10
-7091.332250088851
 20
3384.533646176896
 30
0.0
 40
12.49999999999818
100
AcDbArc
 50
23.57817847818628
 51
156.4218215218137
  0
LINE
  5
1F77D
330
2
100
AcDbEntity
  8
VLB
100
AcDbLine
 10
-7108.832250088854
 20
3379.533646176896
 30
0.0
 11
-7073.832250088854
 21
3379.533646176896
 31
0.0
  0
LINE
  5
1F77E
330
2
100
AcDbEntity
  8
VLB
100
AcDbLine
 10
-7108.832250088854
 20
3389.533646176896
 30
0.0
 11
-7073.832250088854
 21
3389.533646176896
 31
0.0
  0
ARC
  5
1F77F
330
2
100
AcDbEntity
  8
VLB
100
AcDbCircle
 10
-7091.332250088851
 20
3384.533646176896
 30
0.0
 40
12.49999999999818
100
AcDbArc
 50
203.5781784781862
 51
336.4218215218136
  0
ARC
  5
1F780
330
2
100
AcDbEntity
  8
VLB
100
AcDbCircle
 10
-5888.332250088855
 20
3384.533646176895
 30
0.0
 40
12.49999999999818
100
AcDbArc
 50
203.5781784781863
 51
336.4218215218137
  0
LINE
  5
1F781
330
2
100
AcDbEntity
  8
VLB
100
AcDbLine
 10
-5870.832250088853
 20
3389.533646176895
 30
0.0
 11
-5905.832250088853
 21
3389.533646176895
 31
0.0
  0
LINE
  5
1F782
330
2
100
AcDbEntity
  8
VLB
100
AcDbLine
 10
-5870.832250088853
 20
3379.533646176895
 30
0.0
 11
-5905.832250088853
 21
3379.533646176895
 31
0.0
  0
ARC
  5
1F783
330
2
100
AcDbEntity
  8
VLB
100
AcDbCircle
 10
-5888.332250088855
 20
3384.533646176895
 30
0.0
 40
12.49999999999818
100
AcDbArc
 50
23.57817847818628
 51
156.4218215218137
  0
LINE
  5
1F784
330
2
100
AcDbEntity
  8
SPS
100
AcDbLine
 10
-5862.832250088853
 20
3384.533646176895
 30
0.0
 11
-5913.832250088853
 21
3384.533646176895
 31
0.0
  0
LINE
  5
1F785
330
2
100
AcDbEntity
  8
SPS
100
AcDbLine
 10
-5870.832250088853
 20
3392.533646176895
 30
0.0
 11
-5870.832250088853
 21
3376.533646176895
 31
0.0
  0
ARC
  5
1F786
330
2
100
AcDbEntity
  8
VLB
100
AcDbCircle
 10
-5870.832250088853
 20
3384.533646176895
 30
0.0
 40
5.0
100
AcDbArc
 50
270.0
 51
90.0
  0
LINE
  5
1F787
330
2
100
AcDbEntity
  8
SPS
100
AcDbLine
 10
-5905.832250088853
 20
3392.533646176895
 30
0.0
 11
-5905.832250088853
 21
3376.533646176895
 31
0.0
  0
ARC
  5
1F788
330
2
100
AcDbEntity
  8
VLB
100
AcDbCircle
 10
-5905.832250088853
 20
3384.533646176895
 30
0.0
 40
5.0
100
AcDbArc
 50
90.0
 51
270.0
  0
LINE
  5
1F789
330
2
100
AcDbEntity
  8
VLB
100
AcDbLine
 10
-5914.832250088861
 20
2808.033646176896
 30
0.0
 11
-5914.832250088868
 21
3958.533646176894
 31
0.0
  0
LINE
  5
1F78A
330
2
100
AcDbEntity
  8
VLB
100
AcDbLine
 10
-7116.832250088852
 20
4012.533646176897
 30
0.0
 11
-7116.832250088852
 21
3961.033646176897
 31
0.0
  0
LINE
  5
1F78B
330
2
100
AcDbEntity
  8
SPS
100
AcDbLine
 10
-7071.522805508981
 20
3964.549662572036
 30
0.0
 11
-7071.522805508981
 21
3980.442514649878
 31
0.0
  0
LINE
  5
1F78C
330
2
100
AcDbEntity
  8
SPS
100
AcDbLine
 10
-7109.074315307132
 20
3964.549662572036
 30
0.0
 11
-7109.074315307132
 21
3980.442514649878
 31
0.0
  0
LINE
  5
1F78D
330
2
100
AcDbEntity
  8
VLB
100
AcDbLine
 10
-7063.832250088852
 20
3961.033646176897
 30
0.0
 11
-7063.832250088852
 21
3959.533646176893
 31
0.0
  0
LINE
  5
1F78E
330
2
100
AcDbEntity
  8
VLB
100
AcDbLine
 10
-7063.832250088852
 20
3961.033646176897
 30
0.0
 11
-7116.832250088852
 21
3961.033646176897
 31
0.0
  0
LINE
  5
1F78F
330
2
100
AcDbEntity
  8
SPS
100
AcDbLine
 10
-7077.834162066055
 20
3971.957905425997
 30
0.0
 11
-7064.493475921413
 21
3971.957905425997
 31
0.0
  0
CIRCLE
  5
1F790
330
2
100
AcDbEntity
  8
VLB
100
AcDbCircle
 10
-7071.522805508981
 20
3971.957905425997
 30
0.0
 40
5.000000000001818
  0
CIRCLE
  5
1F791
330
2
100
AcDbEntity
  8
VLB
100
AcDbCircle
 10
-7071.522805508981
 20
3971.957905425997
 30
0.0
 40
2.550000000006548
  0
CIRCLE
  5
1F792
330
2
100
AcDbEntity
  8
VLB
100
AcDbCircle
 10
-7109.074315307132
 20
3971.957905425997
 30
0.0
 40
2.550000000006548
  0
CIRCLE
  5
1F793
330
2
100
AcDbEntity
  8
VLB
100
AcDbCircle
 10
-7109.074315307132
 20
3971.957905425997
 30
0.0
 40
5.000000000001818
  0
LINE
  5
1F794
330
2
100
AcDbEntity
  8
SPS
100
AcDbLine
 10
-7115.385671864207
 20
3971.957905425997
 30
0.0
 11
-7102.044985719565
 21
3971.957905425997
 31
0.0
  0
LINE
  5
1F795
330
2
100
AcDbEntity
  8
VLB
100
AcDbLine
 10
-7117.832250088851
 20
4005.704833017814
 30
0.0
 11
-7117.832250088851
 21
3995.704833017817
 31
0.0
  0
ARC
  5
1F796
330
2
100
AcDbEntity
  8
VLB
100
AcDbCircle
 10
-7106.832250088968
 20
4000.704833017788
 30
0.0
 40
12.9999999998802
100
AcDbArc
 50
195.9423686055577
 51
202.6198649481446
  0
LINE
  5
1F797
330
2
100
AcDbEntity
  8
SPS
100
AcDbLine
 10
-7109.037545579126
 20
4000.704833017816
 30
0.0
 11
-7122.076736185135
 21
4000.704833017816
 31
0.0
  0
ARC
  5
1F798
330
2
100
AcDbEntity
  8
VLB
100
AcDbCircle
 10
-7106.832250088851
 20
4000.704833017816
 30
0.0
 40
12.99999999999925
100
AcDbArc
 50
164.0576313944422
 51
195.9423686055577
  0
ARC
  5
1F799
330
2
100
AcDbEntity
  8
VLB
100
AcDbCircle
 10
-7106.83225008873
 20
4000.704833017763
 30
0.0
 40
13.00000000013173
100
AcDbArc
 50
157.3801350519214
 51
164.0576313944422
  0
LINE
  5
1F79A
330
2
100
AcDbEntity
  8
VLB
100
AcDbLine
 10
-7118.83225008885
 20
4005.704833017816
 30
0.0
 11
-7117.832250088851
 21
4005.704833017814
 31
0.0
  0
LINE
  5
1F79B
330
2
100
AcDbEntity
  8
VLB
100
AcDbLine
 10
-7118.83225008885
 20
3995.704833017816
 30
0.0
 11
-7117.832250088851
 21
3995.704833017817
 31
0.0
  0
LINE
  5
1F79C
330
2
100
AcDbEntity
  8
VLB
100
AcDbLine
 10
-7117.832250088851
 20
4011.033646176897
 30
0.0
 11
-7116.832250088852
 21
4011.033646176897
 31
0.0
  0
LINE
  5
1F79D
330
2
100
AcDbEntity
  8
SPS
100
AcDbLine
 10
-7109.074315307132
 20
4003.738941667172
 30
0.0
 11
-7109.074315307132
 21
4016.778132273182
 31
0.0
  0
LINE
  5
1F79E
330
2
100
AcDbEntity
  8
VLB
100
AcDbLine
 10
-7114.074315307132
 20
4013.533646176895
 30
0.0
 11
-7114.074315307128
 21
4012.533646176897
 31
0.0
  0
LINE
  5
1F79F
330
2
100
AcDbEntity
  8
VLB
100
AcDbLine
 10
-7104.074315307133
 20
4013.533646176895
 30
0.0
 11
-7104.074315307133
 21
4012.533646176897
 31
0.0
  0
ARC
  5
1F7A0
330
2
100
AcDbEntity
  8
VLB
100
AcDbCircle
 10
-7109.074315307132
 20
4001.533646176897
 30
0.0
 40
12.99999999999925
100
AcDbArc
 50
67.3801350519691
 51
112.6198649480308
  0
LINE
  5
1F7A1
330
2
100
AcDbEntity
  8
VLB
100
AcDbLine
 10
-7117.832250088856
 20
2757.533646176898
 30
0.0
 11
-7066.332250088855
 21
2757.533646176898
 31
0.0
  0
LINE
  5
1F7A2
330
2
100
AcDbEntity
  8
SPS
100
AcDbLine
 10
-7077.256509337954
 20
2758.980224401542
 30
0.0
 11
-7077.256509337954
 21
2772.320910546184
 31
0.0
  0
CIRCLE
  5
1F7A3
330
2
100
AcDbEntity
  8
VLB
100
AcDbCircle
 10
-7077.256509337954
 20
2765.291580958617
 30
0.0
 40
5.000000000001818
  0
CIRCLE
  5
1F7A4
330
2
100
AcDbEntity
  8
VLB
100
AcDbCircle
 10
-7077.256509337954
 20
2765.291580958617
 30
0.0
 40
2.550000000006548
  0
CIRCLE
  5
1F7A5
330
2
100
AcDbEntity
  8
VLB
100
AcDbCircle
 10
-7077.256509337954
 20
2802.843090756769
 30
0.0
 40
2.550000000006548
  0
CIRCLE
  5
1F7A6
330
2
100
AcDbEntity
  8
VLB
100
AcDbCircle
 10
-7077.256509337954
 20
2802.843090756769
 30
0.0
 40
5.000000000001818
  0
LINE
  5
1F7A7
330
2
100
AcDbEntity
  8
SPS
100
AcDbLine
 10
-7077.256509337954
 20
2796.531734199694
 30
0.0
 11
-7077.256509337954
 21
2809.872420344336
 31
0.0
  0
LINE
  5
1F7A8
330
2
100
AcDbEntity
  8
VLB
100
AcDbLine
 10
-7066.332250088855
 20
2810.533646176898
 30
0.0
 11
-7066.332250088855
 21
2757.533646176898
 31
0.0
  0
LINE
  5
1F7A9
330
2
100
AcDbEntity
  8
VLB
100
AcDbLine
 10
-7066.332250088855
 20
2810.533646176898
 30
0.0
 11
-7064.832250088851
 21
2810.533646176898
 31
0.0
  0
LINE
  5
1F7AA
330
2
100
AcDbEntity
  8
SPS
100
AcDbLine
 10
-7069.848266483994
 20
2765.291580958617
 30
0.0
 11
-7085.741118561838
 21
2765.291580958617
 31
0.0
  0
LINE
  5
1F7AB
330
2
100
AcDbEntity
  8
SPS
100
AcDbLine
 10
-7069.848266483994
 20
2802.843090756769
 30
0.0
 11
-7085.741118561838
 21
2802.843090756769
 31
0.0
  0
ARC
  5
1F7AC
330
2
100
AcDbEntity
  8
VLB
100
AcDbCircle
 10
-7106.832250088856
 20
2765.291580958617
 30
0.0
 40
12.99999999999925
100
AcDbArc
 50
157.380135051969
 51
202.6198649480308
  0
LINE
  5
1F7AD
330
2
100
AcDbEntity
  8
VLB
100
AcDbLine
 10
-7118.832250088853
 20
2770.291580958617
 30
0.0
 11
-7117.832250088856
 21
2770.291580958617
 31
0.0
  0
LINE
  5
1F7AE
330
2
100
AcDbEntity
  8
VLB
100
AcDbLine
 10
-7118.832250088853
 20
2760.291580958617
 30
0.0
 11
-7117.832250088856
 21
2760.291580958621
 31
0.0
  0
LINE
  5
1F7AF
330
2
100
AcDbEntity
  8
SPS
100
AcDbLine
 10
-7109.037545579129
 20
2765.291580958617
 30
0.0
 11
-7122.07673618514
 21
2765.291580958617
 31
0.0
  0
LINE
  5
1F7B0
330
2
100
AcDbEntity
  8
VLB
100
AcDbLine
 10
-7116.332250088856
 20
2756.533646176898
 30
0.0
 11
-7116.332250088856
 21
2757.533646176898
 31
0.0
  0
LINE
  5
1F7B1
330
2
100
AcDbEntity
  8
VLB
100
AcDbLine
 10
-7101.003436929774
 20
2755.5336461769
 30
0.0
 11
-7101.003436929776
 21
2756.533646176898
 31
0.0
  0
LINE
  5
1F7B2
330
2
100
AcDbEntity
  8
VLB
100
AcDbLine
 10
-7111.003436929774
 20
2755.5336461769
 30
0.0
 11
-7111.003436929772
 21
2756.533646176898
 31
0.0
  0
ARC
  5
1F7B3
330
2
100
AcDbEntity
  8
VLB
100
AcDbCircle
 10
-7106.003436929722
 20
2767.53364617702
 30
0.0
 40
13.00000000013173
100
AcDbArc
 50
247.3801350519214
 51
254.0576313944422
  0
ARC
  5
1F7B4
330
2
100
AcDbEntity
  8
VLB
100
AcDbCircle
 10
-7106.003436929774
 20
2767.533646176898
 30
0.0
 40
12.99999999999925
100
AcDbArc
 50
254.0576313944422
 51
285.9423686055577
  0
LINE
  5
1F7B5
330
2
100
AcDbEntity
  8
SPS
100
AcDbLine
 10
-7106.003436929774
 20
2765.328350686624
 30
0.0
 11
-7106.003436929774
 21
2752.289160080614
 31
0.0
  0
ARC
  5
1F7B6
330
2
100
AcDbEntity
  8
VLB
100
AcDbCircle
 10
-7106.003436929746
 20
2767.533646176782
 30
0.0
 40
12.9999999998802
100
AcDbArc
 50
285.9423686055577
 51
292.6198649481445
  0
LINE
  5
1F7B7
330
2
100
AcDbEntity
  8
VLB
100
AcDbLine
 10
-7111.003436929772
 20
2756.533646176898
 30
0.0
 11
-7101.003436929776
 21
2756.533646176898
 31
0.0
  0
LINE
  5
1F7B8
330
2
100
AcDbEntity
  8
VLB
100
AcDbLine
 10
-5913.332250088852
 20
3959.533646176888
 30
0.0
 11
-6408.332250088854
 21
3959.533646176886
 31
0.0
  0
LINE
  5
1F7B9
330
2
100
AcDbEntity
  8
VLB
100
AcDbLine
 10
-5862.832250088855
 20
2756.533646176896
 30
0.0
 11
-5862.832250088855
 21
2808.033646176896
 31
0.0
  0
LINE
  5
1F7BA
330
2
100
AcDbEntity
  8
SPS
100
AcDbLine
 10
-5864.2788283135
 20
2797.109386927797
 30
0.0
 11
-5877.619514458142
 21
2797.109386927797
 31
0.0
  0
CIRCLE
  5
1F7BB
330
2
100
AcDbEntity
  8
VLB
100
AcDbCircle
 10
-5870.590184870574
 20
2797.109386927796
 30
0.0
 40
5.000000000001818
  0
CIRCLE
  5
1F7BC
330
2
100
AcDbEntity
  8
VLB
100
AcDbCircle
 10
-5870.590184870574
 20
2797.109386927796
 30
0.0
 40
2.550000000006548
  0
CIRCLE
  5
1F7BD
330
2
100
AcDbEntity
  8
VLB
100
AcDbCircle
 10
-5908.141694668726
 20
2797.109386927796
 30
0.0
 40
2.550000000006548
  0
CIRCLE
  5
1F7BE
330
2
100
AcDbEntity
  8
VLB
100
AcDbCircle
 10
-5908.141694668726
 20
2797.109386927796
 30
0.0
 40
5.000000000001818
  0
LINE
  5
1F7BF
330
2
100
AcDbEntity
  8
SPS
100
AcDbLine
 10
-5901.830338111651
 20
2797.109386927797
 30
0.0
 11
-5915.171024256293
 21
2797.109386927797
 31
0.0
  0
LINE
  5
1F7C0
330
2
100
AcDbEntity
  8
VLB
100
AcDbLine
 10
-5915.832250088855
 20
2808.033646176896
 30
0.0
 11
-5862.832250088855
 21
2808.033646176896
 31
0.0
  0
LINE
  5
1F7C1
330
2
100
AcDbEntity
  8
VLB
100
AcDbLine
 10
-5915.832250088855
 20
2808.033646176896
 30
0.0
 11
-5915.832250088855
 21
2809.5336461769
 31
0.0
  0
LINE
  5
1F7C2
330
2
100
AcDbEntity
  8
SPS
100
AcDbLine
 10
-5870.590184870574
 20
2804.517629781758
 30
0.0
 11
-5870.590184870574
 21
2788.624777703915
 31
0.0
  0
LINE
  5
1F7C3
330
2
100
AcDbEntity
  8
SPS
100
AcDbLine
 10
-5908.141694668726
 20
2804.517629781758
 30
0.0
 11
-5908.141694668726
 21
2788.624777703915
 31
0.0
  0
ARC
  5
1F7C4
330
2
100
AcDbEntity
  8
VLB
100
AcDbCircle
 10
-5870.590184870574
 20
2767.533646176895
 30
0.0
 40
12.99999999999925
100
AcDbArc
 50
247.380135051969
 51
292.6198649480308
  0
LINE
  5
1F7C5
330
2
100
AcDbEntity
  8
VLB
100
AcDbLine
 10
-5875.590184870574
 20
2755.533646176898
 30
0.0
 11
-5875.590184870574
 21
2756.533646176896
 31
0.0
  0
LINE
  5
1F7C6
330
2
100
AcDbEntity
  8
VLB
100
AcDbLine
 10
-5865.590184870574
 20
2755.533646176898
 30
0.0
 11
-5865.590184870578
 21
2756.533646176896
 31
0.0
  0
LINE
  5
1F7C7
330
2
100
AcDbEntity
  8
SPS
100
AcDbLine
 10
-5870.590184870574
 20
2765.328350686622
 30
0.0
 11
-5870.590184870574
 21
2752.289160080612
 31
0.0
  0
LINE
  5
1F7C8
330
2
100
AcDbEntity
  8
VLB
100
AcDbLine
 10
-5861.832250088856
 20
2758.033646176896
 30
0.0
 11
-5862.832250088855
 21
2758.033646176896
 31
0.0
  0
LINE
  5
1F7C9
330
2
100
AcDbEntity
  8
VLB
100
AcDbLine
 10
-5860.832250088857
 20
2773.362459335977
 30
0.0
 11
-5861.832250088856
 21
2773.362459335976
 31
0.0
  0
LINE
  5
1F7CA
330
2
100
AcDbEntity
  8
VLB
100
AcDbLine
 10
-5860.832250088857
 20
2763.362459335978
 30
0.0
 11
-5861.832250088856
 21
2763.362459335979
 31
0.0
  0
ARC
  5
1F7CB
330
2
100
AcDbEntity
  8
VLB
100
AcDbCircle
 10
-5872.832250088977
 20
2768.36245933603
 30
0.0
 40
13.00000000013173
100
AcDbArc
 50
337.3801350519214
 51
344.0576313944422
  0
ARC
  5
1F7CC
330
2
100
AcDbEntity
  8
VLB
100
AcDbCircle
 10
-5872.832250088855
 20
2768.362459335977
 30
0.0
 40
12.99999999999925
100
AcDbArc
 50
344.0576313944422
 51
15.94236860555772
  0
LINE
  5
1F7CD
330
2
100
AcDbEntity
  8
SPS
100
AcDbLine
 10
-5870.626954598582
 20
2768.362459335977
 30
0.0
 11
-5857.587763992571
 21
2768.362459335977
 31
0.0
  0
ARC
  5
1F7CE
330
2
100
AcDbEntity
  8
VLB
100
AcDbCircle
 10
-5872.832250088738
 20
2768.362459336004
 30
0.0
 40
12.9999999998802
100
AcDbArc
 50
15.94236860555772
 51
22.61986494814461
  0
LINE
  5
1F7CF
330
2
100
AcDbEntity
  8
VLB
100
AcDbLine
 10
-5861.832250088856
 20
2763.362459335979
 30
0.0
 11
-5861.832250088856
 21
2773.362459335976
 31
0.0
  0
LINE
  5
1F7D0
330
2
100
AcDbEntity
  8
VLB
100
AcDbLine
 10
-7064.832250088847
 20
3961.033646176897
 30
0.0
 11
-7064.83225008884
 21
2810.533646176898
 31
0.0
  0
LINE
  5
1F7D1
330
2
100
AcDbEntity
  8
VLB
100
AcDbLine
 10
-5861.832250088852
 20
4011.533646176894
 30
0.0
 11
-5913.332250088852
 21
4011.533646176894
 31
0.0
  0
LINE
  5
1F7D2
330
2
100
AcDbEntity
  8
SPS
100
AcDbLine
 10
-5902.407990839752
 20
4010.08706795225
 30
0.0
 11
-5902.407990839752
 21
3996.746381807608
 31
0.0
  0
CIRCLE
  5
1F7D3
330
2
100
AcDbEntity
  8
VLB
100
AcDbCircle
 10
-5902.407990839752
 20
4003.775711395175
 30
0.0
 40
5.000000000001818
  0
CIRCLE
  5
1F7D4
330
2
100
AcDbEntity
  8
VLB
100
AcDbCircle
 10
-5902.407990839752
 20
4003.775711395175
 30
0.0
 40
2.550000000006548
  0
CIRCLE
  5
1F7D5
330
2
100
AcDbEntity
  8
VLB
100
AcDbCircle
 10
-5902.407990839752
 20
3966.224201597023
 30
0.0
 40
2.550000000006548
  0
CIRCLE
  5
1F7D6
330
2
100
AcDbEntity
  8
VLB
100
AcDbCircle
 10
-5902.407990839752
 20
3966.224201597023
 30
0.0
 40
5.000000000001818
  0
LINE
  5
1F7D7
330
2
100
AcDbEntity
  8
SPS
100
AcDbLine
 10
-5902.407990839752
 20
3972.535558154099
 30
0.0
 11
-5902.407990839752
 21
3959.194872009456
 31
0.0
  0
LINE
  5
1F7D8
330
2
100
AcDbEntity
  8
VLB
100
AcDbLine
 10
-5913.332250088852
 20
3958.533646176894
 30
0.0
 11
-5913.332250088852
 21
4011.533646176894
 31
0.0
  0
LINE
  5
1F7D9
330
2
100
AcDbEntity
  8
VLB
100
AcDbLine
 10
-5913.332250088852
 20
3958.533646176894
 30
0.0
 11
-5914.832250088855
 21
3958.533646176894
 31
0.0
  0
LINE
  5
1F7DA
330
2
100
AcDbEntity
  8
SPS
100
AcDbLine
 10
-5909.816233693713
 20
4003.775711395175
 30
0.0
 11
-5893.92338161587
 21
4003.775711395174
 31
0.0
  0
LINE
  5
1F7DB
330
2
100
AcDbEntity
  8
SPS
100
AcDbLine
 10
-5909.816233693713
 20
3966.224201597023
 30
0.0
 11
-5893.92338161587
 21
3966.224201597023
 31
0.0
  0
ARC
  5
1F7DC
330
2
100
AcDbEntity
  8
VLB
100
AcDbCircle
 10
-5872.832250088851
 20
4003.775711395175
 30
0.0
 40
12.99999999999925
100
AcDbArc
 50
337.380135051969
 51
22.61986494803084
  0
LINE
  5
1F7DD
330
2
100
AcDbEntity
  8
VLB
100
AcDbLine
 10
-5860.832250088853
 20
3998.775711395175
 30
0.0
 11
-5861.832250088852
 21
3998.775711395175
 31
0.0
  0
LINE
  5
1F7DE
330
2
100
AcDbEntity
  8
VLB
100
AcDbLine
 10
-5860.832250088853
 20
4008.775711395174
 30
0.0
 11
-5861.832250088852
 21
4008.775711395171
 31
0.0
  0
LINE
  5
1F7DF
330
2
100
AcDbEntity
  8
SPS
100
AcDbLine
 10
-5870.626954598577
 20
4003.775711395174
 30
0.0
 11
-5857.587763992568
 21
4003.775711395174
 31
0.0
  0
LINE
  5
1F7E0
330
2
100
AcDbEntity
  8
VLB
100
AcDbLine
 10
-5863.332250088852
 20
4012.533646176893
 30
0.0
 11
-5863.332250088852
 21
4011.533646176894
 31
0.0
  0
LINE
  5
1F7E1
330
2
100
AcDbEntity
  8
VLB
100
AcDbLine
 10
-5878.661063247933
 20
4013.533646176892
 30
0.0
 11
-5878.661063247932
 21
4012.533646176893
 31
0.0
  0
LINE
  5
1F7E2
330
2
100
AcDbEntity
  8
VLB
100
AcDbLine
 10
-5868.661063247934
 20
4013.533646176892
 30
0.0
 11
-5868.661063247935
 21
4012.533646176893
 31
0.0
  0
ARC
  5
1F7E3
330
2
100
AcDbEntity
  8
VLB
100
AcDbCircle
 10
-5873.661063247986
 20
4001.533646176772
 30
0.0
 40
13.00000000013173
100
AcDbArc
 50
67.38013505192142
 51
74.05763139444217
  0
ARC
  5
1F7E4
330
2
100
AcDbEntity
  8
VLB
100
AcDbCircle
 10
-5873.661063247933
 20
4001.533646176894
 30
0.0
 40
12.99999999999925
100
AcDbArc
 50
74.05763139444217
 51
105.9423686055577
  0
LINE
  5
1F7E5
330
2
100
AcDbEntity
  8
SPS
100
AcDbLine
 10
-5873.661063247933
 20
4003.738941667168
 30
0.0
 11
-5873.661063247933
 21
4016.778132273178
 31
0.0
  0
ARC
  5
1F7E6
330
2
100
AcDbEntity
  8
VLB
100
AcDbCircle
 10
-5873.66106324796
 20
4001.533646177011
 30
0.0
 40
12.9999999998802
100
AcDbArc
 50
105.9423686055577
 51
112.6198649481445
  0
LINE
  5
1F7E7
330
2
100
AcDbEntity
  8
VLB
100
AcDbLine
 10
-5868.661063247935
 20
4012.533646176893
 30
0.0
 11
-5878.661063247932
 21
4012.533646176893
 31
0.0
  0
LINE
  5
1F7E8
330
2
100
AcDbEntity
  8
VLB
100
AcDbLine
 10
-7066.332250088854
 20
2809.533646176904
 30
0.0
 11
-6571.332250088854
 21
2809.533646176907
 31
0.0
  0
LINE
  5
1F7EE
330
2
100
AcDbEntity
  8
VLB
100
AcDbLine
 10
-6571.332250088854
 20
3959.533646176885
 30
0.0
 11
-7063.832250088852
 21
3959.533646176882
 31
0.0
  0
LINE
  5
1F7EF
330
2
100
AcDbEntity
  8
VLB
100
AcDbLine
 10
-6408.332250088854
 20
2809.533646176907
 30
0.0
 11
-5915.832250088855
 21
2809.53364617691
 31
0.0
  0
LINE
  5
1F954
330
2
100
AcDbEntity
  8
VLB
100
AcDbLine
 10
-5862.832250088853
 20
4422.712106273567
 30
0.0
 11
-5862.832250088853
 21
5472.712106273568
 31
0.0
  0
LINE
  5
1F955
330
2
100
AcDbEntity
  8
VLB
100
AcDbLine
 10
-3561.533465805747
 20
4422.712106273567
 30
0.0
 11
-3561.533465805747
 21
5472.712106273568
 31
0.0
  0
LINE
  5
1F958
330
2
100
AcDbEntity
  8
VLB
100
AcDbLine
 10
-7115.832250088853
 20
5472.712106273568
 30
0.0
 11
-7115.832250088853
 21
4422.712106273567
 31
0.0
  0
LINE
  5
1F959
330
2
100
AcDbEntity
  8
VLB
100
AcDbLine
 10
-4814.533465805747
 20
5472.712106273568
 30
0.0
 11
-4814.533465805747
 21
4422.712106273567
 31
0.0
  0
LINE
  5
1FB98
330
2
100
AcDbEntity
  8
VLB
100
AcDbLine
 10
-6983.832250088855
 20
5494.712106273556
 30
0.0
 11
-6983.832250088855
 21
5509.712106273556
 31
0.0
  0
LINE
  5
1FB99
330
2
100
AcDbEntity
  8
VLB
100
AcDbLine
 10
-5995.832250088856
 20
5509.712106273557
 30
0.0
 11
-5995.832250088856
 21
5494.712106273556
 31
0.0
  0
LINE
  5
1FB9A
330
2
100
AcDbEntity
  8
VLB
100
AcDbLine
 10
-5995.832250088853
 20
5472.712106273568
 30
0.0
 11
-5995.832250088853
 21
5494.712106273559
 31
0.0
  0
LINE
  5
1FB9B
330
2
100
AcDbEntity
  8
VLB
100
AcDbLine
 10
-6982.832250088853
 20
5472.712106273568
 30
0.0
 11
-6982.832250088853
 21
5494.712106273556
 31
0.0
  0
LINE
  5
1FB9C
330
2
100
AcDbEntity
  8
VLB
100
AcDbLine
 10
-4681.533465805747
 20
5472.712106273568
 30
0.0
 11
-4681.533465805747
 21
5494.712106273556
 31
0.0
  0
LINE
  5
1FBB3
330
2
100
AcDbEntity
  8
VLB
100
AcDbLine
 10
-3694.533465805745
 20
5509.712106273557
 30
0.0
 11
-3694.533465805745
 21
5494.712106273556
 31
0.0
  0
LINE
  5
1FBB4
330
2
100
AcDbEntity
  8
VLB
100
AcDbLine
 10
-3694.533465805747
 20
5472.712106273568
 30
0.0
 11
-3694.533465805747
 21
5494.712106273556
 31
0.0
  0
LINE
  5
1FBB5
330
2
100
AcDbEntity
  8
VLB
100
AcDbLine
 10
-4682.533465805749
 20
5509.712106273556
 30
0.0
 11
-4682.533465805749
 21
5494.712106273556
 31
0.0
  0
VIEWPORT
  5
51E
330
7
100
AcDbEntity
 67
     1
  8
0
100
AcDbViewport
 10
222.9989965408922
 20
359.8485954918802
 30
0.0
 40
1687.01080625753
 41
963.3348615119601
 68
     1
 69
     1
1001
ACAD
1000
MVIEW
1002
{
1070
    16
1010
0.0
1020
0.0
1030
0.0
1010
0.0
1020
0.0
1030
1.0
1040
0.0
1040
963.3348615119601
1040
222.9989965408922
1040
359.8485954918802
1040
50.0
1040
0.0
1040
0.0
1070
     0
1070
   100
1070
     1
1070
     1
1070
     0
1070
     0
1070
     0
1070
     0
1040
0.0
1040
0.0
1040
0.0
1040
1.0
1040
1.0
1040
10.0
1040
10.0
1070
     0
1002
{
1002
}
1002
}
  0
ENDSEC
  0
SECTION
  2
OBJECTS
  0
DICTIONARY
  5
1A
330
0
100
AcDbDictionary
  3
ACAD_GROUP
350
18
  3
ACAD_LAYOUT
350
EDC7
  3
ACAD_MLINESTYLE
350
19
  3
ACAD_PLOTSETTINGS
350
EDC8
  3
ACAD_PLOTSTYLENAME
350
EDC5
  3
ACDBHEADERROUNDTRIPXREC
350
1FE46
  3
ACDBVARIABLEDICTIONARY
350
EDE7
  3
CONTENTDICTIONARY
350
81A
  0
DICTIONARY
  5
1FE67
330
2
100
AcDbDictionary
280
     1
  3
ACAD_LAYOUTSELFREF
360
1FE68
  0
DICTIONARY
  5
1FE69
330
7
100
AcDbDictionary
280
     1
  3
ACAD_LAYOUTSELFREF
360
1FE6A
  0
DICTIONARY
  5
18
102
{ACAD_REACTORS
330
1A
102
}
330
1A
100
AcDbDictionary
  3
*A1
350
63B1
  3
*A10
350
1C0C
  3
*A100
350
6291
  3
*A1000
350
4833
  3
*A1001
350
4975
  3
*A1002
350
6313
  3
*A1003
350
6382
  3
*A1004
350
637D
  3
*A1005
350
4978
  3
*A1006
350
62D4
  3
*A1007
350
63B5
  3
*A1008
350
49D4
  3
*A1009
350
495D
  3
*A101
350
1BA2
  3
*A1010
350
63E6
  3
*A1011
350
625C
  3
*A1012
350
1C61
  3
*A1013
350
4858
  3
*A1014
350
63B3
  3
*A1015
350
1BE4
  3
*A1016
350
49BE
  3
*A1017
350
493F
  3
*A1018
350
4913
  3
*A1019
350
6245
  3
*A102
350
1B3B
  3
*A1020
350
48C6
  3
*A1021
350
62D8
  3
*A1022
350
37C1
  3
*A1023
350
1BEF
  3
*A1024
350
49F1
  3
*A1025
350
37BC
  3
*A1026
350
489D
  3
*A1027
350
630A
  3
*A1028
350
1B7B
  3
*A1029
350
1457
  3
*A103
350
1B7E
  3
*A1030
350
1B19
  3
*A1031
350
6282
  3
*A1032
350
4898
  3
*A1033
350
6333
  3
*A1034
350
1C28
  3
*A1035
350
63BA
  3
*A1036
350
6398
  3
*A104
350
49AD
  3
*A105
350
48A5
  3
*A106
350
62C1
  3
*A107
350
6292
  3
*A108
350
492A
  3
*A109
350
1B60
  3
*A11
350
1AEF
  3
*A110
350
489B
  3
*A111
350
63FF
  3
*A112
350
4817
  3
*A113
350
4871
  3
*A114
350
49E2
  3
*A115
350
1465
  3
*A116
350
629F
  3
*A117
350
1BEE
  3
*A118
350
63EC
  3
*A119
350
1BEB
  3
*A12
350
4815
  3
*A120
350
4998
  3
*A121
350
480B
  3
*A122
350
625A
  3
*A123
350
493A
  3
*A124
350
1B42
  3
*A125
350
63B0
  3
*A126
350
48AF
  3
*A127
350
49D6
  3
*A128
350
62A3
  3
*A129
350
634B
  3
*A13
350
62A8
  3
*A130
350
490A
  3
*A131
350
4943
  3
*A132
350
6281
  3
*A133
350
62DC
  3
*A134
350
48B0
  3
*A135
350
379D
  3
*A136
350
6385
  3
*A137
350
1AFC
  3
*A138
350
6271
  3
*A139
350
4959
  3
*A14
350
6239
  3
*A140
350
49D9
  3
*A141
350
1C32
  3
*A142
350
491E
  3
*A143
350
1AE9
  3
*A144
350
1B2C
  3
*A145
350
1C36
  3
*A146
350
49C2
  3
*A147
350
6396
  3
*A148
350
6425
  3
*A149
350
49ED
  3
*A15
350
626D
  3
*A150
350
4843
  3
*A151
350
4A11
  3
*A152
350
494A
  3
*A153
350
62FF
  3
*A154
350
6352
  3
*A155
350
1BAE
  3
*A156
350
1AEB
  3
*A157
350
63CF
  3
*A158
350
622C
  3
*A159
350
1C1A
  3
*A16
350
63DE
  3
*A160
350
1B6C
  3
*A161
350
1469
  3
*A162
350
1B6F
  3
*A163
350
1BB5
  3
*A164
350
62DF
  3
*A165
350
6294
  3
*A166
350
62CD
  3
*A167
350
4A15
  3
*A168
350
628C
  3
*A169
350
49B3
  3
*A17
350
62AC
  3
*A170
350
1AFA
  3
*A171
350
48A9
  3
*A172
350
496A
  3
*A173
350
4891
  3
*A174
350
4A06
  3
*A175
350
37B3
  3
*A176
350
483D
  3
*A177
350
37B2
  3
*A178
350
1AD8
  3
*A179
350
37AB
  3
*A18
350
63E2
  3
*A180
350
495C
  3
*A181
350
62C4
  3
*A182
350
4834
  3
*A183
350
6365
  3
*A184
350
488D
  3
*A185
350
635F
  3
*A186
350
48B1
  3
*A187
350
1B1D
  3
*A188
350
1C5A
  3
*A189
350
63B2
  3
*A19
350
496B
  3
*A190
350
1B82
  3
*A191
350
48A2
  3
*A192
350
1B0A
  3
*A193
350
6229
  3
*A194
350
1C59
  3
*A195
350
1B88
  3
*A196
350
625B
  3
*A197
350
1B04
  3
*A198
350
487A
  3
*A199
350
1B2B
  3
*A2
350
6232
  3
*A20
350
487E
  3
*A200
350
63A2
  3
*A201
350
4844
  3
*A202
350
1B35
  3
*A203
350
6402
  3
*A204
350
63D6
  3
*A205
350
62A2
  3
*A206
350
6350
  3
*A207
350
6400
  3
*A208
350
6399
  3
*A209
350
1ACE
  3
*A21
350
1BA6
  3
*A210
350
1BB4
  3
*A211
350
1C03
  3
*A212
350
4995
  3
*A213
350
1C45
  3
*A214
350
49FC
  3
*A215
350
6283
  3
*A216
350
6284
  3
*A217
350
6341
  3
*A218
350
1BA8
  3
*A219
350
63F0
  3
*A22
350
482D
  3
*A220
350
49D8
  3
*A221
350
4990
  3
*A222
350
629B
  3
*A223
350
1C0E
  3
*A224
350
1460
  3
*A225
350
6381
  3
*A226
350
37B9
  3
*A227
350
1C51
  3
*A228
350
1AD1
  3
*A229
350
1AF3
  3
*A23
350
4886
  3
*A230
350
635B
  3
*A231
350
1BBD
  3
*A232
350
1B16
  3
*A233
350
1B62
  3
*A234
350
494D
  3
*A235
350
1AFD
  3
*A236
350
37C2
  3
*A237
350
49D5
  3
*A238
350
6298
  3
*A239
350
4A0F
  3
*A24
350
1BC2
  3
*A240
350
6392
  3
*A241
350
1BED
  3
*A242
350
1BF5
  3
*A243
350
62E9
  3
*A244
350
48B3
  3
*A245
350
62C8
  3
*A246
350
638B
  3
*A247
350
48E3
  3
*A248
350
4929
  3
*A249
350
4909
  3
*A25
350
1BFC
  3
*A250
350
6316
  3
*A251
350
37BF
  3
*A252
350
1BBB
  3
*A253
350
6304
  3
*A254
350
1BE1
  3
*A255
350
49F0
  3
*A256
350
1AEC
  3
*A257
350
498C
  3
*A258
350
1B0C
  3
*A259
350
1BB6
  3
*A26
350
487F
  3
*A260
350
48CC
  3
*A261
350
1B2F
  3
*A262
350
488F
  3
*A263
350
625E
  3
*A264
350
4989
  3
*A265
350
4899
  3
*A266
350
1BBF
  3
*A267
350
63C9
  3
*A268
350
6375
  3
*A269
350
4911
  3
*A27
350
4968
  3
*A270
350
635C
  3
*A271
350
487D
  3
*A272
350
493C
  3
*A273
350
1B5D
  3
*A274
350
63BB
  3
*A275
350
637A
  3
*A276
350
6261
  3
*A277
350
49CF
  3
*A278
350
6262
  3
*A279
350
1C02
  3
*A28
350
49C3
  3
*A280
350
6394
  3
*A281
350
1BB1
  3
*A282
350
48E8
  3
*A283
350
62A6
  3
*A284
350
37A3
  3
*A285
350
49AA
  3
*A286
350
63BC
  3
*A287
350
62AF
  3
*A288
350
48E1
  3
*A289
350
6311
  3
*A29
350
49EF
  3
*A290
350
6369
  3
*A291
350
1C53
  3
*A292
350
499A
  3
*A293
350
4874
  3
*A294
350
1C39
  3
*A295
350
4896
  3
*A296
350
481F
  3
*A297
350
1459
  3
*A298
350
49F8
  3
*A299
350
4974
  3
*A3
350
4895
  3
*A30
350
6322
  3
*A300
350
497E
  3
*A301
350
1AD0
  3
*A302
350
639E
  3
*A303
350
6220
  3
*A304
350
63E1
  3
*A305
350
6300
  3
*A306
350
48B4
  3
*A307
350
4A17
  3
*A308
350
1B92
  3
*A309
350
1B2A
  3
*A31
350
4991
  3
*A310
350
48D2
  3
*A311
350
1C15
  3
*A312
350
1C58
  3
*A313
350
49BD
  3
*A314
350
1B8B
  3
*A315
350
1C1B
  3
*A316
350
634C
  3
*A317
350
495E
  3
*A318
350
1C20
  3
*A319
350
1C3A
  3
*A32
350
48C8
  3
*A320
350
49E8
  3
*A321
350
37A6
  3
*A322
350
635A
  3
*A323
350
1BD4
  3
*A324
350
62A0
  3
*A325
350
4997
  3
*A326
350
6317
  3
*A327
350
1C47
  3
*A328
350
1C21
  3
*A329
350
1AEE
  3
*A33
350
62B2
  3
*A330
350
6248
  3
*A331
350
1AED
  3
*A332
350
497F
  3
*A333
350
1C48
  3
*A334
350
1BD3
  3
*A335
350
48BB
  3
*A336
350
1C37
  3
*A337
350
1C44
  3
*A338
350
633C
  3
*A339
350
49F6
  3
*A34
350
62CA
  3
*A340
350
496F
  3
*A341
350
62AA
  3
*A342
350
49D3
  3
*A343
350
4955
  3
*A344
350
1BE9
  3
*A345
350
49C7
  3
*A346
350
48AC
  3
*A347
350
6327
  3
*A348
350
4973
  3
*A349
350
1B4A
  3
*A35
350
1B3E
  3
*A350
350
1C08
  3
*A351
350
62F1
  3
*A352
350
1BBA
  3
*A353
350
484C
  3
*A354
350
1462
  3
*A355
350
1B13
  3
*A356
350
62C2
  3
*A357
350
1C46
  3
*A358
350
63AC
  3
*A359
350
62F5
  3
*A36
350
633A
  3
*A360
350
628F
  3
*A361
350
1BF9
  3
*A362
350
1466
  3
*A363
350
1B69
  3
*A364
350
48F2
  3
*A365
350
49DD
  3
*A366
350
4894
  3
*A367
350
1B75
  3
*A368
350
48E6
  3
*A369
350
1C2B
  3
*A37
350
1C27
  3
*A370
350
629C
  3
*A371
350
4937
  3
*A372
350
1458
  3
*A373
350
1BC4
  3
*A374
350
63D2
  3
*A375
350
1C4D
  3
*A376
350
48F5
  3
*A377
350
4813
  3
*A378
350
63B6
  3
*A379
350
49EB
  3
*A38
350
486C
  3
*A380
350
37C0
  3
*A381
350
1BCC
  3
*A382
350
4A03
  3
*A383
350
6242
  3
*A384
350
48B7
  3
*A385
350
497D
  3
*A386
350
4912
  3
*A387
350
48FF
  3
*A388
350
630E
  3
*A389
350
6370
  3
*A39
350
1C56
  3
*A390
350
622D
  3
*A391
350
4988
  3
*A392
350
62BE
  3
*A393
350
6241
  3
*A394
350
48FC
  3
*A395
350
4958
  3
*A396
350
63EA
  3
*A397
350
1BDF
  3
*A398
350
6307
  3
*A399
350
4824
  3
*A4
350
63DD
  3
*A40
350
489E
  3
*A400
350
49C9
  3
*A401
350
499B
  3
*A402
350
37A5
  3
*A403
350
6236
  3
*A404
350
6264
  3
*A405
350
1B70
  3
*A406
350
37B5
  3
*A407
350
63C2
  3
*A408
350
4952
  3
*A409
350
49B1
  3
*A41
350
48BD
  3
*A410
350
49A5
  3
*A411
350
1BD1
  3
*A412
350
1B99
  3
*A413
350
4993
  3
*A414
350
4948
  3
*A415
350
63FC
  3
*A416
350
62F9
  3
*A417
350
4981
  3
*A418
350
4962
  3
*A419
350
4931
  3
*A42
350
1B22
  3
*A420
350
4932
  3
*A421
350
1C23
  3
*A422
350
1BF6
  3
*A423
350
63A8
  3
*A424
350
63A5
  3
*A425
350
379B
  3
*A426
350
62A5
  3
*A427
350
6227
  3
*A428
350
1B79
  3
*A429
350
4880
  3
*A43
350
1AE0
  3
*A430
350
1B8C
  3
*A431
350
49AB
  3
*A432
350
1B72
  3
*A433
350
621A
  3
*A434
350
1BDE
  3
*A435
350
48EC
  3
*A436
350
638A
  3
*A437
350
4890
  3
*A438
350
6309
  3
*A439
350
1BFB
  3
*A44
350
4864
  3
*A440
350
497B
  3
*A441
350
62D3
  3
*A442
350
6233
  3
*A443
350
1BB7
  3
*A444
350
1C01
  3
*A445
350
62AE
  3
*A446
350
48E0
  3
*A447
350
633E
  3
*A448
350
63D9
  3
*A449
350
6424
  3
*A45
350
492D
  3
*A450
350
48B5
  3
*A451
350
4964
  3
*A452
350
4884
  3
*A453
350
1B41
  3
*A454
350
1BB2
  3
*A455
350
49CB
  3
*A456
350
145B
  3
*A457
350
1AE5
  3
*A458
350
4950
  3
*A459
350
1B5F
  3
*A46
350
6308
  3
*A460
350
4845
  3
*A461
350
1C05
  3
*A462
350
1C4E
  3
*A463
350
49B9
  3
*A464
350
63E3
  3
*A465
350
1BF3
  3
*A466
350
1C35
  3
*A467
350
4946
  3
*A468
350
62C3
  3
*A469
350
6219
  3
*A47
350
63F7
  3
*A470
350
631E
  3
*A471
350
49AE
  3
*A472
350
4A01
  3
*A473
350
4847
  3
*A474
350
37A9
  3
*A475
350
6395
  3
*A476
350
1B24
  3
*A477
350
49EA
  3
*A478
350
497C
  3
*A479
350
63B7
  3
*A48
350
63CA
  3
*A480
350
1B12
  3
*A481
350
37B7
  3
*A482
350
63D1
  3
*A483
350
1C22
  3
*A484
350
638C
  3
*A485
350
6362
  3
*A486
350
62C0
  3
*A487
350
1C3F
  3
*A488
350
1B07
  3
*A489
350
636B
  3
*A49
350
1BD5
  3
*A490
350
1B51
  3
*A491
350
4967
  3
*A492
350
482C
  3
*A493
350
634D
  3
*A494
350
49E4
  3
*A495
350
49BC
  3
*A496
350
49A9
  3
*A497
350
6359
  3
*A498
350
4926
  3
*A499
350
1ACF
  3
*A5
350
1B7F
  3
*A50
350
4A18
  3
*A500
350
1B09
  3
*A501
350
634E
  3
*A502
350
4872
  3
*A503
350
6404
  3
*A504
350
1B6A
  3
*A505
350
63D4
  3
*A506
350
63FA
  3
*A507
350
63F8
  3
*A508
350
1B8D
  3
*A509
350
6357
  3
*A51
350
49B2
  3
*A510
350
1B03
  3
*A511
350
6224
  3
*A512
350
1C24
  3
*A513
350
1C07
  3
*A514
350
6417
  3
*A515
350
1B53
  3
*A516
350
63FE
  3
*A517
350
486F
  3
*A518
350
1BBE
  3
*A519
350
62ED
  3
*A52
350
1BC0
  3
*A520
350
62B9
  3
*A521
350
49E6
  3
*A522
350
632B
  3
*A523
350
6406
  3
*A524
350
6240
  3
*A525
350
482E
  3
*A526
350
48E4
  3
*A527
350
1B98
  3
*A528
350
4811
  3
*A529
350
1C18
  3
*A53
350
37AD
  3
*A530
350
623F
  3
*A531
350
49D2
  3
*A532
350
4903
  3
*A533
350
63CB
  3
*A534
350
1BD8
  3
*A535
350
6393
  3
*A536
350
6383
  3
*A537
350
63E5
  3
*A538
350
639D
  3
*A539
350
6277
  3
*A54
350
1BD6
  3
*A540
350
1BB8
  3
*A541
350
489F
  3
*A542
350
49CA
  3
*A543
350
1B58
  3
*A544
350
62EE
  3
*A545
350
63E7
  3
*A546
350
48D3
  3
*A547
350
4905
  3
*A548
350
6415
  3
*A549
350
49CE
  3
*A55
350
1C1C
  3
*A550
350
48DC
  3
*A551
350
379A
  3
*A552
350
49FA
  3
*A553
350
37AC
  3
*A554
350
49A6
  3
*A555
350
636F
  3
*A556
350
1B7D
  3
*A557
350
4882
  3
*A558
350
637C
  3
*A559
350
4957
  3
*A56
350
1B52
  3
*A560
350
484D
  3
*A561
350
49B7
  3
*A562
350
49BA
  3
*A563
350
1BCD
  3
*A564
350
6223
  3
*A565
350
4A08
  3
*A566
350
1BEC
  3
*A567
350
488B
  3
*A568
350
1ACD
  3
*A569
350
4999
  3
*A57
350
48DA
  3
*A570
350
629A
  3
*A571
350
1B45
  3
*A572
350
6222
  3
*A573
350
6218
  3
*A574
350
4915
  3
*A575
350
491A
  3
*A576
350
48FE
  3
*A577
350
1C29
  3
*A578
350
1BF8
  3
*A579
350
624F
  3
*A58
350
1B1A
  3
*A580
350
1AF2
  3
*A581
350
48B2
  3
*A582
350
37AE
  3
*A583
350
63D7
  3
*A584
350
6216
  3
*A585
350
1B37
  3
*A586
350
4986
  3
*A587
350
1B54
  3
*A588
350
4821
  3
*A589
350
37A1
  3
*A59
350
1B80
  3
*A590
350
6378
  3
*A591
350
1B34
  3
*A592
350
1B8E
  3
*A593
350
1B9F
  3
*A594
350
63D3
  3
*A595
350
1B49
  3
*A596
350
1B9D
  3
*A597
350
4893
  3
*A598
350
63BF
  3
*A599
350
6364
  3
*A6
350
62E0
  3
*A60
350
6348
  3
*A600
350
623D
  3
*A601
350
627C
  3
*A602
350
4839
  3
*A603
350
1B36
  3
*A604
350
62A9
  3
*A605
350
494C
  3
*A606
350
1454
  3
*A607
350
62BF
  3
*A608
350
4830
  3
*A609
350
63C7
  3
*A61
350
1B28
  3
*A610
350
4944
  3
*A611
350
6263
  3
*A612
350
1B65
  3
*A613
350
1BD7
  3
*A614
350
49FF
  3
*A615
350
49F3
  3
*A616
350
62F3
  3
*A617
350
1AF6
  3
*A618
350
1C0D
  3
*A619
350
480C
  3
*A62
350
484E
  3
*A620
350
49E5
  3
*A621
350
4825
  3
*A622
350
1C10
  3
*A623
350
1BDC
  3
*A624
350
37B4
  3
*A625
350
1B57
  3
*A626
350
4A09
  3
*A627
350
4970
  3
*A628
350
1C3E
  3
*A629
350
1C4F
  3
*A63
350
1B87
  3
*A630
350
62FB
  3
*A631
350
627E
  3
*A632
350
6237
  3
*A633
350
1C1F
  3
*A634
350
6320
  3
*A635
350
631F
  3
*A636
350
379C
  3
*A637
350
1B46
  3
*A638
350
37A0
  3
*A639
350
1C04
  3
*A64
350
1BE5
  3
*A640
350
63AB
  3
*A641
350
49C5
  3
*A642
350
1B6B
  3
*A643
350
495F
  3
*A644
350
1AFB
  3
*A645
350
1ADC
  3
*A646
350
1B97
  3
*A647
350
624B
  3
*A648
350
4A19
  3
*A649
350
1B85
  3
*A65
350
1ADE
  3
*A650
350
4818
  3
*A651
350
63A6
  3
*A652
350
4910
  3
*A653
350
6389
  3
*A654
350
145C
  3
*A655
350
1B44
  3
*A656
350
490E
  3
*A657
350
1C40
  3
*A658
350
1C33
  3
*A659
350
1C0F
  3
*A66
350
1B23
  3
*A660
350
635D
  3
*A661
350
48CD
  3
*A662
350
6358
  3
*A663
350
1C2C
  3
*A664
350
49BF
  3
*A665
350
1BC3
  3
*A666
350
4838
  3
*A667
350
1B17
  3
*A668
350
1B71
  3
*A669
350
145D
  3
*A67
350
62E7
  3
*A670
350
4820
  3
*A671
350
638E
  3
*A672
350
1C31
  3
*A673
350
6416
  3
*A674
350
62D6
  3
*A675
350
640E
  3
*A676
350
1B5A
  3
*A677
350
631B
  3
*A678
350
48F7
  3
*A679
350
1B40
  3
*A68
350
1B66
  3
*A680
350
1C2E
  3
*A681
350
4885
  3
*A682
350
1B1C
  3
*A683
350
62D5
  3
*A684
350
6344
  3
*A685
350
486A
  3
*A686
350
1B3F
  3
*A687
350
628B
  3
*A688
350
494E
  3
*A689
350
6312
  3
*A69
350
49A8
  3
*A690
350
48C7
  3
*A691
350
1BAC
  3
*A692
350
493B
  3
*A693
350
4A13
  3
*A694
350
62A1
  3
*A695
350
1B11
  3
*A696
350
633F
  3
*A697
350
1464
  3
*A698
350
48EE
  3
*A699
350
4877
  3
*A7
350
6407
  3
*A70
350
1BD2
  3
*A700
350
49D0
  3
*A701
350
1B61
  3
*A702
350
63B8
  3
*A703
350
48DE
  3
*A704
350
62D9
  3
*A705
350
6310
  3
*A706
350
492F
  3
*A707
350
145F
  3
*A708
350
63AA
  3
*A709
350
48E2
  3
*A71
350
48CA
  3
*A710
350
48A1
  3
*A711
350
499F
  3
*A712
350
6388
  3
*A713
350
4860
  3
*A714
350
1BF1
  3
*A715
350
1468
  3
*A716
350
62B6
  3
*A717
350
4828
  3
*A718
350
4938
  3
*A719
350
4940
  3
*A72
350
1BFD
  3
*A720
350
48D8
  3
*A721
350
63F1
  3
*A722
350
48ED
  3
*A723
350
1B15
  3
*A724
350
62BD
  3
*A725
350
1C2F
  3
*A726
350
1B7C
  3
*A727
350
3798
  3
*A728
350
1AE3
  3
*A729
350
636C
  3
*A73
350
37B1
  3
*A730
350
4889
  3
*A731
350
63C4
  3
*A732
350
1B33
  3
*A733
350
629E
  3
*A734
350
623C
  3
*A735
350
484B
  3
*A736
350
1B76
  3
*A737
350
1BA1
  3
*A738
350
1B63
  3
*A739
350
63DB
  3
*A74
350
4816
  3
*A740
350
4851
  3
*A741
350
62E2
  3
*A742
350
1AE4
  3
*A743
350
628D
  3
*A744
350
641E
  3
*A745
350
639B
  3
*A746
350
6259
  3
*A747
350
62BC
  3
*A748
350
4985
  3
*A749
350
481C
  3
*A75
350
63B4
  3
*A750
350
495A
  3
*A751
350
48F3
  3
*A752
350
622E
  3
*A753
350
1B90
  3
*A754
350
4A0A
  3
*A755
350
632A
  3
*A756
350
1C06
  3
*A757
350
62EB
  3
*A758
350
1B21
  3
*A759
350
1BA4
  3
*A76
350
640F
  3
*A760
350
62FA
  3
*A761
350
6366
  3
*A762
350
1C0B
  3
*A763
350
49A3
  3
*A764
350
1B0F
  3
*A765
350
1ADB
  3
*A766
350
494F
  3
*A767
350
6235
  3
*A768
350
48FD
  3
*A769
350
1B9B
  3
*A77
350
4906
  3
*A770
350
6380
  3
*A771
350
49A4
  3
*A772
350
486D
  3
*A773
350
482A
  3
*A774
350
4835
  3
*A775
350
1C11
  3
*A776
350
483B
  3
*A777
350
4965
  3
*A778
350
4904
  3
*A779
350
1AEA
  3
*A78
350
1C0A
  3
*A780
350
1AD3
  3
*A781
350
6296
  3
*A782
350
48CF
  3
*A783
350
6257
  3
*A784
350
1ACB
  3
*A785
350
1B05
  3
*A786
350
48B6
  3
*A787
350
498E
  3
*A788
350
4876
  3
*A789
350
62FC
  3
*A79
350
48C0
  3
*A790
350
484F
  3
*A791
350
4976
  3
*A792
350
1BA0
  3
*A793
350
63A0
  3
*A794
350
1BA9
  3
*A795
350
48A6
  3
*A796
350
6411
  3
*A797
350
6374
  3
*A798
350
1C55
  3
*A799
350
1B81
  3
*A8
350
498B
  3
*A80
350
627A
  3
*A800
350
1B29
  3
*A801
350
48FB
  3
*A802
350
63A7
  3
*A803
350
4854
  3
*A804
350
1AFE
  3
*A805
350
6265
  3
*A806
350
37C3
  3
*A807
350
480D
  3
*A808
350
49C6
  3
*A809
350
6254
  3
*A81
350
1C5F
  3
*A810
350
1BC5
  3
*A811
350
1455
  3
*A812
350
48CE
  3
*A813
350
6345
  3
*A814
350
6287
  3
*A815
350
63F3
  3
*A816
350
63E0
  3
*A817
350
37A2
  3
*A818
350
1B32
  3
*A819
350
6367
  3
*A82
350
62E4
  3
*A820
350
494B
  3
*A821
350
1C49
  3
*A822
350
1B30
  3
*A823
350
49DF
  3
*A824
350
629D
  3
*A825
350
6419
  3
*A826
350
49F7
  3
*A827
350
641C
  3
*A828
350
6355
  3
*A829
350
63C0
  3
*A83
350
63CC
  3
*A830
350
62DB
  3
*A831
350
4826
  3
*A832
350
6305
  3
*A833
350
6293
  3
*A834
350
1AE7
  3
*A835
350
6426
  3
*A836
350
6410
  3
*A837
350
1B4E
  3
*A838
350
1C16
  3
*A839
350
48D7
  3
*A84
350
1C26
  3
*A840
350
1BE7
  3
*A841
350
6376
  3
*A842
350
49F9
  3
*A843
350
37B8
  3
*A844
350
1AF9
  3
*A845
350
4994
  3
*A846
350
1BA7
  3
*A847
350
1B67
  3
*A848
350
37AF
  3
*A849
350
4941
  3
*A85
350
624A
  3
*A850
350
1B31
  3
*A851
350
6336
  3
*A852
350
1B4D
  3
*A853
350
1AF8
  3
*A854
350
63DF
  3
*A855
350
63D8
  3
*A856
350
6251
  3
*A857
350
482F
  3
*A858
350
488E
  3
*A859
350
1BC6
  3
*A86
350
1C2A
  3
*A860
350
1B96
  3
*A861
350
49A7
  3
*A862
350
489A
  3
*A863
350
6246
  3
*A864
350
496D
  3
*A865
350
62DA
  3
*A866
350
499E
  3
*A867
350
640D
  3
*A868
350
1BAF
  3
*A869
350
6349
  3
*A87
350
48A7
  3
*A870
350
1C30
  3
*A871
350
1B2D
  3
*A872
350
49D1
  3
*A873
350
4969
  3
*A874
350
48EA
  3
*A875
350
493E
  3
*A876
350
49F2
  3
*A877
350
62E8
  3
*A878
350
6225
  3
*A879
350
62D7
  3
*A88
350
62F0
  3
*A880
350
1B01
  3
*A881
350
1C38
  3
*A882
350
4939
  3
*A883
350
623E
  3
*A884
350
48DB
  3
*A885
350
63A4
  3
*A886
350
49AF
  3
*A887
350
623A
  3
*A888
350
6403
  3
*A889
350
62B3
  3
*A89
350
4987
  3
*A890
350
1B9C
  3
*A891
350
1AF1
  3
*A892
350
6250
  3
*A893
350
6372
  3
*A894
350
4963
  3
*A895
350
4832
  3
*A896
350
6351
  3
*A897
350
6243
  3
*A898
350
48EF
  3
*A899
350
62D0
  3
*A9
350
1AE6
  3
*A90
350
6409
  3
*A900
350
48D5
  3
*A901
350
6422
  3
*A902
350
63FD
  3
*A903
350
628A
  3
*A904
350
4A00
  3
*A905
350
6258
  3
*A906
350
1BC8
  3
*A907
350
491D
  3
*A908
350
37BA
  3
*A909
350
1BE6
  3
*A91
350
4934
  3
*A910
350
4875
  3
*A911
350
4831
  3
*A912
350
630B
  3
*A913
350
6353
  3
*A914
350
62A7
  3
*A915
350
1B0D
  3
*A916
350
1B39
  3
*A917
350
1AD5
  3
*A918
350
489C
  3
*A919
350
1AF7
  3
*A92
350
623B
  3
*A920
350
1B4C
  3
*A921
350
627F
  3
*A922
350
6252
  3
*A923
350
48C3
  3
*A924
350
1BFF
  3
*A925
350
63D0
  3
*A926
350
621E
  3
*A927
350
6371
  3
*A928
350
49CC
  3
*A929
350
63A1
  3
*A93
350
62AB
  3
*A930
350
481A
  3
*A931
350
1BDB
  3
*A932
350
1B6D
  3
*A933
350
63F2
  3
*A934
350
4855
  3
*A935
350
1ADD
  3
*A936
350
1C12
  3
*A937
350
1C57
  3
*A938
350
484A
  3
*A939
350
4908
  3
*A94
350
6231
  3
*A940
350
4836
  3
*A941
350
4856
  3
*A942
350
48CB
  3
*A943
350
483E
  3
*A944
350
4809
  3
*A945
350
1BD9
  3
*A946
350
62E5
  3
*A947
350
63F5
  3
*A948
350
1AD6
  3
*A949
350
6420
  3
*A95
350
499D
  3
*A950
350
62B4
  3
*A951
350
49DA
  3
*A952
350
63BE
  3
*A953
350
1C5B
  3
*A954
350
6315
  3
*A955
350
4892
  3
*A956
350
630C
  3
*A957
350
4901
  3
*A958
350
1C60
  3
*A959
350
6413
  3
*A96
350
63C6
  3
*A960
350
1BA5
  3
*A961
350
4829
  3
*A962
350
48A3
  3
*A963
350
62EF
  3
*A964
350
6377
  3
*A965
350
4857
  3
*A966
350
4945
  3
*A967
350
1B94
  3
*A968
350
49B5
  3
*A969
350
1BFE
  3
*A97
350
63EF
  3
*A970
350
1BF0
  3
*A971
350
6405
  3
*A972
350
1C1D
  3
*A973
350
1BCF
  3
*A974
350
48C9
  3
*A975
350
1B6E
  3
*A976
350
6279
  3
*A977
350
63DC
  3
*A978
350
4842
  3
*A979
350
4A02
  3
*A98
350
1BEA
  3
*A980
350
1C5D
  3
*A981
350
631D
  3
*A982
350
1C25
  3
*A983
350
1B77
  3
*A984
350
49E3
  3
*A985
350
6337
  3
*A986
350
1B50
  3
*A987
350
48F8
  3
*A988
350
4A04
  3
*A989
350
636A
  3
*A99
350
6346
  3
*A990
350
6347
  3
*A991
350
4A0C
  3
*A992
350
640C
  3
*A993
350
49C4
  3
*A994
350
4887
  3
*A995
350
62B0
  3
*A996
350
48FA
  3
*A997
350
49F5
  3
*A998
350
6302
  3
*A999
350
62F7
  0
DICTIONARY
  5
EDC7
102
{ACAD_REACTORS
330
1A
102
}
330
1A
100
AcDbDictionary
  0
DICTIONARY
  5
19
102
{ACAD_REACTORS
330
1A
102
}
330
1A
100
AcDbDictionary
  3
STANDARD
350
1D
  0
DICTIONARY
  5
EDC8
102
{ACAD_REACTORS
330
1A
102
}
330
1A
100
AcDbDictionary
  0
ACDBDICTIONARYWDFLT
  5
EDC5
102
{ACAD_REACTORS
330
1A
102
}
330
1A
100
AcDbDictionary
281
     1
  3
Normal
350
EDC6
100
AcDbDictionaryWithDefault
340
EDC6
  0
DICTIONARY
  5
1FE46
102
{ACAD_REACTORS
330
1A
102
}
330
1A
100
AcDbDictionary
  3
CEPSNTYPE
350
1FE50
  3
DIMSTYLEDATA
350
1FE54
  3
FINGERPRINTGUID
350
1FE51
  3
HYPERLINKBASE
350
1FE49
  3
INSUNITS
350
1FE4F
  3
LAYOUTDICT
350
1FE4B
  3
LWETCUNION
350
1FE4E
  3
PLOTSETDICT
350
1FE4C
  3
PLOTSTYLNAMDICT
350
1FE4D
  3
PSVPSCALE
350
1FE53
  3
PUCSBASE
350
1FE57
  3
PUCSORGBACK
350
1FE5D
  3
PUCSORGBOTTOM
350
1FE59
  3
PUCSORGFRONT
350
1FE5C
  3
PUCSORGLEFT
350
1FE5A
  3
PUCSORGRIGHT
350
1FE5B
  3
PUCSORGTOP
350
1FE58
  3
PUCSORTHOREF
350
1FE55
  3
PUCSORTHOVIEW
350
1FE56
  3
STYLESHEET
350
1FE4A
  3
TSTACKALIGN
350
1FE47
  3
TSTACKSIZE
350
1FE48
  3
UCSBASE
350
1FE60
  3
UCSORGBACK
350
1FE66
  3
UCSORGBOTTOM
350
1FE62
  3
UCSORGFRONT
350
1FE65
  3
UCSORGLEFT
350
1FE63
  3
UCSORGRIGHT
350
1FE64
  3
UCSORGTOP
350
1FE61
  3
UCSORTHOREF
350
1FE5E
  3
UCSORTHOVIEW
350
1FE5F
  3
VERSIONGUID
350
1FE52
  0
DICTIONARY
  5
EDE7
102
{ACAD_REACTORS
330
1A
102
}
330
1A
100
AcDbDictionary
  3
DIMASSOC
350
EDE8
  0
DICTIONARY
  5
81A
102
{ACAD_REACTORS
330
1A
102
}
330
1A
100
AcDbDictionary
  0
XRECORD
  5
1FE68
102
{ACAD_REACTORS
330
1FE67
102
}
330
1FE67
100
AcDbXrecord
340
2
  0
XRECORD
  5
1FE6A
102
{ACAD_REACTORS
330
1FE69
102
}
330
1FE69
100
AcDbXrecord
340
7
  0
GROUP
  5
63B1
102
{ACAD_REACTORS
330
18
102
}
330
18
100
AcDbGroup
300

 70
     3
 71
     0
  0
GROUP
  5
1C0C
102
{ACAD_REACTORS
330
18
102
}
330
18
100
AcDbGroup
300

 70
     3
 71
     0
  0
GROUP
  5
6291
102
{ACAD_REACTORS
330
18
102
}
330
18
100
AcDbGroup
300

 70
     3
 71
     0
  0
GROUP
  5
4833
102
{ACAD_REACTORS
330
18
102
}
330
18
100
AcDbGroup
300

 70
     3
 71
     0
  0
GROUP
  5
4975
102
{ACAD_REACTORS
330
18
102
}
330
18
100
AcDbGroup
300

 70
     3
 71
     0
  0
GROUP
  5
6313
102
{ACAD_REACTORS
330
18
102
}
330
18
100
AcDbGroup
300

 70
     3
 71
     0
  0
GROUP
  5
6382
102
{ACAD_REACTORS
330
18
102
}
330
18
100
AcDbGroup
300

 70
     3
 71
     0
  0
GROUP
  5
637D
102
{ACAD_REACTORS
330
18
102
}
330
18
100
AcDbGroup
300

 70
     3
 71
     0
  0
GROUP
  5
4978
102
{ACAD_REACTORS
330
18
102
}
330
18
100
AcDbGroup
300

 70
     3
 71
     0
  0
GROUP
  5
62D4
102
{ACAD_REACTORS
330
18
102
}
330
18
100
AcDbGroup
300

 70
     3
 71
     1
  0
GROUP
  5
63B5
102
{ACAD_REACTORS
330
18
102
}
330
18
100
AcDbGroup
300

 70
     3
 71
     0
  0
GROUP
  5
49D4
102
{ACAD_REACTORS
330
18
102
}
330
18
100
AcDbGroup
300

 70
     3
 71
     0
  0
GROUP
  5
495D
102
{ACAD_REACTORS
330
18
102
}
330
18
100
AcDbGroup
300

 70
     3
 71
     0
  0
GROUP
  5
1BA2
102
{ACAD_REACTORS
330
18
102
}
330
18
100
AcDbGroup
300

 70
     3
 71
     0
  0
GROUP
  5
63E6
102
{ACAD_REACTORS
330
18
102
}
330
18
100
AcDbGroup
300

 70
     3
 71
     0
  0
GROUP
  5
625C
102
{ACAD_REACTORS
330
18
102
}
330
18
100
AcDbGroup
300

 70
     3
 71
     0
  0
GROUP
  5
1C61
102
{ACAD_REACTORS
330
18
102
}
330
18
100
AcDbGroup
300

 70
     3
 71
     0
  0
GROUP
  5
4858
102
{ACAD_REACTORS
330
18
102
}
330
18
100
AcDbGroup
300

 70
     3
 71
     0
  0
GROUP
  5
63B3
102
{ACAD_REACTORS
330
18
102
}
330
18
100
AcDbGroup
300

 70
     3
 71
     0
  0
GROUP
  5
1BE4
102
{ACAD_REACTORS
330
18
102
}
330
18
100
AcDbGroup
300

 70
     3
 71
     0
  0
GROUP
  5
49BE
102
{ACAD_REACTORS
330
18
102
}
330
18
100
AcDbGroup
300

 70
     3
 71
     0
  0
GROUP
  5
493F
102
{ACAD_REACTORS
330
18
102
}
330
18
100
AcDbGroup
300

 70
     3
 71
     0
  0
GROUP
  5
4913
102
{ACAD_REACTORS
330
18
102
}
330
18
100
AcDbGroup
300

 70
     3
 71
     0
  0
GROUP
  5
6245
102
{ACAD_REACTORS
330
18
102
}
330
18
100
AcDbGroup
300

 70
     3
 71
     0
  0
GROUP
  5
1B3B
102
{ACAD_REACTORS
330
18
102
}
330
18
100
AcDbGroup
300

 70
     3
 71
     0
  0
GROUP
  5
48C6
102
{ACAD_REACTORS
330
18
102
}
330
18
100
AcDbGroup
300

 70
     3
 71
     1
  0
GROUP
  5
62D8
102
{ACAD_REACTORS
330
18
102
}
330
18
100
AcDbGroup
300

 70
     3
 71
     0
  0
GROUP
  5
37C1
102
{ACAD_REACTORS
330
18
102
}
330
18
100
AcDbGroup
300

 70
     3
 71
     0
  0
GROUP
  5
1BEF
102
{ACAD_REACTORS
330
18
102
}
330
18
100
AcDbGroup
300

 70
     3
 71
     0
  0
GROUP
  5
49F1
102
{ACAD_REACTORS
330
18
102
}
330
18
100
AcDbGroup
300

 70
     3
 71
     0
  0
GROUP
  5
37BC
102
{ACAD_REACTORS
330
18
102
}
330
18
100
AcDbGroup
300

 70
     3
 71
     0
  0
GROUP
  5
489D
102
{ACAD_REACTORS
330
18
102
}
330
18
100
AcDbGroup
300

 70
     3
 71
     0
  0
GROUP
  5
630A
102
{ACAD_REACTORS
330
18
102
}
330
18
100
AcDbGroup
300

 70
     3
 71
     0
  0
GROUP
  5
1B7B
102
{ACAD_REACTORS
330
18
102
}
330
18
100
AcDbGroup
300

 70
     3
 71
     0
  0
GROUP
  5
1457
102
{ACAD_REACTORS
330
18
102
}
330
18
100
AcDbGroup
300

 70
     3
 71
     0
  0
GROUP
  5
1B7E
102
{ACAD_REACTORS
330
18
102
}
330
18
100
AcDbGroup
300

 70
     3
 71
     0
  0
GROUP
  5
1B19
102
{ACAD_REACTORS
330
18
102
}
330
18
100
AcDbGroup
300

 70
     3
 71
     0
  0
GROUP
  5
6282
102
{ACAD_REACTORS
330
18
102
}
330
18
100
AcDbGroup
300

 70
     3
 71
     0
  0
GROUP
  5
4898
102
{ACAD_REACTORS
330
18
102
}
330
18
100
AcDbGroup
300

 70
     3
 71
     0
  0
GROUP
  5
6333
102
{ACAD_REACTORS
330
18
102
}
330
18
100
AcDbGroup
300

 70
     3
 71
     0
  0
GROUP
  5
1C28
102
{ACAD_REACTORS
330
18
102
}
330
18
100
AcDbGroup
300

 70
     3
 71
     0
  0
GROUP
  5
63BA
102
{ACAD_REACTORS
330
18
102
}
330
18
100
AcDbGroup
300

 70
     3
 71
     0
  0
GROUP
  5
6398
102
{ACAD_REACTORS
330
18
102
}
330
18
100
AcDbGroup
300

 70
     3
 71
     0
  0
GROUP
  5
49AD
102
{ACAD_REACTORS
330
18
102
}
330
18
100
AcDbGroup
300

 70
     3
 71
     0
  0
GROUP
  5
48A5
102
{ACAD_REACTORS
330
18
102
}
330
18
100
AcDbGroup
300

 70
     3
 71
     0
  0
GROUP
  5
62C1
102
{ACAD_REACTORS
330
18
102
}
330
18
100
AcDbGroup
300

 70
     3
 71
     0
  0
GROUP
  5
6292
102
{ACAD_REACTORS
330
18
102
}
330
18
100
AcDbGroup
300

 70
     3
 71
     0
  0
GROUP
  5
492A
102
{ACAD_REACTORS
330
18
102
}
330
18
100
AcDbGroup
300

 70
     3
 71
     0
  0
GROUP
  5
1B60
102
{ACAD_REACTORS
330
18
102
}
330
18
100
AcDbGroup
300

 70
     3
 71
     0
  0
GROUP
  5
1AEF
102
{ACAD_REACTORS
330
18
102
}
330
18
100
AcDbGroup
300

 70
     3
 71
     0
  0
GROUP
  5
489B
102
{ACAD_REACTORS
330
18
102
}
330
18
100
AcDbGroup
300

 70
     3
 71
     0
  0
GROUP
  5
63FF
102
{ACAD_REACTORS
330
18
102
}
330
18
100
AcDbGroup
300

 70
     3
 71
     0
  0
GROUP
  5
4817
102
{ACAD_REACTORS
330
18
102
}
330
18
100
AcDbGroup
300

 70
     3
 71
     0
  0
GROUP
  5
4871
102
{ACAD_REACTORS
330
18
102
}
330
18
100
AcDbGroup
300

 70
     3
 71
     0
  0
GROUP
  5
49E2
102
{ACAD_REACTORS
330
18
102
}
330
18
100
AcDbGroup
300

 70
     3
 71
     0
  0
GROUP
  5
1465
102
{ACAD_REACTORS
330
18
102
}
330
18
100
AcDbGroup
300

 70
     3
 71
     0
  0
GROUP
  5
629F
102
{ACAD_REACTORS
330
18
102
}
330
18
100
AcDbGroup
300

 70
     3
 71
     0
  0
GROUP
  5
1BEE
102
{ACAD_REACTORS
330
18
102
}
330
18
100
AcDbGroup
300

 70
     3
 71
     0
  0
GROUP
  5
63EC
102
{ACAD_REACTORS
330
18
102
}
330
18
100
AcDbGroup
300

 70
     3
 71
     0
  0
GROUP
  5
1BEB
102
{ACAD_REACTORS
330
18
102
}
330
18
100
AcDbGroup
300

 70
     3
 71
     0
  0
GROUP
  5
4815
102
{ACAD_REACTORS
330
18
102
}
330
18
100
AcDbGroup
300

 70
     3
 71
     0
  0
GROUP
  5
4998
102
{ACAD_REACTORS
330
18
102
}
330
18
100
AcDbGroup
300

 70
     3
 71
     0
  0
GROUP
  5
480B
102
{ACAD_REACTORS
330
18
102
}
330
18
100
AcDbGroup
300

 70
     3
 71
     0
  0
GROUP
  5
625A
102
{ACAD_REACTORS
330
18
102
}
330
18
100
AcDbGroup
300

 70
     3
 71
     0
  0
GROUP
  5
493A
102
{ACAD_REACTORS
330
18
102
}
330
18
100
AcDbGroup
300

 70
     3
 71
     0
  0
GROUP
  5
1B42
102
{ACAD_REACTORS
330
18
102
}
330
18
100
AcDbGroup
300

 70
     3
 71
     0
  0
GROUP
  5
63B0
102
{ACAD_REACTORS
330
18
102
}
330
18
100
AcDbGroup
300

 70
     3
 71
     0
  0
GROUP
  5
48AF
102
{ACAD_REACTORS
330
18
102
}
330
18
100
AcDbGroup
300

 70
     3
 71
     0
  0
GROUP
  5
49D6
102
{ACAD_REACTORS
330
18
102
}
330
18
100
AcDbGroup
300

 70
     3
 71
     0
  0
GROUP
  5
62A3
102
{ACAD_REACTORS
330
18
102
}
330
18
100
AcDbGroup
300

 70
     3
 71
     0
  0
GROUP
  5
634B
102
{ACAD_REACTORS
330
18
102
}
330
18
100
AcDbGroup
300

 70
     3
 71
     0
  0
GROUP
  5
62A8
102
{ACAD_REACTORS
330
18
102
}
330
18
100
AcDbGroup
300

 70
     3
 71
     0
  0
GROUP
  5
490A
102
{ACAD_REACTORS
330
18
102
}
330
18
100
AcDbGroup
300

 70
     3
 71
     0
  0
GROUP
  5
4943
102
{ACAD_REACTORS
330
18
102
}
330
18
100
AcDbGroup
300

 70
     3
 71
     0
  0
GROUP
  5
6281
102
{ACAD_REACTORS
330
18
102
}
330
18
100
AcDbGroup
300

 70
     3
 71
     0
  0
GROUP
  5
62DC
102
{ACAD_REACTORS
330
18
102
}
330
18
100
AcDbGroup
300

 70
     3
 71
     0
  0
GROUP
  5
48B0
102
{ACAD_REACTORS
330
18
102
}
330
18
100
AcDbGroup
300

 70
     3
 71
     0
  0
GROUP
  5
379D
102
{ACAD_REACTORS
330
18
102
}
330
18
100
AcDbGroup
300

 70
     3
 71
     0
  0
GROUP
  5
6385
102
{ACAD_REACTORS
330
18
102
}
330
18
100
AcDbGroup
300

 70
     3
 71
     0
  0
GROUP
  5
1AFC
102
{ACAD_REACTORS
330
18
102
}
330
18
100
AcDbGroup
300

 70
     3
 71
     0
  0
GROUP
  5
6271
102
{ACAD_REACTORS
330
18
102
}
330
18
100
AcDbGroup
300

 70
     3
 71
     0
  0
GROUP
  5
4959
102
{ACAD_REACTORS
330
18
102
}
330
18
100
AcDbGroup
300

 70
     3
 71
     0
  0
GROUP
  5
6239
102
{ACAD_REACTORS
330
18
102
}
330
18
100
AcDbGroup
300

 70
     3
 71
     0
  0
GROUP
  5
49D9
102
{ACAD_REACTORS
330
18
102
}
330
18
100
AcDbGroup
300

 70
     3
 71
     0
  0
GROUP
  5
1C32
102
{ACAD_REACTORS
330
18
102
}
330
18
100
AcDbGroup
300

 70
     3
 71
     0
  0
GROUP
  5
491E
102
{ACAD_REACTORS
330
18
102
}
330
18
100
AcDbGroup
300

 70
     3
 71
     0
  0
GROUP
  5
1AE9
102
{ACAD_REACTORS
330
18
102
}
330
18
100
AcDbGroup
300

 70
     3
 71
     0
  0
GROUP
  5
1B2C
102
{ACAD_REACTORS
330
18
102
}
330
18
100
AcDbGroup
300

 70
     3
 71
     0
  0
GROUP
  5
1C36
102
{ACAD_REACTORS
330
18
102
}
330
18
100
AcDbGroup
300

 70
     3
 71
     0
  0
GROUP
  5
49C2
102
{ACAD_REACTORS
330
18
102
}
330
18
100
AcDbGroup
300

 70
     3
 71
     0
  0
GROUP
  5
6396
102
{ACAD_REACTORS
330
18
102
}
330
18
100
AcDbGroup
300

 70
     3
 71
     0
  0
GROUP
  5
6425
102
{ACAD_REACTORS
330
18
102
}
330
18
100
AcDbGroup
300

 70
     3
 71
     0
  0
GROUP
  5
49ED
102
{ACAD_REACTORS
330
18
102
}
330
18
100
AcDbGroup
300

 70
     3
 71
     0
  0
GROUP
  5
626D
102
{ACAD_REACTORS
330
18
102
}
330
18
100
AcDbGroup
300

 70
     3
 71
     0
  0
GROUP
  5
4843
102
{ACAD_REACTORS
330
18
102
}
330
18
100
AcDbGroup
300

 70
     3
 71
     0
  0
GROUP
  5
4A11
102
{ACAD_REACTORS
330
18
102
}
330
18
100
AcDbGroup
300

 70
     3
 71
     0
  0
GROUP
  5
494A
102
{ACAD_REACTORS
330
18
102
}
330
18
100
AcDbGroup
300

 70
     3
 71
     0
  0
GROUP
  5
62FF
102
{ACAD_REACTORS
330
18
102
}
330
18
100
AcDbGroup
300

 70
     3
 71
     0
  0
GROUP
  5
6352
102
{ACAD_REACTORS
330
18
102
}
330
18
100
AcDbGroup
300

 70
     3
 71
     0
  0
GROUP
  5
1BAE
102
{ACAD_REACTORS
330
18
102
}
330
18
100
AcDbGroup
300

 70
     3
 71
     0
  0
GROUP
  5
1AEB
102
{ACAD_REACTORS
330
18
102
}
330
18
100
AcDbGroup
300

 70
     3
 71
     0
  0
GROUP
  5
63CF
102
{ACAD_REACTORS
330
18
102
}
330
18
100
AcDbGroup
300

 70
     3
 71
     0
  0
GROUP
  5
622C
102
{ACAD_REACTORS
330
18
102
}
330
18
100
AcDbGroup
300

 70
     3
 71
     0
  0
GROUP
  5
1C1A
102
{ACAD_REACTORS
330
18
102
}
330
18
100
AcDbGroup
300

 70
     3
 71
     0
  0
GROUP
  5
63DE
102
{ACAD_REACTORS
330
18
102
}
330
18
100
AcDbGroup
300

 70
     3
 71
     0
  0
GROUP
  5
1B6C
102
{ACAD_REACTORS
330
18
102
}
330
18
100
AcDbGroup
300

 70
     3
 71
     0
  0
GROUP
  5
1469
102
{ACAD_REACTORS
330
18
102
}
330
18
100
AcDbGroup
300

 70
     3
 71
     0
  0
GROUP
  5
1B6F
102
{ACAD_REACTORS
330
18
102
}
330
18
100
AcDbGroup
300

 70
     3
 71
     0
  0
GROUP
  5
1BB5
102
{ACAD_REACTORS
330
18
102
}
330
18
100
AcDbGroup
300

 70
     3
 71
     0
  0
GROUP
  5
62DF
102
{ACAD_REACTORS
330
18
102
}
330
18
100
AcDbGroup
300

 70
     3
 71
     0
  0
GROUP
  5
6294
102
{ACAD_REACTORS
330
18
102
}
330
18
100
AcDbGroup
300

 70
     3
 71
     0
  0
GROUP
  5
62CD
102
{ACAD_REACTORS
330
18
102
}
330
18
100
AcDbGroup
300

 70
     3
 71
     0
  0
GROUP
  5
4A15
102
{ACAD_REACTORS
330
18
102
}
330
18
100
AcDbGroup
300

 70
     3
 71
     0
  0
GROUP
  5
628C
102
{ACAD_REACTORS
330
18
102
}
330
18
100
AcDbGroup
300

 70
     3
 71
     0
  0
GROUP
  5
49B3
102
{ACAD_REACTORS
330
18
102
}
330
18
100
AcDbGroup
300

 70
     3
 71
     0
  0
GROUP
  5
62AC
102
{ACAD_REACTORS
330
18
102
}
330
18
100
AcDbGroup
300

 70
     3
 71
     0
  0
GROUP
  5
1AFA
102
{ACAD_REACTORS
330
18
102
}
330
18
100
AcDbGroup
300

 70
     3
 71
     0
  0
GROUP
  5
48A9
102
{ACAD_REACTORS
330
18
102
}
330
18
100
AcDbGroup
300

 70
     3
 71
     0
  0
GROUP
  5
496A
102
{ACAD_REACTORS
330
18
102
}
330
18
100
AcDbGroup
300

 70
     3
 71
     0
  0
GROUP
  5
4891
102
{ACAD_REACTORS
330
18
102
}
330
18
100
AcDbGroup
300

 70
     3
 71
     0
  0
GROUP
  5
4A06
102
{ACAD_REACTORS
330
18
102
}
330
18
100
AcDbGroup
300

 70
     3
 71
     0
  0
GROUP
  5
37B3
102
{ACAD_REACTORS
330
18
102
}
330
18
100
AcDbGroup
300

 70
     3
 71
     0
  0
GROUP
  5
483D
102
{ACAD_REACTORS
330
18
102
}
330
18
100
AcDbGroup
300

 70
     3
 71
     0
  0
GROUP
  5
37B2
102
{ACAD_REACTORS
330
18
102
}
330
18
100
AcDbGroup
300

 70
     3
 71
     0
  0
GROUP
  5
1AD8
102
{ACAD_REACTORS
330
18
102
}
330
18
100
AcDbGroup
300

 70
     3
 71
     0
  0
GROUP
  5
37AB
102
{ACAD_REACTORS
330
18
102
}
330
18
100
AcDbGroup
300

 70
     3
 71
     0
  0
GROUP
  5
63E2
102
{ACAD_REACTORS
330
18
102
}
330
18
100
AcDbGroup
300

 70
     3
 71
     0
  0
GROUP
  5
495C
102
{ACAD_REACTORS
330
18
102
}
330
18
100
AcDbGroup
300

 70
     3
 71
     0
  0
GROUP
  5
62C4
102
{ACAD_REACTORS
330
18
102
}
330
18
100
AcDbGroup
300

 70
     3
 71
     0
  0
GROUP
  5
4834
102
{ACAD_REACTORS
330
18
102
}
330
18
100
AcDbGroup
300

 70
     3
 71
     0
  0
GROUP
  5
6365
102
{ACAD_REACTORS
330
18
102
}
330
18
100
AcDbGroup
300

 70
     3
 71
     0
  0
GROUP
  5
488D
102
{ACAD_REACTORS
330
18
102
}
330
18
100
AcDbGroup
300

 70
     3
 71
     0
  0
GROUP
  5
635F
102
{ACAD_REACTORS
330
18
102
}
330
18
100
AcDbGroup
300

 70
     3
 71
     0
  0
GROUP
  5
48B1
102
{ACAD_REACTORS
330
18
102
}
330
18
100
AcDbGroup
300

 70
     3
 71
     0
  0
GROUP
  5
1B1D
102
{ACAD_REACTORS
330
18
102
}
330
18
100
AcDbGroup
300

 70
     3
 71
     0
  0
GROUP
  5
1C5A
102
{ACAD_REACTORS
330
18
102
}
330
18
100
AcDbGroup
300

 70
     3
 71
     0
  0
GROUP
  5
63B2
102
{ACAD_REACTORS
330
18
102
}
330
18
100
AcDbGroup
300

 70
     3
 71
     0
  0
GROUP
  5
496B
102
{ACAD_REACTORS
330
18
102
}
330
18
100
AcDbGroup
300

 70
     3
 71
     0
  0
GROUP
  5
1B82
102
{ACAD_REACTORS
330
18
102
}
330
18
100
AcDbGroup
300

 70
     3
 71
     0
  0
GROUP
  5
48A2
102
{ACAD_REACTORS
330
18
102
}
330
18
100
AcDbGroup
300

 70
     3
 71
     0
  0
GROUP
  5
1B0A
102
{ACAD_REACTORS
330
18
102
}
330
18
100
AcDbGroup
300

 70
     3
 71
     0
  0
GROUP
  5
6229
102
{ACAD_REACTORS
330
18
102
}
330
18
100
AcDbGroup
300

 70
     3
 71
     0
  0
GROUP
  5
1C59
102
{ACAD_REACTORS
330
18
102
}
330
18
100
AcDbGroup
300

 70
     3
 71
     0
  0
GROUP
  5
1B88
102
{ACAD_REACTORS
330
18
102
}
330
18
100
AcDbGroup
300

 70
     3
 71
     0
  0
GROUP
  5
625B
102
{ACAD_REACTORS
330
18
102
}
330
18
100
AcDbGroup
300

 70
     3
 71
     0
  0
GROUP
  5
1B04
102
{ACAD_REACTORS
330
18
102
}
330
18
100
AcDbGroup
300

 70
     3
 71
     0
  0
GROUP
  5
487A
102
{ACAD_REACTORS
330
18
102
}
330
18
100
AcDbGroup
300

 70
     3
 71
     0
  0
GROUP
  5
1B2B
102
{ACAD_REACTORS
330
18
102
}
330
18
100
AcDbGroup
300

 70
     3
 71
     0
  0
GROUP
  5
6232
102
{ACAD_REACTORS
330
18
102
}
330
18
100
AcDbGroup
300

 70
     3
 71
     0
  0
GROUP
  5
487E
102
{ACAD_REACTORS
330
18
102
}
330
18
100
AcDbGroup
300

 70
     3
 71
     0
  0
GROUP
  5
63A2
102
{ACAD_REACTORS
330
18
102
}
330
18
100
AcDbGroup
300

 70
     3
 71
     0
  0
GROUP
  5
4844
102
{ACAD_REACTORS
330
18
102
}
330
18
100
AcDbGroup
300

 70
     3
 71
     0
  0
GROUP
  5
1B35
102
{ACAD_REACTORS
330
18
102
}
330
18
100
AcDbGroup
300

 70
     3
 71
     0
  0
GROUP
  5
6402
102
{ACAD_REACTORS
330
18
102
}
330
18
100
AcDbGroup
300

 70
     3
 71
     0
  0
GROUP
  5
63D6
102
{ACAD_REACTORS
330
18
102
}
330
18
100
AcDbGroup
300

 70
     3
 71
     0
  0
GROUP
  5
62A2
102
{ACAD_REACTORS
330
18
102
}
330
18
100
AcDbGroup
300

 70
     3
 71
     0
  0
GROUP
  5
6350
102
{ACAD_REACTORS
330
18
102
}
330
18
100
AcDbGroup
300

 70
     3
 71
     0
  0
GROUP
  5
6400
102
{ACAD_REACTORS
330
18
102
}
330
18
100
AcDbGroup
300

 70
     3
 71
     0
  0
GROUP
  5
6399
102
{ACAD_REACTORS
330
18
102
}
330
18
100
AcDbGroup
300

 70
     3
 71
     0
  0
GROUP
  5
1ACE
102
{ACAD_REACTORS
330
18
102
}
330
18
100
AcDbGroup
300

 70
     3
 71
     0
  0
GROUP
  5
1BA6
102
{ACAD_REACTORS
330
18
102
}
330
18
100
AcDbGroup
300

 70
     3
 71
     0
  0
GROUP
  5
1BB4
102
{ACAD_REACTORS
330
18
102
}
330
18
100
AcDbGroup
300

 70
     3
 71
     0
  0
GROUP
  5
1C03
102
{ACAD_REACTORS
330
18
102
}
330
18
100
AcDbGroup
300

 70
     3
 71
     0
  0
GROUP
  5
4995
102
{ACAD_REACTORS
330
18
102
}
330
18
100
AcDbGroup
300

 70
     3
 71
     0
  0
GROUP
  5
1C45
102
{ACAD_REACTORS
330
18
102
}
330
18
100
AcDbGroup
300

 70
     3
 71
     0
  0
GROUP
  5
49FC
102
{ACAD_REACTORS
330
18
102
}
330
18
100
AcDbGroup
300

 70
     3
 71
     0
  0
GROUP
  5
6283
102
{ACAD_REACTORS
330
18
102
}
330
18
100
AcDbGroup
300

 70
     3
 71
     0
  0
GROUP
  5
6284
102
{ACAD_REACTORS
330
18
102
}
330
18
100
AcDbGroup
300

 70
     3
 71
     0
  0
GROUP
  5
6341
102
{ACAD_REACTORS
330
18
102
}
330
18
100
AcDbGroup
300

 70
     3
 71
     0
  0
GROUP
  5
1BA8
102
{ACAD_REACTORS
330
18
102
}
330
18
100
AcDbGroup
300

 70
     3
 71
     0
  0
GROUP
  5
63F0
102
{ACAD_REACTORS
330
18
102
}
330
18
100
AcDbGroup
300

 70
     3
 71
     0
  0
GROUP
  5
482D
102
{ACAD_REACTORS
330
18
102
}
330
18
100
AcDbGroup
300

 70
     3
 71
     0
  0
GROUP
  5
49D8
102
{ACAD_REACTORS
330
18
102
}
330
18
100
AcDbGroup
300

 70
     3
 71
     0
  0
GROUP
  5
4990
102
{ACAD_REACTORS
330
18
102
}
330
18
100
AcDbGroup
300

 70
     3
 71
     0
  0
GROUP
  5
629B
102
{ACAD_REACTORS
330
18
102
}
330
18
100
AcDbGroup
300

 70
     3
 71
     0
  0
GROUP
  5
1C0E
102
{ACAD_REACTORS
330
18
102
}
330
18
100
AcDbGroup
300

 70
     3
 71
     0
  0
GROUP
  5
1460
102
{ACAD_REACTORS
330
18
102
}
330
18
100
AcDbGroup
300

 70
     3
 71
     0
  0
GROUP
  5
6381
102
{ACAD_REACTORS
330
18
102
}
330
18
100
AcDbGroup
300

 70
     3
 71
     0
  0
GROUP
  5
37B9
102
{ACAD_REACTORS
330
18
102
}
330
18
100
AcDbGroup
300

 70
     3
 71
     0
  0
GROUP
  5
1C51
102
{ACAD_REACTORS
330
18
102
}
330
18
100
AcDbGroup
300

 70
     3
 71
     0
  0
GROUP
  5
1AD1
102
{ACAD_REACTORS
330
18
102
}
330
18
100
AcDbGroup
300

 70
     3
 71
     0
  0
GROUP
  5
1AF3
102
{ACAD_REACTORS
330
18
102
}
330
18
100
AcDbGroup
300

 70
     3
 71
     0
  0
GROUP
  5
4886
102
{ACAD_REACTORS
330
18
102
}
330
18
100
AcDbGroup
300

 70
     3
 71
     0
  0
GROUP
  5
635B
102
{ACAD_REACTORS
330
18
102
}
330
18
100
AcDbGroup
300

 70
     3
 71
     0
  0
GROUP
  5
1BBD
102
{ACAD_REACTORS
330
18
102
}
330
18
100
AcDbGroup
300

 70
     3
 71
     0
  0
GROUP
  5
1B16
102
{ACAD_REACTORS
330
18
102
}
330
18
100
AcDbGroup
300

 70
     3
 71
     0
  0
GROUP
  5
1B62
102
{ACAD_REACTORS
330
18
102
}
330
18
100
AcDbGroup
300

 70
     3
 71
     0
  0
GROUP
  5
494D
102
{ACAD_REACTORS
330
18
102
}
330
18
100
AcDbGroup
300

 70
     3
 71
     0
  0
GROUP
  5
1AFD
102
{ACAD_REACTORS
330
18
102
}
330
18
100
AcDbGroup
300

 70
     3
 71
     0
  0
GROUP
  5
37C2
102
{ACAD_REACTORS
330
18
102
}
330
18
100
AcDbGroup
300

 70
     3
 71
     0
  0
GROUP
  5
49D5
102
{ACAD_REACTORS
330
18
102
}
330
18
100
AcDbGroup
300

 70
     3
 71
     0
  0
GROUP
  5
6298
102
{ACAD_REACTORS
330
18
102
}
330
18
100
AcDbGroup
300

 70
     3
 71
     0
  0
GROUP
  5
4A0F
102
{ACAD_REACTORS
330
18
102
}
330
18
100
AcDbGroup
300

 70
     3
 71
     0
  0
GROUP
  5
1BC2
102
{ACAD_REACTORS
330
18
102
}
330
18
100
AcDbGroup
300

 70
     3
 71
     0
  0
GROUP
  5
6392
102
{ACAD_REACTORS
330
18
102
}
330
18
100
AcDbGroup
300

 70
     3
 71
     0
  0
GROUP
  5
1BED
102
{ACAD_REACTORS
330
18
102
}
330
18
100
AcDbGroup
300

 70
     3
 71
     0
  0
GROUP
  5
1BF5
102
{ACAD_REACTORS
330
18
102
}
330
18
100
AcDbGroup
300

 70
     3
 71
     0
  0
GROUP
  5
62E9
102
{ACAD_REACTORS
330
18
102
}
330
18
100
AcDbGroup
300

 70
     3
 71
     0
  0
GROUP
  5
48B3
102
{ACAD_REACTORS
330
18
102
}
330
18
100
AcDbGroup
300

 70
     3
 71
     0
  0
GROUP
  5
62C8
102
{ACAD_REACTORS
330
18
102
}
330
18
100
AcDbGroup
300

 70
     3
 71
     0
  0
GROUP
  5
638B
102
{ACAD_REACTORS
330
18
102
}
330
18
100
AcDbGroup
300

 70
     3
 71
     0
  0
GROUP
  5
48E3
102
{ACAD_REACTORS
330
18
102
}
330
18
100
AcDbGroup
300

 70
     3
 71
     0
  0
GROUP
  5
4929
102
{ACAD_REACTORS
330
18
102
}
330
18
100
AcDbGroup
300

 70
     3
 71
     0
  0
GROUP
  5
4909
102
{ACAD_REACTORS
330
18
102
}
330
18
100
AcDbGroup
300

 70
     3
 71
     0
  0
GROUP
  5
1BFC
102
{ACAD_REACTORS
330
18
102
}
330
18
100
AcDbGroup
300

 70
     3
 71
     0
  0
GROUP
  5
6316
102
{ACAD_REACTORS
330
18
102
}
330
18
100
AcDbGroup
300

 70
     3
 71
     0
  0
GROUP
  5
37BF
102
{ACAD_REACTORS
330
18
102
}
330
18
100
AcDbGroup
300

 70
     3
 71
     0
  0
GROUP
  5
1BBB
102
{ACAD_REACTORS
330
18
102
}
330
18
100
AcDbGroup
300

 70
     3
 71
     0
  0
GROUP
  5
6304
102
{ACAD_REACTORS
330
18
102
}
330
18
100
AcDbGroup
300

 70
     3
 71
     0
  0
GROUP
  5
1BE1
102
{ACAD_REACTORS
330
18
102
}
330
18
100
AcDbGroup
300

 70
     3
 71
     0
  0
GROUP
  5
49F0
102
{ACAD_REACTORS
330
18
102
}
330
18
100
AcDbGroup
300

 70
     3
 71
     0
  0
GROUP
  5
1AEC
102
{ACAD_REACTORS
330
18
102
}
330
18
100
AcDbGroup
300

 70
     3
 71
     0
  0
GROUP
  5
498C
102
{ACAD_REACTORS
330
18
102
}
330
18
100
AcDbGroup
300

 70
     3
 71
     0
  0
GROUP
  5
1B0C
102
{ACAD_REACTORS
330
18
102
}
330
18
100
AcDbGroup
300

 70
     3
 71
     0
  0
GROUP
  5
1BB6
102
{ACAD_REACTORS
330
18
102
}
330
18
100
AcDbGroup
300

 70
     3
 71
     0
  0
GROUP
  5
487F
102
{ACAD_REACTORS
330
18
102
}
330
18
100
AcDbGroup
300

 70
     3
 71
     0
  0
GROUP
  5
48CC
102
{ACAD_REACTORS
330
18
102
}
330
18
100
AcDbGroup
300

 70
     3
 71
     0
  0
GROUP
  5
1B2F
102
{ACAD_REACTORS
330
18
102
}
330
18
100
AcDbGroup
300

 70
     3
 71
     0
  0
GROUP
  5
488F
102
{ACAD_REACTORS
330
18
102
}
330
18
100
AcDbGroup
300

 70
     3
 71
     0
  0
GROUP
  5
625E
102
{ACAD_REACTORS
330
18
102
}
330
18
100
AcDbGroup
300

 70
     3
 71
     0
  0
GROUP
  5
4989
102
{ACAD_REACTORS
330
18
102
}
330
18
100
AcDbGroup
300

 70
     3
 71
     0
  0
GROUP
  5
4899
102
{ACAD_REACTORS
330
18
102
}
330
18
100
AcDbGroup
300

 70
     3
 71
     0
  0
GROUP
  5
1BBF
102
{ACAD_REACTORS
330
18
102
}
330
18
100
AcDbGroup
300

 70
     3
 71
     0
  0
GROUP
  5
63C9
102
{ACAD_REACTORS
330
18
102
}
330
18
100
AcDbGroup
300

 70
     3
 71
     0
  0
GROUP
  5
6375
102
{ACAD_REACTORS
330
18
102
}
330
18
100
AcDbGroup
300

 70
     3
 71
     0
  0
GROUP
  5
4911
102
{ACAD_REACTORS
330
18
102
}
330
18
100
AcDbGroup
300

 70
     3
 71
     0
  0
GROUP
  5
4968
102
{ACAD_REACTORS
330
18
102
}
330
18
100
AcDbGroup
300

 70
     3
 71
     0
  0
GROUP
  5
635C
102
{ACAD_REACTORS
330
18
102
}
330
18
100
AcDbGroup
300

 70
     3
 71
     0
  0
GROUP
  5
487D
102
{ACAD_REACTORS
330
18
102
}
330
18
100
AcDbGroup
300

 70
     3
 71
     0
  0
GROUP
  5
493C
102
{ACAD_REACTORS
330
18
102
}
330
18
100
AcDbGroup
300

 70
     3
 71
     0
  0
GROUP
  5
1B5D
102
{ACAD_REACTORS
330
18
102
}
330
18
100
AcDbGroup
300

 70
     3
 71
     0
  0
GROUP
  5
63BB
102
{ACAD_REACTORS
330
18
102
}
330
18
100
AcDbGroup
300

 70
     3
 71
     0
  0
GROUP
  5
637A
102
{ACAD_REACTORS
330
18
102
}
330
18
100
AcDbGroup
300

 70
     3
 71
     0
  0
GROUP
  5
6261
102
{ACAD_REACTORS
330
18
102
}
330
18
100
AcDbGroup
300

 70
     3
 71
     0
  0
GROUP
  5
49CF
102
{ACAD_REACTORS
330
18
102
}
330
18
100
AcDbGroup
300

 70
     3
 71
     0
  0
GROUP
  5
6262
102
{ACAD_REACTORS
330
18
102
}
330
18
100
AcDbGroup
300

 70
     3
 71
     0
  0
GROUP
  5
1C02
102
{ACAD_REACTORS
330
18
102
}
330
18
100
AcDbGroup
300

 70
     3
 71
     0
  0
GROUP
  5
49C3
102
{ACAD_REACTORS
330
18
102
}
330
18
100
AcDbGroup
300

 70
     3
 71
     0
  0
GROUP
  5
6394
102
{ACAD_REACTORS
330
18
102
}
330
18
100
AcDbGroup
300

 70
     3
 71
     0
  0
GROUP
  5
1BB1
102
{ACAD_REACTORS
330
18
102
}
330
18
100
AcDbGroup
300

 70
     3
 71
     0
  0
GROUP
  5
48E8
102
{ACAD_REACTORS
330
18
102
}
330
18
100
AcDbGroup
300

 70
     3
 71
     0
  0
GROUP
  5
62A6
102
{ACAD_REACTORS
330
18
102
}
330
18
100
AcDbGroup
300

 70
     3
 71
     0
  0
GROUP
  5
37A3
102
{ACAD_REACTORS
330
18
102
}
330
18
100
AcDbGroup
300

 70
     3
 71
     0
  0
GROUP
  5
49AA
102
{ACAD_REACTORS
330
18
102
}
330
18
100
AcDbGroup
300

 70
     3
 71
     0
  0
GROUP
  5
63BC
102
{ACAD_REACTORS
330
18
102
}
330
18
100
AcDbGroup
300

 70
     3
 71
     0
  0
GROUP
  5
62AF
102
{ACAD_REACTORS
330
18
102
}
330
18
100
AcDbGroup
300

 70
     3
 71
     0
  0
GROUP
  5
48E1
102
{ACAD_REACTORS
330
18
102
}
330
18
100
AcDbGroup
300

 70
     3
 71
     0
  0
GROUP
  5
6311
102
{ACAD_REACTORS
330
18
102
}
330
18
100
AcDbGroup
300

 70
     3
 71
     0
  0
GROUP
  5
49EF
102
{ACAD_REACTORS
330
18
102
}
330
18
100
AcDbGroup
300

 70
     3
 71
     0
  0
GROUP
  5
6369
102
{ACAD_REACTORS
330
18
102
}
330
18
100
AcDbGroup
300

 70
     3
 71
     0
  0
GROUP
  5
1C53
102
{ACAD_REACTORS
330
18
102
}
330
18
100
AcDbGroup
300

 70
     3
 71
     0
  0
GROUP
  5
499A
102
{ACAD_REACTORS
330
18
102
}
330
18
100
AcDbGroup
300

 70
     3
 71
     0
  0
GROUP
  5
4874
102
{ACAD_REACTORS
330
18
102
}
330
18
100
AcDbGroup
300

 70
     3
 71
     0
  0
GROUP
  5
1C39
102
{ACAD_REACTORS
330
18
102
}
330
18
100
AcDbGroup
300

 70
     3
 71
     0
  0
GROUP
  5
4896
102
{ACAD_REACTORS
330
18
102
}
330
18
100
AcDbGroup
300

 70
     3
 71
     0
  0
GROUP
  5
481F
102
{ACAD_REACTORS
330
18
102
}
330
18
100
AcDbGroup
300

 70
     3
 71
     0
  0
GROUP
  5
1459
102
{ACAD_REACTORS
330
18
102
}
330
18
100
AcDbGroup
300

 70
     3
 71
     0
  0
GROUP
  5
49F8
102
{ACAD_REACTORS
330
18
102
}
330
18
100
AcDbGroup
300

 70
     3
 71
     0
  0
GROUP
  5
4974
102
{ACAD_REACTORS
330
18
102
}
330
18
100
AcDbGroup
300

 70
     3
 71
     0
  0
GROUP
  5
4895
102
{ACAD_REACTORS
330
18
102
}
330
18
100
AcDbGroup
300

 70
     3
 71
     0
  0
GROUP
  5
6322
102
{ACAD_REACTORS
330
18
102
}
330
18
100
AcDbGroup
300

 70
     3
 71
     0
  0
GROUP
  5
497E
102
{ACAD_REACTORS
330
18
102
}
330
18
100
AcDbGroup
300

 70
     3
 71
     0
  0
GROUP
  5
1AD0
102
{ACAD_REACTORS
330
18
102
}
330
18
100
AcDbGroup
300

 70
     3
 71
     0
  0
GROUP
  5
639E
102
{ACAD_REACTORS
330
18
102
}
330
18
100
AcDbGroup
300

 70
     3
 71
     0
  0
GROUP
  5
6220
102
{ACAD_REACTORS
330
18
102
}
330
18
100
AcDbGroup
300

 70
     3
 71
     0
  0
GROUP
  5
63E1
102
{ACAD_REACTORS
330
18
102
}
330
18
100
AcDbGroup
300

 70
     3
 71
     0
  0
GROUP
  5
6300
102
{ACAD_REACTORS
330
18
102
}
330
18
100
AcDbGroup
300

 70
     3
 71
     0
  0
GROUP
  5
48B4
102
{ACAD_REACTORS
330
18
102
}
330
18
100
AcDbGroup
300

 70
     3
 71
     0
  0
GROUP
  5
4A17
102
{ACAD_REACTORS
330
18
102
}
330
18
100
AcDbGroup
300

 70
     3
 71
     0
  0
GROUP
  5
1B92
102
{ACAD_REACTORS
330
18
102
}
330
18
100
AcDbGroup
300

 70
     3
 71
     0
  0
GROUP
  5
1B2A
102
{ACAD_REACTORS
330
18
102
}
330
18
100
AcDbGroup
300

 70
     3
 71
     0
  0
GROUP
  5
4991
102
{ACAD_REACTORS
330
18
102
}
330
18
100
AcDbGroup
300

 70
     3
 71
     0
  0
GROUP
  5
48D2
102
{ACAD_REACTORS
330
18
102
}
330
18
100
AcDbGroup
300

 70
     3
 71
     0
  0
GROUP
  5
1C15
102
{ACAD_REACTORS
330
18
102
}
330
18
100
AcDbGroup
300

 70
     3
 71
     0
  0
GROUP
  5
1C58
102
{ACAD_REACTORS
330
18
102
}
330
18
100
AcDbGroup
300

 70
     3
 71
     0
  0
GROUP
  5
49BD
102
{ACAD_REACTORS
330
18
102
}
330
18
100
AcDbGroup
300

 70
     3
 71
     0
  0
GROUP
  5
1B8B
102
{ACAD_REACTORS
330
18
102
}
330
18
100
AcDbGroup
300

 70
     3
 71
     0
  0
GROUP
  5
1C1B
102
{ACAD_REACTORS
330
18
102
}
330
18
100
AcDbGroup
300

 70
     3
 71
     0
  0
GROUP
  5
634C
102
{ACAD_REACTORS
330
18
102
}
330
18
100
AcDbGroup
300

 70
     3
 71
     0
  0
GROUP
  5
495E
102
{ACAD_REACTORS
330
18
102
}
330
18
100
AcDbGroup
300

 70
     3
 71
     0
  0
GROUP
  5
1C20
102
{ACAD_REACTORS
330
18
102
}
330
18
100
AcDbGroup
300

 70
     3
 71
     0
  0
GROUP
  5
1C3A
102
{ACAD_REACTORS
330
18
102
}
330
18
100
AcDbGroup
300

 70
     3
 71
     0
  0
GROUP
  5
48C8
102
{ACAD_REACTORS
330
18
102
}
330
18
100
AcDbGroup
300

 70
     3
 71
     0
  0
GROUP
  5
49E8
102
{ACAD_REACTORS
330
18
102
}
330
18
100
AcDbGroup
300

 70
     3
 71
     0
  0
GROUP
  5
37A6
102
{ACAD_REACTORS
330
18
102
}
330
18
100
AcDbGroup
300

 70
     3
 71
     0
  0
GROUP
  5
635A
102
{ACAD_REACTORS
330
18
102
}
330
18
100
AcDbGroup
300

 70
     3
 71
     0
  0
GROUP
  5
1BD4
102
{ACAD_REACTORS
330
18
102
}
330
18
100
AcDbGroup
300

 70
     3
 71
     0
  0
GROUP
  5
62A0
102
{ACAD_REACTORS
330
18
102
}
330
18
100
AcDbGroup
300

 70
     3
 71
     0
  0
GROUP
  5
4997
102
{ACAD_REACTORS
330
18
102
}
330
18
100
AcDbGroup
300

 70
     3
 71
     0
  0
GROUP
  5
6317
102
{ACAD_REACTORS
330
18
102
}
330
18
100
AcDbGroup
300

 70
     3
 71
     0
  0
GROUP
  5
1C47
102
{ACAD_REACTORS
330
18
102
}
330
18
100
AcDbGroup
300

 70
     3
 71
     0
  0
GROUP
  5
1C21
102
{ACAD_REACTORS
330
18
102
}
330
18
100
AcDbGroup
300

 70
     3
 71
     0
  0
GROUP
  5
1AEE
102
{ACAD_REACTORS
330
18
102
}
330
18
100
AcDbGroup
300

 70
     3
 71
     0
  0
GROUP
  5
62B2
102
{ACAD_REACTORS
330
18
102
}
330
18
100
AcDbGroup
300

 70
     3
 71
     0
  0
GROUP
  5
6248
102
{ACAD_REACTORS
330
18
102
}
330
18
100
AcDbGroup
300

 70
     3
 71
     0
  0
GROUP
  5
1AED
102
{ACAD_REACTORS
330
18
102
}
330
18
100
AcDbGroup
300

 70
     3
 71
     0
  0
GROUP
  5
497F
102
{ACAD_REACTORS
330
18
102
}
330
18
100
AcDbGroup
300

 70
     3
 71
     0
  0
GROUP
  5
1C48
102
{ACAD_REACTORS
330
18
102
}
330
18
100
AcDbGroup
300

 70
     3
 71
     0
  0
GROUP
  5
1BD3
102
{ACAD_REACTORS
330
18
102
}
330
18
100
AcDbGroup
300

 70
     3
 71
     0
  0
GROUP
  5
48BB
102
{ACAD_REACTORS
330
18
102
}
330
18
100
AcDbGroup
300

 70
     3
 71
     0
  0
GROUP
  5
1C37
102
{ACAD_REACTORS
330
18
102
}
330
18
100
AcDbGroup
300

 70
     3
 71
     0
  0
GROUP
  5
1C44
102
{ACAD_REACTORS
330
18
102
}
330
18
100
AcDbGroup
300

 70
     3
 71
     0
  0
GROUP
  5
633C
102
{ACAD_REACTORS
330
18
102
}
330
18
100
AcDbGroup
300

 70
     3
 71
     0
  0
GROUP
  5
49F6
102
{ACAD_REACTORS
330
18
102
}
330
18
100
AcDbGroup
300

 70
     3
 71
     0
  0
GROUP
  5
62CA
102
{ACAD_REACTORS
330
18
102
}
330
18
100
AcDbGroup
300

 70
     3
 71
     0
  0
GROUP
  5
496F
102
{ACAD_REACTORS
330
18
102
}
330
18
100
AcDbGroup
300

 70
     3
 71
     0
  0
GROUP
  5
62AA
102
{ACAD_REACTORS
330
18
102
}
330
18
100
AcDbGroup
300

 70
     3
 71
     0
  0
GROUP
  5
49D3
102
{ACAD_REACTORS
330
18
102
}
330
18
100
AcDbGroup
300

 70
     3
 71
     0
  0
GROUP
  5
4955
102
{ACAD_REACTORS
330
18
102
}
330
18
100
AcDbGroup
300

 70
     3
 71
     0
  0
GROUP
  5
1BE9
102
{ACAD_REACTORS
330
18
102
}
330
18
100
AcDbGroup
300

 70
     3
 71
     0
  0
GROUP
  5
49C7
102
{ACAD_REACTORS
330
18
102
}
330
18
100
AcDbGroup
300

 70
     3
 71
     0
  0
GROUP
  5
48AC
102
{ACAD_REACTORS
330
18
102
}
330
18
100
AcDbGroup
300

 70
     3
 71
     0
  0
GROUP
  5
6327
102
{ACAD_REACTORS
330
18
102
}
330
18
100
AcDbGroup
300

 70
     3
 71
     0
  0
GROUP
  5
4973
102
{ACAD_REACTORS
330
18
102
}
330
18
100
AcDbGroup
300

 70
     3
 71
     0
  0
GROUP
  5
1B4A
102
{ACAD_REACTORS
330
18
102
}
330
18
100
AcDbGroup
300

 70
     3
 71
     0
  0
GROUP
  5
1B3E
102
{ACAD_REACTORS
330
18
102
}
330
18
100
AcDbGroup
300

 70
     3
 71
     0
  0
GROUP
  5
1C08
102
{ACAD_REACTORS
330
18
102
}
330
18
100
AcDbGroup
300

 70
     3
 71
     0
  0
GROUP
  5
62F1
102
{ACAD_REACTORS
330
18
102
}
330
18
100
AcDbGroup
300

 70
     3
 71
     0
  0
GROUP
  5
1BBA
102
{ACAD_REACTORS
330
18
102
}
330
18
100
AcDbGroup
300

 70
     3
 71
     0
  0
GROUP
  5
484C
102
{ACAD_REACTORS
330
18
102
}
330
18
100
AcDbGroup
300

 70
     3
 71
     0
  0
GROUP
  5
1462
102
{ACAD_REACTORS
330
18
102
}
330
18
100
AcDbGroup
300

 70
     3
 71
     0
  0
GROUP
  5
1B13
102
{ACAD_REACTORS
330
18
102
}
330
18
100
AcDbGroup
300

 70
     3
 71
     0
  0
GROUP
  5
62C2
102
{ACAD_REACTORS
330
18
102
}
330
18
100
AcDbGroup
300

 70
     3
 71
     0
  0
GROUP
  5
1C46
102
{ACAD_REACTORS
330
18
102
}
330
18
100
AcDbGroup
300

 70
     3
 71
     0
  0
GROUP
  5
63AC
102
{ACAD_REACTORS
330
18
102
}
330
18
100
AcDbGroup
300

 70
     3
 71
     0
  0
GROUP
  5
62F5
102
{ACAD_REACTORS
330
18
102
}
330
18
100
AcDbGroup
300

 70
     3
 71
     0
  0
GROUP
  5
633A
102
{ACAD_REACTORS
330
18
102
}
330
18
100
AcDbGroup
300

 70
     3
 71
     0
  0
GROUP
  5
628F
102
{ACAD_REACTORS
330
18
102
}
330
18
100
AcDbGroup
300

 70
     3
 71
     0
  0
GROUP
  5
1BF9
102
{ACAD_REACTORS
330
18
102
}
330
18
100
AcDbGroup
300

 70
     3
 71
     0
  0
GROUP
  5
1466
102
{ACAD_REACTORS
330
18
102
}
330
18
100
AcDbGroup
300

 70
     3
 71
     0
  0
GROUP
  5
1B69
102
{ACAD_REACTORS
330
18
102
}
330
18
100
AcDbGroup
300

 70
     3
 71
     0
  0
GROUP
  5
48F2
102
{ACAD_REACTORS
330
18
102
}
330
18
100
AcDbGroup
300

 70
     3
 71
     0
  0
GROUP
  5
49DD
102
{ACAD_REACTORS
330
18
102
}
330
18
100
AcDbGroup
300

 70
     3
 71
     0
  0
GROUP
  5
4894
102
{ACAD_REACTORS
330
18
102
}
330
18
100
AcDbGroup
300

 70
     3
 71
     0
  0
GROUP
  5
1B75
102
{ACAD_REACTORS
330
18
102
}
330
18
100
AcDbGroup
300

 70
     3
 71
     0
  0
GROUP
  5
48E6
102
{ACAD_REACTORS
330
18
102
}
330
18
100
AcDbGroup
300

 70
     3
 71
     0
  0
GROUP
  5
1C2B
102
{ACAD_REACTORS
330
18
102
}
330
18
100
AcDbGroup
300

 70
     3
 71
     0
  0
GROUP
  5
1C27
102
{ACAD_REACTORS
330
18
102
}
330
18
100
AcDbGroup
300

 70
     3
 71
     0
  0
GROUP
  5
629C
102
{ACAD_REACTORS
330
18
102
}
330
18
100
AcDbGroup
300

 70
     3
 71
     0
  0
GROUP
  5
4937
102
{ACAD_REACTORS
330
18
102
}
330
18
100
AcDbGroup
300

 70
     3
 71
     0
  0
GROUP
  5
1458
102
{ACAD_REACTORS
330
18
102
}
330
18
100
AcDbGroup
300

 70
     3
 71
     0
  0
GROUP
  5
1BC4
102
{ACAD_REACTORS
330
18
102
}
330
18
100
AcDbGroup
300

 70
     3
 71
     0
  0
GROUP
  5
63D2
102
{ACAD_REACTORS
330
18
102
}
330
18
100
AcDbGroup
300

 70
     3
 71
     0
  0
GROUP
  5
1C4D
102
{ACAD_REACTORS
330
18
102
}
330
18
100
AcDbGroup
300

 70
     3
 71
     0
  0
GROUP
  5
48F5
102
{ACAD_REACTORS
330
18
102
}
330
18
100
AcDbGroup
300

 70
     3
 71
     0
  0
GROUP
  5
4813
102
{ACAD_REACTORS
330
18
102
}
330
18
100
AcDbGroup
300

 70
     3
 71
     0
  0
GROUP
  5
63B6
102
{ACAD_REACTORS
330
18
102
}
330
18
100
AcDbGroup
300

 70
     3
 71
     0
  0
GROUP
  5
49EB
102
{ACAD_REACTORS
330
18
102
}
330
18
100
AcDbGroup
300

 70
     3
 71
     0
  0
GROUP
  5
486C
102
{ACAD_REACTORS
330
18
102
}
330
18
100
AcDbGroup
300

 70
     3
 71
     0
  0
GROUP
  5
37C0
102
{ACAD_REACTORS
330
18
102
}
330
18
100
AcDbGroup
300

 70
     3
 71
     0
  0
GROUP
  5
1BCC
102
{ACAD_REACTORS
330
18
102
}
330
18
100
AcDbGroup
300

 70
     3
 71
     0
  0
GROUP
  5
4A03
102
{ACAD_REACTORS
330
18
102
}
330
18
100
AcDbGroup
300

 70
     3
 71
     0
  0
GROUP
  5
6242
102
{ACAD_REACTORS
330
18
102
}
330
18
100
AcDbGroup
300

 70
     3
 71
     0
  0
GROUP
  5
48B7
102
{ACAD_REACTORS
330
18
102
}
330
18
100
AcDbGroup
300

 70
     3
 71
     0
  0
GROUP
  5
497D
102
{ACAD_REACTORS
330
18
102
}
330
18
100
AcDbGroup
300

 70
     3
 71
     0
  0
GROUP
  5
4912
102
{ACAD_REACTORS
330
18
102
}
330
18
100
AcDbGroup
300

 70
     3
 71
     0
  0
GROUP
  5
48FF
102
{ACAD_REACTORS
330
18
102
}
330
18
100
AcDbGroup
300

 70
     3
 71
     0
  0
GROUP
  5
630E
102
{ACAD_REACTORS
330
18
102
}
330
18
100
AcDbGroup
300

 70
     3
 71
     0
  0
GROUP
  5
6370
102
{ACAD_REACTORS
330
18
102
}
330
18
100
AcDbGroup
300

 70
     3
 71
     0
  0
GROUP
  5
1C56
102
{ACAD_REACTORS
330
18
102
}
330
18
100
AcDbGroup
300

 70
     3
 71
     0
  0
GROUP
  5
622D
102
{ACAD_REACTORS
330
18
102
}
330
18
100
AcDbGroup
300

 70
     3
 71
     0
  0
GROUP
  5
4988
102
{ACAD_REACTORS
330
18
102
}
330
18
100
AcDbGroup
300

 70
     3
 71
     0
  0
GROUP
  5
62BE
102
{ACAD_REACTORS
330
18
102
}
330
18
100
AcDbGroup
300

 70
     3
 71
     0
  0
GROUP
  5
6241
102
{ACAD_REACTORS
330
18
102
}
330
18
100
AcDbGroup
300

 70
     3
 71
     0
  0
GROUP
  5
48FC
102
{ACAD_REACTORS
330
18
102
}
330
18
100
AcDbGroup
300

 70
     3
 71
     0
  0
GROUP
  5
4958
102
{ACAD_REACTORS
330
18
102
}
330
18
100
AcDbGroup
300

 70
     3
 71
     0
  0
GROUP
  5
63EA
102
{ACAD_REACTORS
330
18
102
}
330
18
100
AcDbGroup
300

 70
     3
 71
     0
  0
GROUP
  5
1BDF
102
{ACAD_REACTORS
330
18
102
}
330
18
100
AcDbGroup
300

 70
     3
 71
     0
  0
GROUP
  5
6307
102
{ACAD_REACTORS
330
18
102
}
330
18
100
AcDbGroup
300

 70
     3
 71
     0
  0
GROUP
  5
4824
102
{ACAD_REACTORS
330
18
102
}
330
18
100
AcDbGroup
300

 70
     3
 71
     0
  0
GROUP
  5
63DD
102
{ACAD_REACTORS
330
18
102
}
330
18
100
AcDbGroup
300

 70
     3
 71
     0
  0
GROUP
  5
489E
102
{ACAD_REACTORS
330
18
102
}
330
18
100
AcDbGroup
300

 70
     3
 71
     0
  0
GROUP
  5
49C9
102
{ACAD_REACTORS
330
18
102
}
330
18
100
AcDbGroup
300

 70
     3
 71
     0
  0
GROUP
  5
499B
102
{ACAD_REACTORS
330
18
102
}
330
18
100
AcDbGroup
300

 70
     3
 71
     0
  0
GROUP
  5
37A5
102
{ACAD_REACTORS
330
18
102
}
330
18
100
AcDbGroup
300

 70
     3
 71
     0
  0
GROUP
  5
6236
102
{ACAD_REACTORS
330
18
102
}
330
18
100
AcDbGroup
300

 70
     3
 71
     0
  0
GROUP
  5
6264
102
{ACAD_REACTORS
330
18
102
}
330
18
100
AcDbGroup
300

 70
     3
 71
     0
  0
GROUP
  5
1B70
102
{ACAD_REACTORS
330
18
102
}
330
18
100
AcDbGroup
300

 70
     3
 71
     0
  0
GROUP
  5
37B5
102
{ACAD_REACTORS
330
18
102
}
330
18
100
AcDbGroup
300

 70
     3
 71
     0
  0
GROUP
  5
63C2
102
{ACAD_REACTORS
330
18
102
}
330
18
100
AcDbGroup
300

 70
     3
 71
     0
  0
GROUP
  5
4952
102
{ACAD_REACTORS
330
18
102
}
330
18
100
AcDbGroup
300

 70
     3
 71
     0
  0
GROUP
  5
49B1
102
{ACAD_REACTORS
330
18
102
}
330
18
100
AcDbGroup
300

 70
     3
 71
     0
  0
GROUP
  5
48BD
102
{ACAD_REACTORS
330
18
102
}
330
18
100
AcDbGroup
300

 70
     3
 71
     0
  0
GROUP
  5
49A5
102
{ACAD_REACTORS
330
18
102
}
330
18
100
AcDbGroup
300

 70
     3
 71
     0
  0
GROUP
  5
1BD1
102
{ACAD_REACTORS
330
18
102
}
330
18
100
AcDbGroup
300

 70
     3
 71
     0
  0
GROUP
  5
1B99
102
{ACAD_REACTORS
330
18
102
}
330
18
100
AcDbGroup
300

 70
     3
 71
     0
  0
GROUP
  5
4993
102
{ACAD_REACTORS
330
18
102
}
330
18
100
AcDbGroup
300

 70
     3
 71
     0
  0
GROUP
  5
4948
102
{ACAD_REACTORS
330
18
102
}
330
18
100
AcDbGroup
300

 70
     3
 71
     0
  0
GROUP
  5
63FC
102
{ACAD_REACTORS
330
18
102
}
330
18
100
AcDbGroup
300

 70
     3
 71
     0
  0
GROUP
  5
62F9
102
{ACAD_REACTORS
330
18
102
}
330
18
100
AcDbGroup
300

 70
     3
 71
     0
  0
GROUP
  5
4981
102
{ACAD_REACTORS
330
18
102
}
330
18
100
AcDbGroup
300

 70
     3
 71
     0
  0
GROUP
  5
4962
102
{ACAD_REACTORS
330
18
102
}
330
18
100
AcDbGroup
300

 70
     3
 71
     0
  0
GROUP
  5
4931
102
{ACAD_REACTORS
330
18
102
}
330
18
100
AcDbGroup
300

 70
     3
 71
     0
  0
GROUP
  5
1B22
102
{ACAD_REACTORS
330
18
102
}
330
18
100
AcDbGroup
300

 70
     3
 71
     0
  0
GROUP
  5
4932
102
{ACAD_REACTORS
330
18
102
}
330
18
100
AcDbGroup
300

 70
     3
 71
     0
  0
GROUP
  5
1C23
102
{ACAD_REACTORS
330
18
102
}
330
18
100
AcDbGroup
300

 70
     3
 71
     0
  0
GROUP
  5
1BF6
102
{ACAD_REACTORS
330
18
102
}
330
18
100
AcDbGroup
300

 70
     3
 71
     0
  0
GROUP
  5
63A8
102
{ACAD_REACTORS
330
18
102
}
330
18
100
AcDbGroup
300

 70
     3
 71
     0
  0
GROUP
  5
63A5
102
{ACAD_REACTORS
330
18
102
}
330
18
100
AcDbGroup
300

 70
     3
 71
     0
  0
GROUP
  5
379B
102
{ACAD_REACTORS
330
18
102
}
330
18
100
AcDbGroup
300

 70
     3
 71
     0
  0
GROUP
  5
62A5
102
{ACAD_REACTORS
330
18
102
}
330
18
100
AcDbGroup
300

 70
     3
 71
     0
  0
GROUP
  5
6227
102
{ACAD_REACTORS
330
18
102
}
330
18
100
AcDbGroup
300

 70
     3
 71
     0
  0
GROUP
  5
1B79
102
{ACAD_REACTORS
330
18
102
}
330
18
100
AcDbGroup
300

 70
     3
 71
     0
  0
GROUP
  5
4880
102
{ACAD_REACTORS
330
18
102
}
330
18
100
AcDbGroup
300

 70
     3
 71
     0
  0
GROUP
  5
1AE0
102
{ACAD_REACTORS
330
18
102
}
330
18
100
AcDbGroup
300

 70
     3
 71
     0
  0
GROUP
  5
1B8C
102
{ACAD_REACTORS
330
18
102
}
330
18
100
AcDbGroup
300

 70
     3
 71
     0
  0
GROUP
  5
49AB
102
{ACAD_REACTORS
330
18
102
}
330
18
100
AcDbGroup
300

 70
     3
 71
     0
  0
GROUP
  5
1B72
102
{ACAD_REACTORS
330
18
102
}
330
18
100
AcDbGroup
300

 70
     3
 71
     0
  0
GROUP
  5
621A
102
{ACAD_REACTORS
330
18
102
}
330
18
100
AcDbGroup
300

 70
     3
 71
     0
  0
GROUP
  5
1BDE
102
{ACAD_REACTORS
330
18
102
}
330
18
100
AcDbGroup
300

 70
     3
 71
     0
  0
GROUP
  5
48EC
102
{ACAD_REACTORS
330
18
102
}
330
18
100
AcDbGroup
300

 70
     3
 71
     0
  0
GROUP
  5
638A
102
{ACAD_REACTORS
330
18
102
}
330
18
100
AcDbGroup
300

 70
     3
 71
     0
  0
GROUP
  5
4890
102
{ACAD_REACTORS
330
18
102
}
330
18
100
AcDbGroup
300

 70
     3
 71
     0
  0
GROUP
  5
6309
102
{ACAD_REACTORS
330
18
102
}
330
18
100
AcDbGroup
300

 70
     3
 71
     0
  0
GROUP
  5
1BFB
102
{ACAD_REACTORS
330
18
102
}
330
18
100
AcDbGroup
300

 70
     3
 71
     0
  0
GROUP
  5
4864
102
{ACAD_REACTORS
330
18
102
}
330
18
100
AcDbGroup
300

 70
     3
 71
     0
  0
GROUP
  5
497B
102
{ACAD_REACTORS
330
18
102
}
330
18
100
AcDbGroup
300

 70
     3
 71
     0
  0
GROUP
  5
62D3
102
{ACAD_REACTORS
330
18
102
}
330
18
100
AcDbGroup
300

 70
     3
 71
     1
  0
GROUP
  5
6233
102
{ACAD_REACTORS
330
18
102
}
330
18
100
AcDbGroup
300

 70
     3
 71
     0
  0
GROUP
  5
1BB7
102
{ACAD_REACTORS
330
18
102
}
330
18
100
AcDbGroup
300

 70
     3
 71
     0
  0
GROUP
  5
1C01
102
{ACAD_REACTORS
330
18
102
}
330
18
100
AcDbGroup
300

 70
     3
 71
     0
  0
GROUP
  5
62AE
102
{ACAD_REACTORS
330
18
102
}
330
18
100
AcDbGroup
300

 70
     3
 71
     0
  0
GROUP
  5
48E0
102
{ACAD_REACTORS
330
18
102
}
330
18
100
AcDbGroup
300

 70
     3
 71
     0
  0
GROUP
  5
633E
102
{ACAD_REACTORS
330
18
102
}
330
18
100
AcDbGroup
300

 70
     3
 71
     0
  0
GROUP
  5
63D9
102
{ACAD_REACTORS
330
18
102
}
330
18
100
AcDbGroup
300

 70
     3
 71
     0
  0
GROUP
  5
6424
102
{ACAD_REACTORS
330
18
102
}
330
18
100
AcDbGroup
300

 70
     3
 71
     0
  0
GROUP
  5
492D
102
{ACAD_REACTORS
330
18
102
}
330
18
100
AcDbGroup
300

 70
     3
 71
     0
  0
GROUP
  5
48B5
102
{ACAD_REACTORS
330
18
102
}
330
18
100
AcDbGroup
300

 70
     3
 71
     0
  0
GROUP
  5
4964
102
{ACAD_REACTORS
330
18
102
}
330
18
100
AcDbGroup
300

 70
     3
 71
     0
  0
GROUP
  5
4884
102
{ACAD_REACTORS
330
18
102
}
330
18
100
AcDbGroup
300

 70
     3
 71
     0
  0
GROUP
  5
1B41
102
{ACAD_REACTORS
330
18
102
}
330
18
100
AcDbGroup
300

 70
     3
 71
     0
  0
GROUP
  5
1BB2
102
{ACAD_REACTORS
330
18
102
}
330
18
100
AcDbGroup
300

 70
     3
 71
     0
  0
GROUP
  5
49CB
102
{ACAD_REACTORS
330
18
102
}
330
18
100
AcDbGroup
300

 70
     3
 71
     0
  0
GROUP
  5
145B
102
{ACAD_REACTORS
330
18
102
}
330
18
100
AcDbGroup
300

 70
     3
 71
     0
  0
GROUP
  5
1AE5
102
{ACAD_REACTORS
330
18
102
}
330
18
100
AcDbGroup
300

 70
     3
 71
     0
  0
GROUP
  5
4950
102
{ACAD_REACTORS
330
18
102
}
330
18
100
AcDbGroup
300

 70
     3
 71
     0
  0
GROUP
  5
1B5F
102
{ACAD_REACTORS
330
18
102
}
330
18
100
AcDbGroup
300

 70
     3
 71
     0
  0
GROUP
  5
6308
102
{ACAD_REACTORS
330
18
102
}
330
18
100
AcDbGroup
300

 70
     3
 71
     0
  0
GROUP
  5
4845
102
{ACAD_REACTORS
330
18
102
}
330
18
100
AcDbGroup
300

 70
     3
 71
     0
  0
GROUP
  5
1C05
102
{ACAD_REACTORS
330
18
102
}
330
18
100
AcDbGroup
300

 70
     3
 71
     0
  0
GROUP
  5
1C4E
102
{ACAD_REACTORS
330
18
102
}
330
18
100
AcDbGroup
300

 70
     3
 71
     0
  0
GROUP
  5
49B9
102
{ACAD_REACTORS
330
18
102
}
330
18
100
AcDbGroup
300

 70
     3
 71
     0
  0
GROUP
  5
63E3
102
{ACAD_REACTORS
330
18
102
}
330
18
100
AcDbGroup
300

 70
     3
 71
     0
  0
GROUP
  5
1BF3
102
{ACAD_REACTORS
330
18
102
}
330
18
100
AcDbGroup
300

 70
     3
 71
     0
  0
GROUP
  5
1C35
102
{ACAD_REACTORS
330
18
102
}
330
18
100
AcDbGroup
300

 70
     3
 71
     0
  0
GROUP
  5
4946
102
{ACAD_REACTORS
330
18
102
}
330
18
100
AcDbGroup
300

 70
     3
 71
     0
  0
GROUP
  5
62C3
102
{ACAD_REACTORS
330
18
102
}
330
18
100
AcDbGroup
300

 70
     3
 71
     0
  0
GROUP
  5
6219
102
{ACAD_REACTORS
330
18
102
}
330
18
100
AcDbGroup
300

 70
     3
 71
     0
  0
GROUP
  5
63F7
102
{ACAD_REACTORS
330
18
102
}
330
18
100
AcDbGroup
300

 70
     3
 71
     0
  0
GROUP
  5
631E
102
{ACAD_REACTORS
330
18
102
}
330
18
100
AcDbGroup
300

 70
     3
 71
     0
  0
GROUP
  5
49AE
102
{ACAD_REACTORS
330
18
102
}
330
18
100
AcDbGroup
300

 70
     3
 71
     0
  0
GROUP
  5
4A01
102
{ACAD_REACTORS
330
18
102
}
330
18
100
AcDbGroup
300

 70
     3
 71
     0
  0
GROUP
  5
4847
102
{ACAD_REACTORS
330
18
102
}
330
18
100
AcDbGroup
300

 70
     3
 71
     0
  0
GROUP
  5
37A9
102
{ACAD_REACTORS
330
18
102
}
330
18
100
AcDbGroup
300

 70
     3
 71
     0
  0
GROUP
  5
6395
102
{ACAD_REACTORS
330
18
102
}
330
18
100
AcDbGroup
300

 70
     3
 71
     0
  0
GROUP
  5
1B24
102
{ACAD_REACTORS
330
18
102
}
330
18
100
AcDbGroup
300

 70
     3
 71
     0
  0
GROUP
  5
49EA
102
{ACAD_REACTORS
330
18
102
}
330
18
100
AcDbGroup
300

 70
     3
 71
     0
  0
GROUP
  5
497C
102
{ACAD_REACTORS
330
18
102
}
330
18
100
AcDbGroup
300

 70
     3
 71
     0
  0
GROUP
  5
63B7
102
{ACAD_REACTORS
330
18
102
}
330
18
100
AcDbGroup
300

 70
     3
 71
     0
  0
GROUP
  5
63CA
102
{ACAD_REACTORS
330
18
102
}
330
18
100
AcDbGroup
300

 70
     3
 71
     0
  0
GROUP
  5
1B12
102
{ACAD_REACTORS
330
18
102
}
330
18
100
AcDbGroup
300

 70
     3
 71
     0
  0
GROUP
  5
37B7
102
{ACAD_REACTORS
330
18
102
}
330
18
100
AcDbGroup
300

 70
     3
 71
     0
  0
GROUP
  5
63D1
102
{ACAD_REACTORS
330
18
102
}
330
18
100
AcDbGroup
300

 70
     3
 71
     0
  0
GROUP
  5
1C22
102
{ACAD_REACTORS
330
18
102
}
330
18
100
AcDbGroup
300

 70
     3
 71
     0
  0
GROUP
  5
638C
102
{ACAD_REACTORS
330
18
102
}
330
18
100
AcDbGroup
300

 70
     3
 71
     0
  0
GROUP
  5
6362
102
{ACAD_REACTORS
330
18
102
}
330
18
100
AcDbGroup
300

 70
     3
 71
     0
  0
GROUP
  5
62C0
102
{ACAD_REACTORS
330
18
102
}
330
18
100
AcDbGroup
300

 70
     3
 71
     0
  0
GROUP
  5
1C3F
102
{ACAD_REACTORS
330
18
102
}
330
18
100
AcDbGroup
300

 70
     3
 71
     0
  0
GROUP
  5
1B07
102
{ACAD_REACTORS
330
18
102
}
330
18
100
AcDbGroup
300

 70
     3
 71
     0
  0
GROUP
  5
636B
102
{ACAD_REACTORS
330
18
102
}
330
18
100
AcDbGroup
300

 70
     3
 71
     0
  0
GROUP
  5
1BD5
102
{ACAD_REACTORS
330
18
102
}
330
18
100
AcDbGroup
300

 70
     3
 71
     0
  0
GROUP
  5
1B51
102
{ACAD_REACTORS
330
18
102
}
330
18
100
AcDbGroup
300

 70
     3
 71
     0
  0
GROUP
  5
4967
102
{ACAD_REACTORS
330
18
102
}
330
18
100
AcDbGroup
300

 70
     3
 71
     0
  0
GROUP
  5
482C
102
{ACAD_REACTORS
330
18
102
}
330
18
100
AcDbGroup
300

 70
     3
 71
     0
  0
GROUP
  5
634D
102
{ACAD_REACTORS
330
18
102
}
330
18
100
AcDbGroup
300

 70
     3
 71
     0
  0
GROUP
  5
49E4
102
{ACAD_REACTORS
330
18
102
}
330
18
100
AcDbGroup
300

 70
     3
 71
     0
  0
GROUP
  5
49BC
102
{ACAD_REACTORS
330
18
102
}
330
18
100
AcDbGroup
300

 70
     3
 71
     0
  0
GROUP
  5
49A9
102
{ACAD_REACTORS
330
18
102
}
330
18
100
AcDbGroup
300

 70
     3
 71
     0
  0
GROUP
  5
6359
102
{ACAD_REACTORS
330
18
102
}
330
18
100
AcDbGroup
300

 70
     3
 71
     0
  0
GROUP
  5
4926
102
{ACAD_REACTORS
330
18
102
}
330
18
100
AcDbGroup
300

 70
     3
 71
     0
  0
GROUP
  5
1ACF
102
{ACAD_REACTORS
330
18
102
}
330
18
100
AcDbGroup
300

 70
     3
 71
     0
  0
GROUP
  5
1B7F
102
{ACAD_REACTORS
330
18
102
}
330
18
100
AcDbGroup
300

 70
     3
 71
     0
  0
GROUP
  5
4A18
102
{ACAD_REACTORS
330
18
102
}
330
18
100
AcDbGroup
300

 70
     3
 71
     0
  0
GROUP
  5
1B09
102
{ACAD_REACTORS
330
18
102
}
330
18
100
AcDbGroup
300

 70
     3
 71
     0
  0
GROUP
  5
634E
102
{ACAD_REACTORS
330
18
102
}
330
18
100
AcDbGroup
300

 70
     3
 71
     0
  0
GROUP
  5
4872
102
{ACAD_REACTORS
330
18
102
}
330
18
100
AcDbGroup
300

 70
     3
 71
     0
  0
GROUP
  5
6404
102
{ACAD_REACTORS
330
18
102
}
330
18
100
AcDbGroup
300

 70
     3
 71
     0
  0
GROUP
  5
1B6A
102
{ACAD_REACTORS
330
18
102
}
330
18
100
AcDbGroup
300

 70
     3
 71
     0
  0
GROUP
  5
63D4
102
{ACAD_REACTORS
330
18
102
}
330
18
100
AcDbGroup
300

 70
     3
 71
     0
  0
GROUP
  5
63FA
102
{ACAD_REACTORS
330
18
102
}
330
18
100
AcDbGroup
300

 70
     3
 71
     0
  0
GROUP
  5
63F8
102
{ACAD_REACTORS
330
18
102
}
330
18
100
AcDbGroup
300

 70
     3
 71
     0
  0
GROUP
  5
1B8D
102
{ACAD_REACTORS
330
18
102
}
330
18
100
AcDbGroup
300

 70
     3
 71
     0
  0
GROUP
  5
6357
102
{ACAD_REACTORS
330
18
102
}
330
18
100
AcDbGroup
300

 70
     3
 71
     0
  0
GROUP
  5
49B2
102
{ACAD_REACTORS
330
18
102
}
330
18
100
AcDbGroup
300

 70
     3
 71
     0
  0
GROUP
  5
1B03
102
{ACAD_REACTORS
330
18
102
}
330
18
100
AcDbGroup
300

 70
     3
 71
     0
  0
GROUP
  5
6224
102
{ACAD_REACTORS
330
18
102
}
330
18
100
AcDbGroup
300

 70
     3
 71
     0
  0
GROUP
  5
1C24
102
{ACAD_REACTORS
330
18
102
}
330
18
100
AcDbGroup
300

 70
     3
 71
     0
  0
GROUP
  5
1C07
102
{ACAD_REACTORS
330
18
102
}
330
18
100
AcDbGroup
300

 70
     3
 71
     0
  0
GROUP
  5
6417
102
{ACAD_REACTORS
330
18
102
}
330
18
100
AcDbGroup
300

 70
     3
 71
     0
  0
GROUP
  5
1B53
102
{ACAD_REACTORS
330
18
102
}
330
18
100
AcDbGroup
300

 70
     3
 71
     0
  0
GROUP
  5
63FE
102
{ACAD_REACTORS
330
18
102
}
330
18
100
AcDbGroup
300

 70
     3
 71
     0
  0
GROUP
  5
486F
102
{ACAD_REACTORS
330
18
102
}
330
18
100
AcDbGroup
300

 70
     3
 71
     0
  0
GROUP
  5
1BBE
102
{ACAD_REACTORS
330
18
102
}
330
18
100
AcDbGroup
300

 70
     3
 71
     0
  0
GROUP
  5
62ED
102
{ACAD_REACTORS
330
18
102
}
330
18
100
AcDbGroup
300

 70
     3
 71
     0
  0
GROUP
  5
1BC0
102
{ACAD_REACTORS
330
18
102
}
330
18
100
AcDbGroup
300

 70
     3
 71
     0
  0
GROUP
  5
62B9
102
{ACAD_REACTORS
330
18
102
}
330
18
100
AcDbGroup
300

 70
     3
 71
     0
  0
GROUP
  5
49E6
102
{ACAD_REACTORS
330
18
102
}
330
18
100
AcDbGroup
300

 70
     3
 71
     0
  0
GROUP
  5
632B
102
{ACAD_REACTORS
330
18
102
}
330
18
100
AcDbGroup
300

 70
     3
 71
     0
  0
GROUP
  5
6406
102
{ACAD_REACTORS
330
18
102
}
330
18
100
AcDbGroup
300

 70
     3
 71
     0
  0
GROUP
  5
6240
102
{ACAD_REACTORS
330
18
102
}
330
18
100
AcDbGroup
300

 70
     3
 71
     0
  0
GROUP
  5
482E
102
{ACAD_REACTORS
330
18
102
}
330
18
100
AcDbGroup
300

 70
     3
 71
     0
  0
GROUP
  5
48E4
102
{ACAD_REACTORS
330
18
102
}
330
18
100
AcDbGroup
300

 70
     3
 71
     0
  0
GROUP
  5
1B98
102
{ACAD_REACTORS
330
18
102
}
330
18
100
AcDbGroup
300

 70
     3
 71
     0
  0
GROUP
  5
4811
102
{ACAD_REACTORS
330
18
102
}
330
18
100
AcDbGroup
300

 70
     3
 71
     0
  0
GROUP
  5
1C18
102
{ACAD_REACTORS
330
18
102
}
330
18
100
AcDbGroup
300

 70
     3
 71
     0
  0
GROUP
  5
37AD
102
{ACAD_REACTORS
330
18
102
}
330
18
100
AcDbGroup
300

 70
     3
 71
     0
  0
GROUP
  5
623F
102
{ACAD_REACTORS
330
18
102
}
330
18
100
AcDbGroup
300

 70
     3
 71
     0
  0
GROUP
  5
49D2
102
{ACAD_REACTORS
330
18
102
}
330
18
100
AcDbGroup
300

 70
     3
 71
     0
  0
GROUP
  5
4903
102
{ACAD_REACTORS
330
18
102
}
330
18
100
AcDbGroup
300

 70
     3
 71
     0
  0
GROUP
  5
63CB
102
{ACAD_REACTORS
330
18
102
}
330
18
100
AcDbGroup
300

 70
     3
 71
     0
  0
GROUP
  5
1BD8
102
{ACAD_REACTORS
330
18
102
}
330
18
100
AcDbGroup
300

 70
     3
 71
     0
  0
GROUP
  5
6393
102
{ACAD_REACTORS
330
18
102
}
330
18
100
AcDbGroup
300

 70
     3
 71
     0
  0
GROUP
  5
6383
102
{ACAD_REACTORS
330
18
102
}
330
18
100
AcDbGroup
300

 70
     3
 71
     0
  0
GROUP
  5
63E5
102
{ACAD_REACTORS
330
18
102
}
330
18
100
AcDbGroup
300

 70
     3
 71
     0
  0
GROUP
  5
639D
102
{ACAD_REACTORS
330
18
102
}
330
18
100
AcDbGroup
300

 70
     3
 71
     0
  0
GROUP
  5
6277
102
{ACAD_REACTORS
330
18
102
}
330
18
100
AcDbGroup
300

 70
     3
 71
     0
  0
GROUP
  5
1BD6
102
{ACAD_REACTORS
330
18
102
}
330
18
100
AcDbGroup
300

 70
     3
 71
     0
  0
GROUP
  5
1BB8
102
{ACAD_REACTORS
330
18
102
}
330
18
100
AcDbGroup
300

 70
     3
 71
     0
  0
GROUP
  5
489F
102
{ACAD_REACTORS
330
18
102
}
330
18
100
AcDbGroup
300

 70
     3
 71
     0
  0
GROUP
  5
49CA
102
{ACAD_REACTORS
330
18
102
}
330
18
100
AcDbGroup
300

 70
     3
 71
     0
  0
GROUP
  5
1B58
102
{ACAD_REACTORS
330
18
102
}
330
18
100
AcDbGroup
300

 70
     3
 71
     0
  0
GROUP
  5
62EE
102
{ACAD_REACTORS
330
18
102
}
330
18
100
AcDbGroup
300

 70
     3
 71
     0
  0
GROUP
  5
63E7
102
{ACAD_REACTORS
330
18
102
}
330
18
100
AcDbGroup
300

 70
     3
 71
     0
  0
GROUP
  5
48D3
102
{ACAD_REACTORS
330
18
102
}
330
18
100
AcDbGroup
300

 70
     3
 71
     0
  0
GROUP
  5
4905
102
{ACAD_REACTORS
330
18
102
}
330
18
100
AcDbGroup
300

 70
     3
 71
     0
  0
GROUP
  5
6415
102
{ACAD_REACTORS
330
18
102
}
330
18
100
AcDbGroup
300

 70
     3
 71
     0
  0
GROUP
  5
49CE
102
{ACAD_REACTORS
330
18
102
}
330
18
100
AcDbGroup
300

 70
     3
 71
     0
  0
GROUP
  5
1C1C
102
{ACAD_REACTORS
330
18
102
}
330
18
100
AcDbGroup
300

 70
     3
 71
     0
  0
GROUP
  5
48DC
102
{ACAD_REACTORS
330
18
102
}
330
18
100
AcDbGroup
300

 70
     3
 71
     0
  0
GROUP
  5
379A
102
{ACAD_REACTORS
330
18
102
}
330
18
100
AcDbGroup
300

 70
     3
 71
     0
  0
GROUP
  5
49FA
102
{ACAD_REACTORS
330
18
102
}
330
18
100
AcDbGroup
300

 70
     3
 71
     0
  0
GROUP
  5
37AC
102
{ACAD_REACTORS
330
18
102
}
330
18
100
AcDbGroup
300

 70
     3
 71
     0
  0
GROUP
  5
49A6
102
{ACAD_REACTORS
330
18
102
}
330
18
100
AcDbGroup
300

 70
     3
 71
     0
  0
GROUP
  5
636F
102
{ACAD_REACTORS
330
18
102
}
330
18
100
AcDbGroup
300

 70
     3
 71
     0
  0
GROUP
  5
1B7D
102
{ACAD_REACTORS
330
18
102
}
330
18
100
AcDbGroup
300

 70
     3
 71
     0
  0
GROUP
  5
4882
102
{ACAD_REACTORS
330
18
102
}
330
18
100
AcDbGroup
300

 70
     3
 71
     0
  0
GROUP
  5
637C
102
{ACAD_REACTORS
330
18
102
}
330
18
100
AcDbGroup
300

 70
     3
 71
     0
  0
GROUP
  5
4957
102
{ACAD_REACTORS
330
18
102
}
330
18
100
AcDbGroup
300

 70
     3
 71
     0
  0
GROUP
  5
1B52
102
{ACAD_REACTORS
330
18
102
}
330
18
100
AcDbGroup
300

 70
     3
 71
     0
  0
GROUP
  5
484D
102
{ACAD_REACTORS
330
18
102
}
330
18
100
AcDbGroup
300

 70
     3
 71
     0
  0
GROUP
  5
49B7
102
{ACAD_REACTORS
330
18
102
}
330
18
100
AcDbGroup
300

 70
     3
 71
     0
  0
GROUP
  5
49BA
102
{ACAD_REACTORS
330
18
102
}
330
18
100
AcDbGroup
300

 70
     3
 71
     0
  0
GROUP
  5
1BCD
102
{ACAD_REACTORS
330
18
102
}
330
18
100
AcDbGroup
300

 70
     3
 71
     0
  0
GROUP
  5
6223
102
{ACAD_REACTORS
330
18
102
}
330
18
100
AcDbGroup
300

 70
     3
 71
     0
  0
GROUP
  5
4A08
102
{ACAD_REACTORS
330
18
102
}
330
18
100
AcDbGroup
300

 70
     3
 71
     0
  0
GROUP
  5
1BEC
102
{ACAD_REACTORS
330
18
102
}
330
18
100
AcDbGroup
300

 70
     3
 71
     0
  0
GROUP
  5
488B
102
{ACAD_REACTORS
330
18
102
}
330
18
100
AcDbGroup
300

 70
     3
 71
     0
  0
GROUP
  5
1ACD
102
{ACAD_REACTORS
330
18
102
}
330
18
100
AcDbGroup
300

 70
     3
 71
     0
  0
GROUP
  5
4999
102
{ACAD_REACTORS
330
18
102
}
330
18
100
AcDbGroup
300

 70
     3
 71
     0
  0
GROUP
  5
48DA
102
{ACAD_REACTORS
330
18
102
}
330
18
100
AcDbGroup
300

 70
     3
 71
     0
  0
GROUP
  5
629A
102
{ACAD_REACTORS
330
18
102
}
330
18
100
AcDbGroup
300

 70
     3
 71
     0
  0
GROUP
  5
1B45
102
{ACAD_REACTORS
330
18
102
}
330
18
100
AcDbGroup
300

 70
     3
 71
     0
  0
GROUP
  5
6222
102
{ACAD_REACTORS
330
18
102
}
330
18
100
AcDbGroup
300

 70
     3
 71
     0
  0
GROUP
  5
6218
102
{ACAD_REACTORS
330
18
102
}
330
18
100
AcDbGroup
300

 70
     3
 71
     0
  0
GROUP
  5
4915
102
{ACAD_REACTORS
330
18
102
}
330
18
100
AcDbGroup
300

 70
     3
 71
     0
  0
GROUP
  5
491A
102
{ACAD_REACTORS
330
18
102
}
330
18
100
AcDbGroup
300

 70
     3
 71
     0
  0
GROUP
  5
48FE
102
{ACAD_REACTORS
330
18
102
}
330
18
100
AcDbGroup
300

 70
     3
 71
     0
  0
GROUP
  5
1C29
102
{ACAD_REACTORS
330
18
102
}
330
18
100
AcDbGroup
300

 70
     3
 71
     0
  0
GROUP
  5
1BF8
102
{ACAD_REACTORS
330
18
102
}
330
18
100
AcDbGroup
300

 70
     3
 71
     0
  0
GROUP
  5
624F
102
{ACAD_REACTORS
330
18
102
}
330
18
100
AcDbGroup
300

 70
     3
 71
     0
  0
GROUP
  5
1B1A
102
{ACAD_REACTORS
330
18
102
}
330
18
100
AcDbGroup
300

 70
     3
 71
     0
  0
GROUP
  5
1AF2
102
{ACAD_REACTORS
330
18
102
}
330
18
100
AcDbGroup
300

 70
     3
 71
     0
  0
GROUP
  5
48B2
102
{ACAD_REACTORS
330
18
102
}
330
18
100
AcDbGroup
300

 70
     3
 71
     0
  0
GROUP
  5
37AE
102
{ACAD_REACTORS
330
18
102
}
330
18
100
AcDbGroup
300

 70
     3
 71
     0
  0
GROUP
  5
63D7
102
{ACAD_REACTORS
330
18
102
}
330
18
100
AcDbGroup
300

 70
     3
 71
     0
  0
GROUP
  5
6216
102
{ACAD_REACTORS
330
18
102
}
330
18
100
AcDbGroup
300

 70
     3
 71
     0
  0
GROUP
  5
1B37
102
{ACAD_REACTORS
330
18
102
}
330
18
100
AcDbGroup
300

 70
     3
 71
     0
  0
GROUP
  5
4986
102
{ACAD_REACTORS
330
18
102
}
330
18
100
AcDbGroup
300

 70
     3
 71
     0
  0
GROUP
  5
1B54
102
{ACAD_REACTORS
330
18
102
}
330
18
100
AcDbGroup
300

 70
     3
 71
     0
  0
GROUP
  5
4821
102
{ACAD_REACTORS
330
18
102
}
330
18
100
AcDbGroup
300

 70
     3
 71
     0
  0
GROUP
  5
37A1
102
{ACAD_REACTORS
330
18
102
}
330
18
100
AcDbGroup
300

 70
     3
 71
     0
  0
GROUP
  5
1B80
102
{ACAD_REACTORS
330
18
102
}
330
18
100
AcDbGroup
300

 70
     3
 71
     0
  0
GROUP
  5
6378
102
{ACAD_REACTORS
330
18
102
}
330
18
100
AcDbGroup
300

 70
     3
 71
     0
  0
GROUP
  5
1B34
102
{ACAD_REACTORS
330
18
102
}
330
18
100
AcDbGroup
300

 70
     3
 71
     0
  0
GROUP
  5
1B8E
102
{ACAD_REACTORS
330
18
102
}
330
18
100
AcDbGroup
300

 70
     3
 71
     0
  0
GROUP
  5
1B9F
102
{ACAD_REACTORS
330
18
102
}
330
18
100
AcDbGroup
300

 70
     3
 71
     0
  0
GROUP
  5
63D3
102
{ACAD_REACTORS
330
18
102
}
330
18
100
AcDbGroup
300

 70
     3
 71
     0
  0
GROUP
  5
1B49
102
{ACAD_REACTORS
330
18
102
}
330
18
100
AcDbGroup
300

 70
     3
 71
     0
  0
GROUP
  5
1B9D
102
{ACAD_REACTORS
330
18
102
}
330
18
100
AcDbGroup
300

 70
     3
 71
     0
  0
GROUP
  5
4893
102
{ACAD_REACTORS
330
18
102
}
330
18
100
AcDbGroup
300

 70
     3
 71
     0
  0
GROUP
  5
63BF
102
{ACAD_REACTORS
330
18
102
}
330
18
100
AcDbGroup
300

 70
     3
 71
     0
  0
GROUP
  5
6364
102
{ACAD_REACTORS
330
18
102
}
330
18
100
AcDbGroup
300

 70
     3
 71
     0
  0
GROUP
  5
62E0
102
{ACAD_REACTORS
330
18
102
}
330
18
100
AcDbGroup
300

 70
     3
 71
     0
  0
GROUP
  5
6348
102
{ACAD_REACTORS
330
18
102
}
330
18
100
AcDbGroup
300

 70
     3
 71
     0
  0
GROUP
  5
623D
102
{ACAD_REACTORS
330
18
102
}
330
18
100
AcDbGroup
300

 70
     3
 71
     0
  0
GROUP
  5
627C
102
{ACAD_REACTORS
330
18
102
}
330
18
100
AcDbGroup
300

 70
     3
 71
     0
  0
GROUP
  5
4839
102
{ACAD_REACTORS
330
18
102
}
330
18
100
AcDbGroup
300

 70
     3
 71
     0
  0
GROUP
  5
1B36
102
{ACAD_REACTORS
330
18
102
}
330
18
100
AcDbGroup
300

 70
     3
 71
     0
  0
GROUP
  5
62A9
102
{ACAD_REACTORS
330
18
102
}
330
18
100
AcDbGroup
300

 70
     3
 71
     0
  0
GROUP
  5
494C
102
{ACAD_REACTORS
330
18
102
}
330
18
100
AcDbGroup
300

 70
     3
 71
     0
  0
GROUP
  5
1454
102
{ACAD_REACTORS
330
18
102
}
330
18
100
AcDbGroup
300

 70
     3
 71
     0
  0
GROUP
  5
62BF
102
{ACAD_REACTORS
330
18
102
}
330
18
100
AcDbGroup
300

 70
     3
 71
     0
  0
GROUP
  5
4830
102
{ACAD_REACTORS
330
18
102
}
330
18
100
AcDbGroup
300

 70
     3
 71
     0
  0
GROUP
  5
63C7
102
{ACAD_REACTORS
330
18
102
}
330
18
100
AcDbGroup
300

 70
     3
 71
     0
  0
GROUP
  5
1B28
102
{ACAD_REACTORS
330
18
102
}
330
18
100
AcDbGroup
300

 70
     3
 71
     0
  0
GROUP
  5
4944
102
{ACAD_REACTORS
330
18
102
}
330
18
100
AcDbGroup
300

 70
     3
 71
     0
  0
GROUP
  5
6263
102
{ACAD_REACTORS
330
18
102
}
330
18
100
AcDbGroup
300

 70
     3
 71
     0
  0
GROUP
  5
1B65
102
{ACAD_REACTORS
330
18
102
}
330
18
100
AcDbGroup
300

 70
     3
 71
     0
  0
GROUP
  5
1BD7
102
{ACAD_REACTORS
330
18
102
}
330
18
100
AcDbGroup
300

 70
     3
 71
     0
  0
GROUP
  5
49FF
102
{ACAD_REACTORS
330
18
102
}
330
18
100
AcDbGroup
300

 70
     3
 71
     0
  0
GROUP
  5
49F3
102
{ACAD_REACTORS
330
18
102
}
330
18
100
AcDbGroup
300

 70
     3
 71
     0
  0
GROUP
  5
62F3
102
{ACAD_REACTORS
330
18
102
}
330
18
100
AcDbGroup
300

 70
     3
 71
     0
  0
GROUP
  5
1AF6
102
{ACAD_REACTORS
330
18
102
}
330
18
100
AcDbGroup
300

 70
     3
 71
     0
  0
GROUP
  5
1C0D
102
{ACAD_REACTORS
330
18
102
}
330
18
100
AcDbGroup
300

 70
     3
 71
     0
  0
GROUP
  5
480C
102
{ACAD_REACTORS
330
18
102
}
330
18
100
AcDbGroup
300

 70
     3
 71
     0
  0
GROUP
  5
484E
102
{ACAD_REACTORS
330
18
102
}
330
18
100
AcDbGroup
300

 70
     3
 71
     0
  0
GROUP
  5
49E5
102
{ACAD_REACTORS
330
18
102
}
330
18
100
AcDbGroup
300

 70
     3
 71
     0
  0
GROUP
  5
4825
102
{ACAD_REACTORS
330
18
102
}
330
18
100
AcDbGroup
300

 70
     3
 71
     0
  0
GROUP
  5
1C10
102
{ACAD_REACTORS
330
18
102
}
330
18
100
AcDbGroup
300

 70
     3
 71
     0
  0
GROUP
  5
1BDC
102
{ACAD_REACTORS
330
18
102
}
330
18
100
AcDbGroup
300

 70
     3
 71
     0
  0
GROUP
  5
37B4
102
{ACAD_REACTORS
330
18
102
}
330
18
100
AcDbGroup
300

 70
     3
 71
     0
  0
GROUP
  5
1B57
102
{ACAD_REACTORS
330
18
102
}
330
18
100
AcDbGroup
300

 70
     3
 71
     0
  0
GROUP
  5
4A09
102
{ACAD_REACTORS
330
18
102
}
330
18
100
AcDbGroup
300

 70
     3
 71
     0
  0
GROUP
  5
4970
102
{ACAD_REACTORS
330
18
102
}
330
18
100
AcDbGroup
300

 70
     3
 71
     0
  0
GROUP
  5
1C3E
102
{ACAD_REACTORS
330
18
102
}
330
18
100
AcDbGroup
300

 70
     3
 71
     0
  0
GROUP
  5
1C4F
102
{ACAD_REACTORS
330
18
102
}
330
18
100
AcDbGroup
300

 70
     3
 71
     0
  0
GROUP
  5
1B87
102
{ACAD_REACTORS
330
18
102
}
330
18
100
AcDbGroup
300

 70
     3
 71
     0
  0
GROUP
  5
62FB
102
{ACAD_REACTORS
330
18
102
}
330
18
100
AcDbGroup
300

 70
     3
 71
     0
  0
GROUP
  5
627E
102
{ACAD_REACTORS
330
18
102
}
330
18
100
AcDbGroup
300

 70
     3
 71
     0
  0
GROUP
  5
6237
102
{ACAD_REACTORS
330
18
102
}
330
18
100
AcDbGroup
300

 70
     3
 71
     0
  0
GROUP
  5
1C1F
102
{ACAD_REACTORS
330
18
102
}
330
18
100
AcDbGroup
300

 70
     3
 71
     0
  0
GROUP
  5
6320
102
{ACAD_REACTORS
330
18
102
}
330
18
100
AcDbGroup
300

 70
     3
 71
     0
  0
GROUP
  5
631F
102
{ACAD_REACTORS
330
18
102
}
330
18
100
AcDbGroup
300

 70
     3
 71
     0
  0
GROUP
  5
379C
102
{ACAD_REACTORS
330
18
102
}
330
18
100
AcDbGroup
300

 70
     3
 71
     0
  0
GROUP
  5
1B46
102
{ACAD_REACTORS
330
18
102
}
330
18
100
AcDbGroup
300

 70
     3
 71
     0
  0
GROUP
  5
37A0
102
{ACAD_REACTORS
330
18
102
}
330
18
100
AcDbGroup
300

 70
     3
 71
     0
  0
GROUP
  5
1C04
102
{ACAD_REACTORS
330
18
102
}
330
18
100
AcDbGroup
300

 70
     3
 71
     0
  0
GROUP
  5
1BE5
102
{ACAD_REACTORS
330
18
102
}
330
18
100
AcDbGroup
300

 70
     3
 71
     0
  0
GROUP
  5
63AB
102
{ACAD_REACTORS
330
18
102
}
330
18
100
AcDbGroup
300

 70
     3
 71
     0
  0
GROUP
  5
49C5
102
{ACAD_REACTORS
330
18
102
}
330
18
100
AcDbGroup
300

 70
     3
 71
     0
  0
GROUP
  5
1B6B
102
{ACAD_REACTORS
330
18
102
}
330
18
100
AcDbGroup
300

 70
     3
 71
     0
  0
GROUP
  5
495F
102
{ACAD_REACTORS
330
18
102
}
330
18
100
AcDbGroup
300

 70
     3
 71
     0
  0
GROUP
  5
1AFB
102
{ACAD_REACTORS
330
18
102
}
330
18
100
AcDbGroup
300

 70
     3
 71
     0
  0
GROUP
  5
1ADC
102
{ACAD_REACTORS
330
18
102
}
330
18
100
AcDbGroup
300

 70
     3
 71
     0
  0
GROUP
  5
1B97
102
{ACAD_REACTORS
330
18
102
}
330
18
100
AcDbGroup
300

 70
     3
 71
     0
  0
GROUP
  5
624B
102
{ACAD_REACTORS
330
18
102
}
330
18
100
AcDbGroup
300

 70
     3
 71
     0
  0
GROUP
  5
4A19
102
{ACAD_REACTORS
330
18
102
}
330
18
100
AcDbGroup
300

 70
     3
 71
     0
  0
GROUP
  5
1B85
102
{ACAD_REACTORS
330
18
102
}
330
18
100
AcDbGroup
300

 70
     3
 71
     0
  0
GROUP
  5
1ADE
102
{ACAD_REACTORS
330
18
102
}
330
18
100
AcDbGroup
300

 70
     3
 71
     0
  0
GROUP
  5
4818
102
{ACAD_REACTORS
330
18
102
}
330
18
100
AcDbGroup
300

 70
     3
 71
     0
  0
GROUP
  5
63A6
102
{ACAD_REACTORS
330
18
102
}
330
18
100
AcDbGroup
300

 70
     3
 71
     0
  0
GROUP
  5
4910
102
{ACAD_REACTORS
330
18
102
}
330
18
100
AcDbGroup
300

 70
     3
 71
     0
  0
GROUP
  5
6389
102
{ACAD_REACTORS
330
18
102
}
330
18
100
AcDbGroup
300

 70
     3
 71
     0
  0
GROUP
  5
145C
102
{ACAD_REACTORS
330
18
102
}
330
18
100
AcDbGroup
300

 70
     3
 71
     0
  0
GROUP
  5
1B44
102
{ACAD_REACTORS
330
18
102
}
330
18
100
AcDbGroup
300

 70
     3
 71
     0
  0
GROUP
  5
490E
102
{ACAD_REACTORS
330
18
102
}
330
18
100
AcDbGroup
300

 70
     3
 71
     0
  0
GROUP
  5
1C40
102
{ACAD_REACTORS
330
18
102
}
330
18
100
AcDbGroup
300

 70
     3
 71
     0
  0
GROUP
  5
1C33
102
{ACAD_REACTORS
330
18
102
}
330
18
100
AcDbGroup
300

 70
     3
 71
     0
  0
GROUP
  5
1C0F
102
{ACAD_REACTORS
330
18
102
}
330
18
100
AcDbGroup
300

 70
     3
 71
     0
  0
GROUP
  5
1B23
102
{ACAD_REACTORS
330
18
102
}
330
18
100
AcDbGroup
300

 70
     3
 71
     0
  0
GROUP
  5
635D
102
{ACAD_REACTORS
330
18
102
}
330
18
100
AcDbGroup
300

 70
     3
 71
     0
  0
GROUP
  5
48CD
102
{ACAD_REACTORS
330
18
102
}
330
18
100
AcDbGroup
300

 70
     3
 71
     0
  0
GROUP
  5
6358
102
{ACAD_REACTORS
330
18
102
}
330
18
100
AcDbGroup
300

 70
     3
 71
     0
  0
GROUP
  5
1C2C
102
{ACAD_REACTORS
330
18
102
}
330
18
100
AcDbGroup
300

 70
     3
 71
     0
  0
GROUP
  5
49BF
102
{ACAD_REACTORS
330
18
102
}
330
18
100
AcDbGroup
300

 70
     3
 71
     0
  0
GROUP
  5
1BC3
102
{ACAD_REACTORS
330
18
102
}
330
18
100
AcDbGroup
300

 70
     3
 71
     0
  0
GROUP
  5
4838
102
{ACAD_REACTORS
330
18
102
}
330
18
100
AcDbGroup
300

 70
     3
 71
     0
  0
GROUP
  5
1B17
102
{ACAD_REACTORS
330
18
102
}
330
18
100
AcDbGroup
300

 70
     3
 71
     0
  0
GROUP
  5
1B71
102
{ACAD_REACTORS
330
18
102
}
330
18
100
AcDbGroup
300

 70
     3
 71
     0
  0
GROUP
  5
145D
102
{ACAD_REACTORS
330
18
102
}
330
18
100
AcDbGroup
300

 70
     3
 71
     0
  0
GROUP
  5
62E7
102
{ACAD_REACTORS
330
18
102
}
330
18
100
AcDbGroup
300

 70
     3
 71
     0
  0
GROUP
  5
4820
102
{ACAD_REACTORS
330
18
102
}
330
18
100
AcDbGroup
300

 70
     3
 71
     0
  0
GROUP
  5
638E
102
{ACAD_REACTORS
330
18
102
}
330
18
100
AcDbGroup
300

 70
     3
 71
     0
  0
GROUP
  5
1C31
102
{ACAD_REACTORS
330
18
102
}
330
18
100
AcDbGroup
300

 70
     3
 71
     0
  0
GROUP
  5
6416
102
{ACAD_REACTORS
330
18
102
}
330
18
100
AcDbGroup
300

 70
     3
 71
     0
  0
GROUP
  5
62D6
102
{ACAD_REACTORS
330
18
102
}
330
18
100
AcDbGroup
300

 70
     3
 71
     0
  0
GROUP
  5
640E
102
{ACAD_REACTORS
330
18
102
}
330
18
100
AcDbGroup
300

 70
     3
 71
     0
  0
GROUP
  5
1B5A
102
{ACAD_REACTORS
330
18
102
}
330
18
100
AcDbGroup
300

 70
     3
 71
     0
  0
GROUP
  5
631B
102
{ACAD_REACTORS
330
18
102
}
330
18
100
AcDbGroup
300

 70
     3
 71
     0
  0
GROUP
  5
48F7
102
{ACAD_REACTORS
330
18
102
}
330
18
100
AcDbGroup
300

 70
     3
 71
     0
  0
GROUP
  5
1B40
102
{ACAD_REACTORS
330
18
102
}
330
18
100
AcDbGroup
300

 70
     3
 71
     0
  0
GROUP
  5
1B66
102
{ACAD_REACTORS
330
18
102
}
330
18
100
AcDbGroup
300

 70
     3
 71
     0
  0
GROUP
  5
1C2E
102
{ACAD_REACTORS
330
18
102
}
330
18
100
AcDbGroup
300

 70
     3
 71
     0
  0
GROUP
  5
4885
102
{ACAD_REACTORS
330
18
102
}
330
18
100
AcDbGroup
300

 70
     3
 71
     0
  0
GROUP
  5
1B1C
102
{ACAD_REACTORS
330
18
102
}
330
18
100
AcDbGroup
300

 70
     3
 71
     0
  0
GROUP
  5
62D5
102
{ACAD_REACTORS
330
18
102
}
330
18
100
AcDbGroup
300

 70
     3
 71
     0
  0
GROUP
  5
6344
102
{ACAD_REACTORS
330
18
102
}
330
18
100
AcDbGroup
300

 70
     3
 71
     0
  0
GROUP
  5
486A
102
{ACAD_REACTORS
330
18
102
}
330
18
100
AcDbGroup
300

 70
     3
 71
     0
  0
GROUP
  5
1B3F
102
{ACAD_REACTORS
330
18
102
}
330
18
100
AcDbGroup
300

 70
     3
 71
     0
  0
GROUP
  5
628B
102
{ACAD_REACTORS
330
18
102
}
330
18
100
AcDbGroup
300

 70
     3
 71
     0
  0
GROUP
  5
494E
102
{ACAD_REACTORS
330
18
102
}
330
18
100
AcDbGroup
300

 70
     3
 71
     0
  0
GROUP
  5
6312
102
{ACAD_REACTORS
330
18
102
}
330
18
100
AcDbGroup
300

 70
     3
 71
     0
  0
GROUP
  5
49A8
102
{ACAD_REACTORS
330
18
102
}
330
18
100
AcDbGroup
300

 70
     3
 71
     0
  0
GROUP
  5
48C7
102
{ACAD_REACTORS
330
18
102
}
330
18
100
AcDbGroup
300

 70
     3
 71
     1
  0
GROUP
  5
1BAC
102
{ACAD_REACTORS
330
18
102
}
330
18
100
AcDbGroup
300

 70
     3
 71
     0
  0
GROUP
  5
493B
102
{ACAD_REACTORS
330
18
102
}
330
18
100
AcDbGroup
300

 70
     3
 71
     0
  0
GROUP
  5
4A13
102
{ACAD_REACTORS
330
18
102
}
330
18
100
AcDbGroup
300

 70
     3
 71
     0
  0
GROUP
  5
62A1
102
{ACAD_REACTORS
330
18
102
}
330
18
100
AcDbGroup
300

 70
     3
 71
     0
  0
GROUP
  5
1B11
102
{ACAD_REACTORS
330
18
102
}
330
18
100
AcDbGroup
300

 70
     3
 71
     0
  0
GROUP
  5
633F
102
{ACAD_REACTORS
330
18
102
}
330
18
100
AcDbGroup
300

 70
     3
 71
     0
  0
GROUP
  5
1464
102
{ACAD_REACTORS
330
18
102
}
330
18
100
AcDbGroup
300

 70
     3
 71
     0
  0
GROUP
  5
48EE
102
{ACAD_REACTORS
330
18
102
}
330
18
100
AcDbGroup
300

 70
     3
 71
     0
  0
GROUP
  5
4877
102
{ACAD_REACTORS
330
18
102
}
330
18
100
AcDbGroup
300

 70
     3
 71
     0
  0
GROUP
  5
6407
102
{ACAD_REACTORS
330
18
102
}
330
18
100
AcDbGroup
300

 70
     3
 71
     0
  0
GROUP
  5
1BD2
102
{ACAD_REACTORS
330
18
102
}
330
18
100
AcDbGroup
300

 70
     3
 71
     0
  0
GROUP
  5
49D0
102
{ACAD_REACTORS
330
18
102
}
330
18
100
AcDbGroup
300

 70
     3
 71
     0
  0
GROUP
  5
1B61
102
{ACAD_REACTORS
330
18
102
}
330
18
100
AcDbGroup
300

 70
     3
 71
     0
  0
GROUP
  5
63B8
102
{ACAD_REACTORS
330
18
102
}
330
18
100
AcDbGroup
300

 70
     3
 71
     0
  0
GROUP
  5
48DE
102
{ACAD_REACTORS
330
18
102
}
330
18
100
AcDbGroup
300

 70
     3
 71
     0
  0
GROUP
  5
62D9
102
{ACAD_REACTORS
330
18
102
}
330
18
100
AcDbGroup
300

 70
     3
 71
     0
  0
GROUP
  5
6310
102
{ACAD_REACTORS
330
18
102
}
330
18
100
AcDbGroup
300

 70
     3
 71
     0
  0
GROUP
  5
492F
102
{ACAD_REACTORS
330
18
102
}
330
18
100
AcDbGroup
300

 70
     3
 71
     0
  0
GROUP
  5
145F
102
{ACAD_REACTORS
330
18
102
}
330
18
100
AcDbGroup
300

 70
     3
 71
     0
  0
GROUP
  5
63AA
102
{ACAD_REACTORS
330
18
102
}
330
18
100
AcDbGroup
300

 70
     3
 71
     0
  0
GROUP
  5
48E2
102
{ACAD_REACTORS
330
18
102
}
330
18
100
AcDbGroup
300

 70
     3
 71
     0
  0
GROUP
  5
48CA
102
{ACAD_REACTORS
330
18
102
}
330
18
100
AcDbGroup
300

 70
     3
 71
     0
  0
GROUP
  5
48A1
102
{ACAD_REACTORS
330
18
102
}
330
18
100
AcDbGroup
300

 70
     3
 71
     0
  0
GROUP
  5
499F
102
{ACAD_REACTORS
330
18
102
}
330
18
100
AcDbGroup
300

 70
     3
 71
     0
  0
GROUP
  5
6388
102
{ACAD_REACTORS
330
18
102
}
330
18
100
AcDbGroup
300

 70
     3
 71
     0
  0
GROUP
  5
4860
102
{ACAD_REACTORS
330
18
102
}
330
18
100
AcDbGroup
300

 70
     3
 71
     0
  0
GROUP
  5
1BF1
102
{ACAD_REACTORS
330
18
102
}
330
18
100
AcDbGroup
300

 70
     3
 71
     0
  0
GROUP
  5
1468
102
{ACAD_REACTORS
330
18
102
}
330
18
100
AcDbGroup
300

 70
     3
 71
     0
  0
GROUP
  5
62B6
102
{ACAD_REACTORS
330
18
102
}
330
18
100
AcDbGroup
300

 70
     3
 71
     0
  0
GROUP
  5
4828
102
{ACAD_REACTORS
330
18
102
}
330
18
100
AcDbGroup
300

 70
     3
 71
     0
  0
GROUP
  5
4938
102
{ACAD_REACTORS
330
18
102
}
330
18
100
AcDbGroup
300

 70
     3
 71
     0
  0
GROUP
  5
4940
102
{ACAD_REACTORS
330
18
102
}
330
18
100
AcDbGroup
300

 70
     3
 71
     0
  0
GROUP
  5
1BFD
102
{ACAD_REACTORS
330
18
102
}
330
18
100
AcDbGroup
300

 70
     3
 71
     0
  0
GROUP
  5
48D8
102
{ACAD_REACTORS
330
18
102
}
330
18
100
AcDbGroup
300

 70
     3
 71
     0
  0
GROUP
  5
63F1
102
{ACAD_REACTORS
330
18
102
}
330
18
100
AcDbGroup
300

 70
     3
 71
     0
  0
GROUP
  5
48ED
102
{ACAD_REACTORS
330
18
102
}
330
18
100
AcDbGroup
300

 70
     3
 71
     0
  0
GROUP
  5
1B15
102
{ACAD_REACTORS
330
18
102
}
330
18
100
AcDbGroup
300

 70
     3
 71
     0
  0
GROUP
  5
62BD
102
{ACAD_REACTORS
330
18
102
}
330
18
100
AcDbGroup
300

 70
     3
 71
     0
  0
GROUP
  5
1C2F
102
{ACAD_REACTORS
330
18
102
}
330
18
100
AcDbGroup
300

 70
     3
 71
     0
  0
GROUP
  5
1B7C
102
{ACAD_REACTORS
330
18
102
}
330
18
100
AcDbGroup
300

 70
     3
 71
     0
  0
GROUP
  5
3798
102
{ACAD_REACTORS
330
18
102
}
330
18
100
AcDbGroup
300

 70
     3
 71
     0
  0
GROUP
  5
1AE3
102
{ACAD_REACTORS
330
18
102
}
330
18
100
AcDbGroup
300

 70
     3
 71
     0
  0
GROUP
  5
636C
102
{ACAD_REACTORS
330
18
102
}
330
18
100
AcDbGroup
300

 70
     3
 71
     0
  0
GROUP
  5
37B1
102
{ACAD_REACTORS
330
18
102
}
330
18
100
AcDbGroup
300

 70
     3
 71
     0
  0
GROUP
  5
4889
102
{ACAD_REACTORS
330
18
102
}
330
18
100
AcDbGroup
300

 70
     3
 71
     0
  0
GROUP
  5
63C4
102
{ACAD_REACTORS
330
18
102
}
330
18
100
AcDbGroup
300

 70
     3
 71
     0
  0
GROUP
  5
1B33
102
{ACAD_REACTORS
330
18
102
}
330
18
100
AcDbGroup
300

 70
     3
 71
     0
  0
GROUP
  5
629E
102
{ACAD_REACTORS
330
18
102
}
330
18
100
AcDbGroup
300

 70
     3
 71
     0
  0
GROUP
  5
623C
102
{ACAD_REACTORS
330
18
102
}
330
18
100
AcDbGroup
300

 70
     3
 71
     0
  0
GROUP
  5
484B
102
{ACAD_REACTORS
330
18
102
}
330
18
100
AcDbGroup
300

 70
     3
 71
     0
  0
GROUP
  5
1B76
102
{ACAD_REACTORS
330
18
102
}
330
18
100
AcDbGroup
300

 70
     3
 71
     0
  0
GROUP
  5
1BA1
102
{ACAD_REACTORS
330
18
102
}
330
18
100
AcDbGroup
300

 70
     3
 71
     0
  0
GROUP
  5
1B63
102
{ACAD_REACTORS
330
18
102
}
330
18
100
AcDbGroup
300

 70
     3
 71
     0
  0
GROUP
  5
63DB
102
{ACAD_REACTORS
330
18
102
}
330
18
100
AcDbGroup
300

 70
     3
 71
     0
  0
GROUP
  5
4816
102
{ACAD_REACTORS
330
18
102
}
330
18
100
AcDbGroup
300

 70
     3
 71
     0
  0
GROUP
  5
4851
102
{ACAD_REACTORS
330
18
102
}
330
18
100
AcDbGroup
300

 70
     3
 71
     0
  0
GROUP
  5
62E2
102
{ACAD_REACTORS
330
18
102
}
330
18
100
AcDbGroup
300

 70
     3
 71
     0
  0
GROUP
  5
1AE4
102
{ACAD_REACTORS
330
18
102
}
330
18
100
AcDbGroup
300

 70
     3
 71
     0
  0
GROUP
  5
628D
102
{ACAD_REACTORS
330
18
102
}
330
18
100
AcDbGroup
300

 70
     3
 71
     0
  0
GROUP
  5
641E
102
{ACAD_REACTORS
330
18
102
}
330
18
100
AcDbGroup
300

 70
     3
 71
     0
  0
GROUP
  5
639B
102
{ACAD_REACTORS
330
18
102
}
330
18
100
AcDbGroup
300

 70
     3
 71
     0
  0
GROUP
  5
6259
102
{ACAD_REACTORS
330
18
102
}
330
18
100
AcDbGroup
300

 70
     3
 71
     0
  0
GROUP
  5
62BC
102
{ACAD_REACTORS
330
18
102
}
330
18
100
AcDbGroup
300

 70
     3
 71
     0
  0
GROUP
  5
4985
102
{ACAD_REACTORS
330
18
102
}
330
18
100
AcDbGroup
300

 70
     3
 71
     0
  0
GROUP
  5
481C
102
{ACAD_REACTORS
330
18
102
}
330
18
100
AcDbGroup
300

 70
     3
 71
     0
  0
GROUP
  5
63B4
102
{ACAD_REACTORS
330
18
102
}
330
18
100
AcDbGroup
300

 70
     3
 71
     0
  0
GROUP
  5
495A
102
{ACAD_REACTORS
330
18
102
}
330
18
100
AcDbGroup
300

 70
     3
 71
     0
  0
GROUP
  5
48F3
102
{ACAD_REACTORS
330
18
102
}
330
18
100
AcDbGroup
300

 70
     3
 71
     0
  0
GROUP
  5
622E
102
{ACAD_REACTORS
330
18
102
}
330
18
100
AcDbGroup
300

 70
     3
 71
     0
  0
GROUP
  5
1B90
102
{ACAD_REACTORS
330
18
102
}
330
18
100
AcDbGroup
300

 70
     3
 71
     0
  0
GROUP
  5
4A0A
102
{ACAD_REACTORS
330
18
102
}
330
18
100
AcDbGroup
300

 70
     3
 71
     0
  0
GROUP
  5
632A
102
{ACAD_REACTORS
330
18
102
}
330
18
100
AcDbGroup
300

 70
     3
 71
     0
  0
GROUP
  5
1C06
102
{ACAD_REACTORS
330
18
102
}
330
18
100
AcDbGroup
300

 70
     3
 71
     0
  0
GROUP
  5
62EB
102
{ACAD_REACTORS
330
18
102
}
330
18
100
AcDbGroup
300

 70
     3
 71
     0
  0
GROUP
  5
1B21
102
{ACAD_REACTORS
330
18
102
}
330
18
100
AcDbGroup
300

 70
     3
 71
     0
  0
GROUP
  5
1BA4
102
{ACAD_REACTORS
330
18
102
}
330
18
100
AcDbGroup
300

 70
     3
 71
     0
  0
GROUP
  5
640F
102
{ACAD_REACTORS
330
18
102
}
330
18
100
AcDbGroup
300

 70
     3
 71
     0
  0
GROUP
  5
62FA
102
{ACAD_REACTORS
330
18
102
}
330
18
100
AcDbGroup
300

 70
     3
 71
     0
  0
GROUP
  5
6366
102
{ACAD_REACTORS
330
18
102
}
330
18
100
AcDbGroup
300

 70
     3
 71
     0
  0
GROUP
  5
1C0B
102
{ACAD_REACTORS
330
18
102
}
330
18
100
AcDbGroup
300

 70
     3
 71
     0
  0
GROUP
  5
49A3
102
{ACAD_REACTORS
330
18
102
}
330
18
100
AcDbGroup
300

 70
     3
 71
     0
  0
GROUP
  5
1B0F
102
{ACAD_REACTORS
330
18
102
}
330
18
100
AcDbGroup
300

 70
     3
 71
     0
  0
GROUP
  5
1ADB
102
{ACAD_REACTORS
330
18
102
}
330
18
100
AcDbGroup
300

 70
     3
 71
     0
  0
GROUP
  5
494F
102
{ACAD_REACTORS
330
18
102
}
330
18
100
AcDbGroup
300

 70
     3
 71
     0
  0
GROUP
  5
6235
102
{ACAD_REACTORS
330
18
102
}
330
18
100
AcDbGroup
300

 70
     3
 71
     0
  0
GROUP
  5
48FD
102
{ACAD_REACTORS
330
18
102
}
330
18
100
AcDbGroup
300

 70
     3
 71
     0
  0
GROUP
  5
1B9B
102
{ACAD_REACTORS
330
18
102
}
330
18
100
AcDbGroup
300

 70
     3
 71
     0
  0
GROUP
  5
4906
102
{ACAD_REACTORS
330
18
102
}
330
18
100
AcDbGroup
300

 70
     3
 71
     0
  0
GROUP
  5
6380
102
{ACAD_REACTORS
330
18
102
}
330
18
100
AcDbGroup
300

 70
     3
 71
     0
  0
GROUP
  5
49A4
102
{ACAD_REACTORS
330
18
102
}
330
18
100
AcDbGroup
300

 70
     3
 71
     0
  0
GROUP
  5
486D
102
{ACAD_REACTORS
330
18
102
}
330
18
100
AcDbGroup
300

 70
     3
 71
     0
  0
GROUP
  5
482A
102
{ACAD_REACTORS
330
18
102
}
330
18
100
AcDbGroup
300

 70
     3
 71
     0
  0
GROUP
  5
4835
102
{ACAD_REACTORS
330
18
102
}
330
18
100
AcDbGroup
300

 70
     3
 71
     0
  0
GROUP
  5
1C11
102
{ACAD_REACTORS
330
18
102
}
330
18
100
AcDbGroup
300

 70
     3
 71
     0
  0
GROUP
  5
483B
102
{ACAD_REACTORS
330
18
102
}
330
18
100
AcDbGroup
300

 70
     3
 71
     0
  0
GROUP
  5
4965
102
{ACAD_REACTORS
330
18
102
}
330
18
100
AcDbGroup
300

 70
     3
 71
     0
  0
GROUP
  5
4904
102
{ACAD_REACTORS
330
18
102
}
330
18
100
AcDbGroup
300

 70
     3
 71
     0
  0
GROUP
  5
1AEA
102
{ACAD_REACTORS
330
18
102
}
330
18
100
AcDbGroup
300

 70
     3
 71
     0
  0
GROUP
  5
1C0A
102
{ACAD_REACTORS
330
18
102
}
330
18
100
AcDbGroup
300

 70
     3
 71
     0
  0
GROUP
  5
1AD3
102
{ACAD_REACTORS
330
18
102
}
330
18
100
AcDbGroup
300

 70
     3
 71
     0
  0
GROUP
  5
6296
102
{ACAD_REACTORS
330
18
102
}
330
18
100
AcDbGroup
300

 70
     3
 71
     0
  0
GROUP
  5
48CF
102
{ACAD_REACTORS
330
18
102
}
330
18
100
AcDbGroup
300

 70
     3
 71
     0
  0
GROUP
  5
6257
102
{ACAD_REACTORS
330
18
102
}
330
18
100
AcDbGroup
300

 70
     3
 71
     0
  0
GROUP
  5
1ACB
102
{ACAD_REACTORS
330
18
102
}
330
18
100
AcDbGroup
300

 70
     3
 71
     0
  0
GROUP
  5
1B05
102
{ACAD_REACTORS
330
18
102
}
330
18
100
AcDbGroup
300

 70
     3
 71
     0
  0
GROUP
  5
48B6
102
{ACAD_REACTORS
330
18
102
}
330
18
100
AcDbGroup
300

 70
     3
 71
     0
  0
GROUP
  5
498E
102
{ACAD_REACTORS
330
18
102
}
330
18
100
AcDbGroup
300

 70
     3
 71
     0
  0
GROUP
  5
4876
102
{ACAD_REACTORS
330
18
102
}
330
18
100
AcDbGroup
300

 70
     3
 71
     0
  0
GROUP
  5
62FC
102
{ACAD_REACTORS
330
18
102
}
330
18
100
AcDbGroup
300

 70
     3
 71
     0
  0
GROUP
  5
48C0
102
{ACAD_REACTORS
330
18
102
}
330
18
100
AcDbGroup
300

 70
     3
 71
     0
  0
GROUP
  5
484F
102
{ACAD_REACTORS
330
18
102
}
330
18
100
AcDbGroup
300

 70
     3
 71
     0
  0
GROUP
  5
4976
102
{ACAD_REACTORS
330
18
102
}
330
18
100
AcDbGroup
300

 70
     3
 71
     0
  0
GROUP
  5
1BA0
102
{ACAD_REACTORS
330
18
102
}
330
18
100
AcDbGroup
300

 70
     3
 71
     0
  0
GROUP
  5
63A0
102
{ACAD_REACTORS
330
18
102
}
330
18
100
AcDbGroup
300

 70
     3
 71
     0
  0
GROUP
  5
1BA9
102
{ACAD_REACTORS
330
18
102
}
330
18
100
AcDbGroup
300

 70
     3
 71
     0
  0
GROUP
  5
48A6
102
{ACAD_REACTORS
330
18
102
}
330
18
100
AcDbGroup
300

 70
     3
 71
     0
  0
GROUP
  5
6411
102
{ACAD_REACTORS
330
18
102
}
330
18
100
AcDbGroup
300

 70
     3
 71
     0
  0
GROUP
  5
6374
102
{ACAD_REACTORS
330
18
102
}
330
18
100
AcDbGroup
300

 70
     3
 71
     0
  0
GROUP
  5
1C55
102
{ACAD_REACTORS
330
18
102
}
330
18
100
AcDbGroup
300

 70
     3
 71
     0
  0
GROUP
  5
1B81
102
{ACAD_REACTORS
330
18
102
}
330
18
100
AcDbGroup
300

 70
     3
 71
     0
  0
GROUP
  5
498B
102
{ACAD_REACTORS
330
18
102
}
330
18
100
AcDbGroup
300

 70
     3
 71
     0
  0
GROUP
  5
627A
102
{ACAD_REACTORS
330
18
102
}
330
18
100
AcDbGroup
300

 70
     3
 71
     0
  0
GROUP
  5
1B29
102
{ACAD_REACTORS
330
18
102
}
330
18
100
AcDbGroup
300

 70
     3
 71
     0
  0
GROUP
  5
48FB
102
{ACAD_REACTORS
330
18
102
}
330
18
100
AcDbGroup
300

 70
     3
 71
     0
  0
GROUP
  5
63A7
102
{ACAD_REACTORS
330
18
102
}
330
18
100
AcDbGroup
300

 70
     3
 71
     0
  0
GROUP
  5
4854
102
{ACAD_REACTORS
330
18
102
}
330
18
100
AcDbGroup
300

 70
     3
 71
     0
  0
GROUP
  5
1AFE
102
{ACAD_REACTORS
330
18
102
}
330
18
100
AcDbGroup
300

 70
     3
 71
     0
  0
GROUP
  5
6265
102
{ACAD_REACTORS
330
18
102
}
330
18
100
AcDbGroup
300

 70
     3
 71
     0
  0
GROUP
  5
37C3
102
{ACAD_REACTORS
330
18
102
}
330
18
100
AcDbGroup
300

 70
     3
 71
     0
  0
GROUP
  5
480D
102
{ACAD_REACTORS
330
18
102
}
330
18
100
AcDbGroup
300

 70
     3
 71
     0
  0
GROUP
  5
49C6
102
{ACAD_REACTORS
330
18
102
}
330
18
100
AcDbGroup
300

 70
     3
 71
     0
  0
GROUP
  5
6254
102
{ACAD_REACTORS
330
18
102
}
330
18
100
AcDbGroup
300

 70
     3
 71
     0
  0
GROUP
  5
1C5F
102
{ACAD_REACTORS
330
18
102
}
330
18
100
AcDbGroup
300

 70
     3
 71
     0
  0
GROUP
  5
1BC5
102
{ACAD_REACTORS
330
18
102
}
330
18
100
AcDbGroup
300

 70
     3
 71
     0
  0
GROUP
  5
1455
102
{ACAD_REACTORS
330
18
102
}
330
18
100
AcDbGroup
300

 70
     3
 71
     0
  0
GROUP
  5
48CE
102
{ACAD_REACTORS
330
18
102
}
330
18
100
AcDbGroup
300

 70
     3
 71
     0
  0
GROUP
  5
6345
102
{ACAD_REACTORS
330
18
102
}
330
18
100
AcDbGroup
300

 70
     3
 71
     0
  0
GROUP
  5
6287
102
{ACAD_REACTORS
330
18
102
}
330
18
100
AcDbGroup
300

 70
     3
 71
     0
  0
GROUP
  5
63F3
102
{ACAD_REACTORS
330
18
102
}
330
18
100
AcDbGroup
300

 70
     3
 71
     0
  0
GROUP
  5
63E0
102
{ACAD_REACTORS
330
18
102
}
330
18
100
AcDbGroup
300

 70
     3
 71
     0
  0
GROUP
  5
37A2
102
{ACAD_REACTORS
330
18
102
}
330
18
100
AcDbGroup
300

 70
     3
 71
     0
  0
GROUP
  5
1B32
102
{ACAD_REACTORS
330
18
102
}
330
18
100
AcDbGroup
300

 70
     3
 71
     0
  0
GROUP
  5
6367
102
{ACAD_REACTORS
330
18
102
}
330
18
100
AcDbGroup
300

 70
     3
 71
     0
  0
GROUP
  5
62E4
102
{ACAD_REACTORS
330
18
102
}
330
18
100
AcDbGroup
300

 70
     3
 71
     0
  0
GROUP
  5
494B
102
{ACAD_REACTORS
330
18
102
}
330
18
100
AcDbGroup
300

 70
     3
 71
     0
  0
GROUP
  5
1C49
102
{ACAD_REACTORS
330
18
102
}
330
18
100
AcDbGroup
300

 70
     3
 71
     0
  0
GROUP
  5
1B30
102
{ACAD_REACTORS
330
18
102
}
330
18
100
AcDbGroup
300

 70
     3
 71
     0
  0
GROUP
  5
49DF
102
{ACAD_REACTORS
330
18
102
}
330
18
100
AcDbGroup
300

 70
     3
 71
     0
  0
GROUP
  5
629D
102
{ACAD_REACTORS
330
18
102
}
330
18
100
AcDbGroup
300

 70
     3
 71
     0
  0
GROUP
  5
6419
102
{ACAD_REACTORS
330
18
102
}
330
18
100
AcDbGroup
300

 70
     3
 71
     0
  0
GROUP
  5
49F7
102
{ACAD_REACTORS
330
18
102
}
330
18
100
AcDbGroup
300

 70
     3
 71
     0
  0
GROUP
  5
641C
102
{ACAD_REACTORS
330
18
102
}
330
18
100
AcDbGroup
300

 70
     3
 71
     0
  0
GROUP
  5
6355
102
{ACAD_REACTORS
330
18
102
}
330
18
100
AcDbGroup
300

 70
     3
 71
     0
  0
GROUP
  5
63C0
102
{ACAD_REACTORS
330
18
102
}
330
18
100
AcDbGroup
300

 70
     3
 71
     0
  0
GROUP
  5
63CC
102
{ACAD_REACTORS
330
18
102
}
330
18
100
AcDbGroup
300

 70
     3
 71
     0
  0
GROUP
  5
62DB
102
{ACAD_REACTORS
330
18
102
}
330
18
100
AcDbGroup
300

 70
     3
 71
     0
  0
GROUP
  5
4826
102
{ACAD_REACTORS
330
18
102
}
330
18
100
AcDbGroup
300

 70
     3
 71
     0
  0
GROUP
  5
6305
102
{ACAD_REACTORS
330
18
102
}
330
18
100
AcDbGroup
300

 70
     3
 71
     0
  0
GROUP
  5
6293
102
{ACAD_REACTORS
330
18
102
}
330
18
100
AcDbGroup
300

 70
     3
 71
     0
  0
GROUP
  5
1AE7
102
{ACAD_REACTORS
330
18
102
}
330
18
100
AcDbGroup
300

 70
     3
 71
     0
  0
GROUP
  5
6426
102
{ACAD_REACTORS
330
18
102
}
330
18
100
AcDbGroup
300

 70
     3
 71
     0
  0
GROUP
  5
6410
102
{ACAD_REACTORS
330
18
102
}
330
18
100
AcDbGroup
300

 70
     3
 71
     0
  0
GROUP
  5
1B4E
102
{ACAD_REACTORS
330
18
102
}
330
18
100
AcDbGroup
300

 70
     3
 71
     0
  0
GROUP
  5
1C16
102
{ACAD_REACTORS
330
18
102
}
330
18
100
AcDbGroup
300

 70
     3
 71
     0
  0
GROUP
  5
48D7
102
{ACAD_REACTORS
330
18
102
}
330
18
100
AcDbGroup
300

 70
     3
 71
     0
  0
GROUP
  5
1C26
102
{ACAD_REACTORS
330
18
102
}
330
18
100
AcDbGroup
300

 70
     3
 71
     0
  0
GROUP
  5
1BE7
102
{ACAD_REACTORS
330
18
102
}
330
18
100
AcDbGroup
300

 70
     3
 71
     0
  0
GROUP
  5
6376
102
{ACAD_REACTORS
330
18
102
}
330
18
100
AcDbGroup
300

 70
     3
 71
     0
  0
GROUP
  5
49F9
102
{ACAD_REACTORS
330
18
102
}
330
18
100
AcDbGroup
300

 70
     3
 71
     0
  0
GROUP
  5
37B8
102
{ACAD_REACTORS
330
18
102
}
330
18
100
AcDbGroup
300

 70
     3
 71
     0
  0
GROUP
  5
1AF9
102
{ACAD_REACTORS
330
18
102
}
330
18
100
AcDbGroup
300

 70
     3
 71
     0
  0
GROUP
  5
4994
102
{ACAD_REACTORS
330
18
102
}
330
18
100
AcDbGroup
300

 70
     3
 71
     0
  0
GROUP
  5
1BA7
102
{ACAD_REACTORS
330
18
102
}
330
18
100
AcDbGroup
300

 70
     3
 71
     0
  0
GROUP
  5
1B67
102
{ACAD_REACTORS
330
18
102
}
330
18
100
AcDbGroup
300

 70
     3
 71
     0
  0
GROUP
  5
37AF
102
{ACAD_REACTORS
330
18
102
}
330
18
100
AcDbGroup
300

 70
     3
 71
     0
  0
GROUP
  5
4941
102
{ACAD_REACTORS
330
18
102
}
330
18
100
AcDbGroup
300

 70
     3
 71
     0
  0
GROUP
  5
624A
102
{ACAD_REACTORS
330
18
102
}
330
18
100
AcDbGroup
300

 70
     3
 71
     0
  0
GROUP
  5
1B31
102
{ACAD_REACTORS
330
18
102
}
330
18
100
AcDbGroup
300

 70
     3
 71
     0
  0
GROUP
  5
6336
102
{ACAD_REACTORS
330
18
102
}
330
18
100
AcDbGroup
300

 70
     3
 71
     0
  0
GROUP
  5
1B4D
102
{ACAD_REACTORS
330
18
102
}
330
18
100
AcDbGroup
300

 70
     3
 71
     0
  0
GROUP
  5
1AF8
102
{ACAD_REACTORS
330
18
102
}
330
18
100
AcDbGroup
300

 70
     3
 71
     0
  0
GROUP
  5
63DF
102
{ACAD_REACTORS
330
18
102
}
330
18
100
AcDbGroup
300

 70
     3
 71
     0
  0
GROUP
  5
63D8
102
{ACAD_REACTORS
330
18
102
}
330
18
100
AcDbGroup
300

 70
     3
 71
     0
  0
GROUP
  5
6251
102
{ACAD_REACTORS
330
18
102
}
330
18
100
AcDbGroup
300

 70
     3
 71
     0
  0
GROUP
  5
482F
102
{ACAD_REACTORS
330
18
102
}
330
18
100
AcDbGroup
300

 70
     3
 71
     0
  0
GROUP
  5
488E
102
{ACAD_REACTORS
330
18
102
}
330
18
100
AcDbGroup
300

 70
     3
 71
     0
  0
GROUP
  5
1BC6
102
{ACAD_REACTORS
330
18
102
}
330
18
100
AcDbGroup
300

 70
     3
 71
     0
  0
GROUP
  5
1C2A
102
{ACAD_REACTORS
330
18
102
}
330
18
100
AcDbGroup
300

 70
     3
 71
     0
  0
GROUP
  5
1B96
102
{ACAD_REACTORS
330
18
102
}
330
18
100
AcDbGroup
300

 70
     3
 71
     0
  0
GROUP
  5
49A7
102
{ACAD_REACTORS
330
18
102
}
330
18
100
AcDbGroup
300

 70
     3
 71
     0
  0
GROUP
  5
489A
102
{ACAD_REACTORS
330
18
102
}
330
18
100
AcDbGroup
300

 70
     3
 71
     0
  0
GROUP
  5
6246
102
{ACAD_REACTORS
330
18
102
}
330
18
100
AcDbGroup
300

 70
     3
 71
     0
  0
GROUP
  5
496D
102
{ACAD_REACTORS
330
18
102
}
330
18
100
AcDbGroup
300

 70
     3
 71
     0
  0
GROUP
  5
62DA
102
{ACAD_REACTORS
330
18
102
}
330
18
100
AcDbGroup
300

 70
     3
 71
     0
  0
GROUP
  5
499E
102
{ACAD_REACTORS
330
18
102
}
330
18
100
AcDbGroup
300

 70
     3
 71
     0
  0
GROUP
  5
640D
102
{ACAD_REACTORS
330
18
102
}
330
18
100
AcDbGroup
300

 70
     3
 71
     0
  0
GROUP
  5
1BAF
102
{ACAD_REACTORS
330
18
102
}
330
18
100
AcDbGroup
300

 70
     3
 71
     0
  0
GROUP
  5
6349
102
{ACAD_REACTORS
330
18
102
}
330
18
100
AcDbGroup
300

 70
     3
 71
     0
  0
GROUP
  5
48A7
102
{ACAD_REACTORS
330
18
102
}
330
18
100
AcDbGroup
300

 70
     3
 71
     0
  0
GROUP
  5
1C30
102
{ACAD_REACTORS
330
18
102
}
330
18
100
AcDbGroup
300

 70
     3
 71
     0
  0
GROUP
  5
1B2D
102
{ACAD_REACTORS
330
18
102
}
330
18
100
AcDbGroup
300

 70
     3
 71
     0
  0
GROUP
  5
49D1
102
{ACAD_REACTORS
330
18
102
}
330
18
100
AcDbGroup
300

 70
     3
 71
     0
  0
GROUP
  5
4969
102
{ACAD_REACTORS
330
18
102
}
330
18
100
AcDbGroup
300

 70
     3
 71
     0
  0
GROUP
  5
48EA
102
{ACAD_REACTORS
330
18
102
}
330
18
100
AcDbGroup
300

 70
     3
 71
     0
  0
GROUP
  5
493E
102
{ACAD_REACTORS
330
18
102
}
330
18
100
AcDbGroup
300

 70
     3
 71
     0
  0
GROUP
  5
49F2
102
{ACAD_REACTORS
330
18
102
}
330
18
100
AcDbGroup
300

 70
     3
 71
     0
  0
GROUP
  5
62E8
102
{ACAD_REACTORS
330
18
102
}
330
18
100
AcDbGroup
300

 70
     3
 71
     0
  0
GROUP
  5
6225
102
{ACAD_REACTORS
330
18
102
}
330
18
100
AcDbGroup
300

 70
     3
 71
     0
  0
GROUP
  5
62D7
102
{ACAD_REACTORS
330
18
102
}
330
18
100
AcDbGroup
300

 70
     3
 71
     0
  0
GROUP
  5
62F0
102
{ACAD_REACTORS
330
18
102
}
330
18
100
AcDbGroup
300

 70
     3
 71
     0
  0
GROUP
  5
1B01
102
{ACAD_REACTORS
330
18
102
}
330
18
100
AcDbGroup
300

 70
     3
 71
     0
  0
GROUP
  5
1C38
102
{ACAD_REACTORS
330
18
102
}
330
18
100
AcDbGroup
300

 70
     3
 71
     0
  0
GROUP
  5
4939
102
{ACAD_REACTORS
330
18
102
}
330
18
100
AcDbGroup
300

 70
     3
 71
     0
  0
GROUP
  5
623E
102
{ACAD_REACTORS
330
18
102
}
330
18
100
AcDbGroup
300

 70
     3
 71
     0
  0
GROUP
  5
48DB
102
{ACAD_REACTORS
330
18
102
}
330
18
100
AcDbGroup
300

 70
     3
 71
     0
  0
GROUP
  5
63A4
102
{ACAD_REACTORS
330
18
102
}
330
18
100
AcDbGroup
300

 70
     3
 71
     0
  0
GROUP
  5
49AF
102
{ACAD_REACTORS
330
18
102
}
330
18
100
AcDbGroup
300

 70
     3
 71
     0
  0
GROUP
  5
623A
102
{ACAD_REACTORS
330
18
102
}
330
18
100
AcDbGroup
300

 70
     3
 71
     0
  0
GROUP
  5
6403
102
{ACAD_REACTORS
330
18
102
}
330
18
100
AcDbGroup
300

 70
     3
 71
     0
  0
GROUP
  5
62B3
102
{ACAD_REACTORS
330
18
102
}
330
18
100
AcDbGroup
300

 70
     3
 71
     0
  0
GROUP
  5
4987
102
{ACAD_REACTORS
330
18
102
}
330
18
100
AcDbGroup
300

 70
     3
 71
     0
  0
GROUP
  5
1B9C
102
{ACAD_REACTORS
330
18
102
}
330
18
100
AcDbGroup
300

 70
     3
 71
     0
  0
GROUP
  5
1AF1
102
{ACAD_REACTORS
330
18
102
}
330
18
100
AcDbGroup
300

 70
     3
 71
     0
  0
GROUP
  5
6250
102
{ACAD_REACTORS
330
18
102
}
330
18
100
AcDbGroup
300

 70
     3
 71
     0
  0
GROUP
  5
6372
102
{ACAD_REACTORS
330
18
102
}
330
18
100
AcDbGroup
300

 70
     3
 71
     0
  0
GROUP
  5
4963
102
{ACAD_REACTORS
330
18
102
}
330
18
100
AcDbGroup
300

 70
     3
 71
     0
  0
GROUP
  5
4832
102
{ACAD_REACTORS
330
18
102
}
330
18
100
AcDbGroup
300

 70
     3
 71
     0
  0
GROUP
  5
6351
102
{ACAD_REACTORS
330
18
102
}
330
18
100
AcDbGroup
300

 70
     3
 71
     0
  0
GROUP
  5
6243
102
{ACAD_REACTORS
330
18
102
}
330
18
100
AcDbGroup
300

 70
     3
 71
     0
  0
GROUP
  5
48EF
102
{ACAD_REACTORS
330
18
102
}
330
18
100
AcDbGroup
300

 70
     3
 71
     0
  0
GROUP
  5
62D0
102
{ACAD_REACTORS
330
18
102
}
330
18
100
AcDbGroup
300

 70
     3
 71
     0
  0
GROUP
  5
1AE6
102
{ACAD_REACTORS
330
18
102
}
330
18
100
AcDbGroup
300

 70
     3
 71
     0
  0
GROUP
  5
6409
102
{ACAD_REACTORS
330
18
102
}
330
18
100
AcDbGroup
300

 70
     3
 71
     0
  0
GROUP
  5
48D5
102
{ACAD_REACTORS
330
18
102
}
330
18
100
AcDbGroup
300

 70
     3
 71
     0
  0
GROUP
  5
6422
102
{ACAD_REACTORS
330
18
102
}
330
18
100
AcDbGroup
300

 70
     3
 71
     0
  0
GROUP
  5
63FD
102
{ACAD_REACTORS
330
18
102
}
330
18
100
AcDbGroup
300

 70
     3
 71
     0
  0
GROUP
  5
628A
102
{ACAD_REACTORS
330
18
102
}
330
18
100
AcDbGroup
300

 70
     3
 71
     0
  0
GROUP
  5
4A00
102
{ACAD_REACTORS
330
18
102
}
330
18
100
AcDbGroup
300

 70
     3
 71
     0
  0
GROUP
  5
6258
102
{ACAD_REACTORS
330
18
102
}
330
18
100
AcDbGroup
300

 70
     3
 71
     0
  0
GROUP
  5
1BC8
102
{ACAD_REACTORS
330
18
102
}
330
18
100
AcDbGroup
300

 70
     3
 71
     0
  0
GROUP
  5
491D
102
{ACAD_REACTORS
330
18
102
}
330
18
100
AcDbGroup
300

 70
     3
 71
     0
  0
GROUP
  5
37BA
102
{ACAD_REACTORS
330
18
102
}
330
18
100
AcDbGroup
300

 70
     3
 71
     0
  0
GROUP
  5
1BE6
102
{ACAD_REACTORS
330
18
102
}
330
18
100
AcDbGroup
300

 70
     3
 71
     0
  0
GROUP
  5
4934
102
{ACAD_REACTORS
330
18
102
}
330
18
100
AcDbGroup
300

 70
     3
 71
     0
  0
GROUP
  5
4875
102
{ACAD_REACTORS
330
18
102
}
330
18
100
AcDbGroup
300

 70
     3
 71
     0
  0
GROUP
  5
4831
102
{ACAD_REACTORS
330
18
102
}
330
18
100
AcDbGroup
300

 70
     3
 71
     0
  0
GROUP
  5
630B
102
{ACAD_REACTORS
330
18
102
}
330
18
100
AcDbGroup
300

 70
     3
 71
     0
  0
GROUP
  5
6353
102
{ACAD_REACTORS
330
18
102
}
330
18
100
AcDbGroup
300

 70
     3
 71
     0
  0
GROUP
  5
62A7
102
{ACAD_REACTORS
330
18
102
}
330
18
100
AcDbGroup
300

 70
     3
 71
     0
  0
GROUP
  5
1B0D
102
{ACAD_REACTORS
330
18
102
}
330
18
100
AcDbGroup
300

 70
     3
 71
     0
  0
GROUP
  5
1B39
102
{ACAD_REACTORS
330
18
102
}
330
18
100
AcDbGroup
300

 70
     3
 71
     0
  0
GROUP
  5
1AD5
102
{ACAD_REACTORS
330
18
102
}
330
18
100
AcDbGroup
300

 70
     3
 71
     0
  0
GROUP
  5
489C
102
{ACAD_REACTORS
330
18
102
}
330
18
100
AcDbGroup
300

 70
     3
 71
     0
  0
GROUP
  5
1AF7
102
{ACAD_REACTORS
330
18
102
}
330
18
100
AcDbGroup
300

 70
     3
 71
     0
  0
GROUP
  5
623B
102
{ACAD_REACTORS
330
18
102
}
330
18
100
AcDbGroup
300

 70
     3
 71
     0
  0
GROUP
  5
1B4C
102
{ACAD_REACTORS
330
18
102
}
330
18
100
AcDbGroup
300

 70
     3
 71
     0
  0
GROUP
  5
627F
102
{ACAD_REACTORS
330
18
102
}
330
18
100
AcDbGroup
300

 70
     3
 71
     0
  0
GROUP
  5
6252
102
{ACAD_REACTORS
330
18
102
}
330
18
100
AcDbGroup
300

 70
     3
 71
     0
  0
GROUP
  5
48C3
102
{ACAD_REACTORS
330
18
102
}
330
18
100
AcDbGroup
300

 70
     3
 71
     0
  0
GROUP
  5
1BFF
102
{ACAD_REACTORS
330
18
102
}
330
18
100
AcDbGroup
300

 70
     3
 71
     0
  0
GROUP
  5
63D0
102
{ACAD_REACTORS
330
18
102
}
330
18
100
AcDbGroup
300

 70
     3
 71
     0
  0
GROUP
  5
621E
102
{ACAD_REACTORS
330
18
102
}
330
18
100
AcDbGroup
300

 70
     3
 71
     0
  0
GROUP
  5
6371
102
{ACAD_REACTORS
330
18
102
}
330
18
100
AcDbGroup
300

 70
     3
 71
     0
  0
GROUP
  5
49CC
102
{ACAD_REACTORS
330
18
102
}
330
18
100
AcDbGroup
300

 70
     3
 71
     0
  0
GROUP
  5
63A1
102
{ACAD_REACTORS
330
18
102
}
330
18
100
AcDbGroup
300

 70
     3
 71
     0
  0
GROUP
  5
62AB
102
{ACAD_REACTORS
330
18
102
}
330
18
100
AcDbGroup
300

 70
     3
 71
     0
  0
GROUP
  5
481A
102
{ACAD_REACTORS
330
18
102
}
330
18
100
AcDbGroup
300

 70
     3
 71
     0
  0
GROUP
  5
1BDB
102
{ACAD_REACTORS
330
18
102
}
330
18
100
AcDbGroup
300

 70
     3
 71
     0
  0
GROUP
  5
1B6D
102
{ACAD_REACTORS
330
18
102
}
330
18
100
AcDbGroup
300

 70
     3
 71
     0
  0
GROUP
  5
63F2
102
{ACAD_REACTORS
330
18
102
}
330
18
100
AcDbGroup
300

 70
     3
 71
     0
  0
GROUP
  5
4855
102
{ACAD_REACTORS
330
18
102
}
330
18
100
AcDbGroup
300

 70
     3
 71
     0
  0
GROUP
  5
1ADD
102
{ACAD_REACTORS
330
18
102
}
330
18
100
AcDbGroup
300

 70
     3
 71
     0
  0
GROUP
  5
1C12
102
{ACAD_REACTORS
330
18
102
}
330
18
100
AcDbGroup
300

 70
     3
 71
     0
  0
GROUP
  5
1C57
102
{ACAD_REACTORS
330
18
102
}
330
18
100
AcDbGroup
300

 70
     3
 71
     0
  0
GROUP
  5
484A
102
{ACAD_REACTORS
330
18
102
}
330
18
100
AcDbGroup
300

 70
     3
 71
     0
  0
GROUP
  5
4908
102
{ACAD_REACTORS
330
18
102
}
330
18
100
AcDbGroup
300

 70
     3
 71
     0
  0
GROUP
  5
6231
102
{ACAD_REACTORS
330
18
102
}
330
18
100
AcDbGroup
300

 70
     3
 71
     0
  0
GROUP
  5
4836
102
{ACAD_REACTORS
330
18
102
}
330
18
100
AcDbGroup
300

 70
     3
 71
     0
  0
GROUP
  5
4856
102
{ACAD_REACTORS
330
18
102
}
330
18
100
AcDbGroup
300

 70
     3
 71
     0
  0
GROUP
  5
48CB
102
{ACAD_REACTORS
330
18
102
}
330
18
100
AcDbGroup
300

 70
     3
 71
     0
  0
GROUP
  5
483E
102
{ACAD_REACTORS
330
18
102
}
330
18
100
AcDbGroup
300

 70
     3
 71
     0
  0
GROUP
  5
4809
102
{ACAD_REACTORS
330
18
102
}
330
18
100
AcDbGroup
300

 70
     3
 71
     0
  0
GROUP
  5
1BD9
102
{ACAD_REACTORS
330
18
102
}
330
18
100
AcDbGroup
300

 70
     3
 71
     0
  0
GROUP
  5
62E5
102
{ACAD_REACTORS
330
18
102
}
330
18
100
AcDbGroup
300

 70
     3
 71
     0
  0
GROUP
  5
63F5
102
{ACAD_REACTORS
330
18
102
}
330
18
100
AcDbGroup
300

 70
     3
 71
     0
  0
GROUP
  5
1AD6
102
{ACAD_REACTORS
330
18
102
}
330
18
100
AcDbGroup
300

 70
     3
 71
     0
  0
GROUP
  5
6420
102
{ACAD_REACTORS
330
18
102
}
330
18
100
AcDbGroup
300

 70
     3
 71
     0
  0
GROUP
  5
499D
102
{ACAD_REACTORS
330
18
102
}
330
18
100
AcDbGroup
300

 70
     3
 71
     0
  0
GROUP
  5
62B4
102
{ACAD_REACTORS
330
18
102
}
330
18
100
AcDbGroup
300

 70
     3
 71
     0
  0
GROUP
  5
49DA
102
{ACAD_REACTORS
330
18
102
}
330
18
100
AcDbGroup
300

 70
     3
 71
     0
  0
GROUP
  5
63BE
102
{ACAD_REACTORS
330
18
102
}
330
18
100
AcDbGroup
300

 70
     3
 71
     0
  0
GROUP
  5
1C5B
102
{ACAD_REACTORS
330
18
102
}
330
18
100
AcDbGroup
300

 70
     3
 71
     0
  0
GROUP
  5
6315
102
{ACAD_REACTORS
330
18
102
}
330
18
100
AcDbGroup
300

 70
     3
 71
     0
  0
GROUP
  5
4892
102
{ACAD_REACTORS
330
18
102
}
330
18
100
AcDbGroup
300

 70
     3
 71
     0
  0
GROUP
  5
630C
102
{ACAD_REACTORS
330
18
102
}
330
18
100
AcDbGroup
300

 70
     3
 71
     0
  0
GROUP
  5
4901
102
{ACAD_REACTORS
330
18
102
}
330
18
100
AcDbGroup
300

 70
     3
 71
     0
  0
GROUP
  5
1C60
102
{ACAD_REACTORS
330
18
102
}
330
18
100
AcDbGroup
300

 70
     3
 71
     0
  0
GROUP
  5
6413
102
{ACAD_REACTORS
330
18
102
}
330
18
100
AcDbGroup
300

 70
     3
 71
     0
  0
GROUP
  5
63C6
102
{ACAD_REACTORS
330
18
102
}
330
18
100
AcDbGroup
300

 70
     3
 71
     0
  0
GROUP
  5
1BA5
102
{ACAD_REACTORS
330
18
102
}
330
18
100
AcDbGroup
300

 70
     3
 71
     0
  0
GROUP
  5
4829
102
{ACAD_REACTORS
330
18
102
}
330
18
100
AcDbGroup
300

 70
     3
 71
     0
  0
GROUP
  5
48A3
102
{ACAD_REACTORS
330
18
102
}
330
18
100
AcDbGroup
300

 70
     3
 71
     0
  0
GROUP
  5
62EF
102
{ACAD_REACTORS
330
18
102
}
330
18
100
AcDbGroup
300

 70
     3
 71
     0
  0
GROUP
  5
6377
102
{ACAD_REACTORS
330
18
102
}
330
18
100
AcDbGroup
300

 70
     3
 71
     0
  0
GROUP
  5
4857
102
{ACAD_REACTORS
330
18
102
}
330
18
100
AcDbGroup
300

 70
     3
 71
     0
  0
GROUP
  5
4945
102
{ACAD_REACTORS
330
18
102
}
330
18
100
AcDbGroup
300

 70
     3
 71
     0
  0
GROUP
  5
1B94
102
{ACAD_REACTORS
330
18
102
}
330
18
100
AcDbGroup
300

 70
     3
 71
     0
  0
GROUP
  5
49B5
102
{ACAD_REACTORS
330
18
102
}
330
18
100
AcDbGroup
300

 70
     3
 71
     0
  0
GROUP
  5
1BFE
102
{ACAD_REACTORS
330
18
102
}
330
18
100
AcDbGroup
300

 70
     3
 71
     0
  0
GROUP
  5
63EF
102
{ACAD_REACTORS
330
18
102
}
330
18
100
AcDbGroup
300

 70
     3
 71
     0
  0
GROUP
  5
1BF0
102
{ACAD_REACTORS
330
18
102
}
330
18
100
AcDbGroup
300

 70
     3
 71
     0
  0
GROUP
  5
6405
102
{ACAD_REACTORS
330
18
102
}
330
18
100
AcDbGroup
300

 70
     3
 71
     0
  0
GROUP
  5
1C1D
102
{ACAD_REACTORS
330
18
102
}
330
18
100
AcDbGroup
300

 70
     3
 71
     0
  0
GROUP
  5
1BCF
102
{ACAD_REACTORS
330
18
102
}
330
18
100
AcDbGroup
300

 70
     3
 71
     0
  0
GROUP
  5
48C9
102
{ACAD_REACTORS
330
18
102
}
330
18
100
AcDbGroup
300

 70
     3
 71
     0
  0
GROUP
  5
1B6E
102
{ACAD_REACTORS
330
18
102
}
330
18
100
AcDbGroup
300

 70
     3
 71
     0
  0
GROUP
  5
6279
102
{ACAD_REACTORS
330
18
102
}
330
18
100
AcDbGroup
300

 70
     3
 71
     0
  0
GROUP
  5
63DC
102
{ACAD_REACTORS
330
18
102
}
330
18
100
AcDbGroup
300

 70
     3
 71
     0
  0
GROUP
  5
4842
102
{ACAD_REACTORS
330
18
102
}
330
18
100
AcDbGroup
300

 70
     3
 71
     0
  0
GROUP
  5
4A02
102
{ACAD_REACTORS
330
18
102
}
330
18
100
AcDbGroup
300

 70
     3
 71
     0
  0
GROUP
  5
1BEA
102
{ACAD_REACTORS
330
18
102
}
330
18
100
AcDbGroup
300

 70
     3
 71
     0
  0
GROUP
  5
1C5D
102
{ACAD_REACTORS
330
18
102
}
330
18
100
AcDbGroup
300

 70
     3
 71
     0
  0
GROUP
  5
631D
102
{ACAD_REACTORS
330
18
102
}
330
18
100
AcDbGroup
300

 70
     3
 71
     0
  0
GROUP
  5
1C25
102
{ACAD_REACTORS
330
18
102
}
330
18
100
AcDbGroup
300

 70
     3
 71
     0
  0
GROUP
  5
1B77
102
{ACAD_REACTORS
330
18
102
}
330
18
100
AcDbGroup
300

 70
     3
 71
     0
  0
GROUP
  5
49E3
102
{ACAD_REACTORS
330
18
102
}
330
18
100
AcDbGroup
300

 70
     3
 71
     0
  0
GROUP
  5
6337
102
{ACAD_REACTORS
330
18
102
}
330
18
100
AcDbGroup
300

 70
     3
 71
     0
  0
GROUP
  5
1B50
102
{ACAD_REACTORS
330
18
102
}
330
18
100
AcDbGroup
300

 70
     3
 71
     0
  0
GROUP
  5
48F8
102
{ACAD_REACTORS
330
18
102
}
330
18
100
AcDbGroup
300

 70
     3
 71
     0
  0
GROUP
  5
4A04
102
{ACAD_REACTORS
330
18
102
}
330
18
100
AcDbGroup
300

 70
     3
 71
     0
  0
GROUP
  5
636A
102
{ACAD_REACTORS
330
18
102
}
330
18
100
AcDbGroup
300

 70
     3
 71
     0
  0
GROUP
  5
6346
102
{ACAD_REACTORS
330
18
102
}
330
18
100
AcDbGroup
300

 70
     3
 71
     0
  0
GROUP
  5
6347
102
{ACAD_REACTORS
330
18
102
}
330
18
100
AcDbGroup
300

 70
     3
 71
     0
  0
GROUP
  5
4A0C
102
{ACAD_REACTORS
330
18
102
}
330
18
100
AcDbGroup
300

 70
     3
 71
     0
  0
GROUP
  5
640C
102
{ACAD_REACTORS
330
18
102
}
330
18
100
AcDbGroup
300

 70
     3
 71
     0
  0
GROUP
  5
49C4
102
{ACAD_REACTORS
330
18
102
}
330
18
100
AcDbGroup
300

 70
     3
 71
     0
  0
GROUP
  5
4887
102
{ACAD_REACTORS
330
18
102
}
330
18
100
AcDbGroup
300

 70
     3
 71
     0
  0
GROUP
  5
62B0
102
{ACAD_REACTORS
330
18
102
}
330
18
100
AcDbGroup
300

 70
     3
 71
     0
  0
GROUP
  5
48FA
102
{ACAD_REACTORS
330
18
102
}
330
18
100
AcDbGroup
300

 70
     3
 71
     0
  0
GROUP
  5
49F5
102
{ACAD_REACTORS
330
18
102
}
330
18
100
AcDbGroup
300

 70
     3
 71
     0
  0
GROUP
  5
6302
102
{ACAD_REACTORS
330
18
102
}
330
18
100
AcDbGroup
300

 70
     3
 71
     0
  0
GROUP
  5
62F7
102
{ACAD_REACTORS
330
18
102
}
330
18
100
AcDbGroup
300

 70
     3
 71
     0
  0
MLINESTYLE
  5
1D
102
{ACAD_REACTORS
330
19
102
}
330
19
100
AcDbMlineStyle
  2
STANDARD
 70
     0
  3

 62
     0
 51
90.0
 52
90.0
 71
     2
 49
0.5
 62
   256
  6
BYLAYER
 49
-0.5
 62
   256
  6
BYLAYER
  0
ACDBPLACEHOLDER
  5
EDC6
102
{ACAD_REACTORS
330
EDC5
102
}
330
EDC5
100
AcDbPlaceHolder
280
     0
  0
XRECORD
  5
1FE50
102
{ACAD_REACTORS
330
1FE46
102
}
330
1FE46
100
AcDbXrecord
 90
        0
  0
XRECORD
  5
1FE54
102
{ACAD_REACTORS
330
1FE46
102
}
330
1FE46
100
AcDbXrecord
1000
DSTYLE
1002
{
1070
    79
 70
     2
1070
   179
 70
     1
1002
}
  0
XRECORD
  5
1FE51
102
{ACAD_REACTORS
330
1FE46
102
}
330
1FE46
100
AcDbXrecord
  1
{5EB6113A-69ED-450E-876F-E97B1CCBD74B}
  0
XRECORD
  5
1FE49
102
{ACAD_REACTORS
330
1FE46
102
}
330
1FE46
100
AcDbXrecord
  1

  0
XRECORD
  5
1FE4F
102
{ACAD_REACTORS
330
1FE46
102
}
330
1FE46
100
AcDbXrecord
 90
        0
  0
XRECORD
  5
1FE4B
102
{ACAD_REACTORS
330
1FE46
102
}
330
1FE46
100
AcDbXrecord
340
EDC7
  0
XRECORD
  5
1FE4E
102
{ACAD_REACTORS
330
1FE46
102
}
330
1FE46
100
AcDbXrecord
 90
    14877
  0
XRECORD
  5
1FE4C
102
{ACAD_REACTORS
330
1FE46
102
}
330
1FE46
100
AcDbXrecord
340
EDC8
  0
XRECORD
  5
1FE4D
102
{ACAD_REACTORS
330
1FE46
102
}
330
1FE46
100
AcDbXrecord
340
EDC5
  0
XRECORD
  5
1FE53
102
{ACAD_REACTORS
330
1FE46
102
}
330
1FE46
100
AcDbXrecord
 40
0.0
  0
XRECORD
  5
1FE57
102
{ACAD_REACTORS
330
1FE46
102
}
330
1FE46
100
AcDbXrecord
340
0
  0
XRECORD
  5
1FE5D
102
{ACAD_REACTORS
330
1FE46
102
}
330
1FE46
100
AcDbXrecord
 10
0.0
 20
0.0
 30
0.0
  0
XRECORD
  5
1FE59
102
{ACAD_REACTORS
330
1FE46
102
}
330
1FE46
100
AcDbXrecord
 10
0.0
 20
0.0
 30
0.0
  0
XRECORD
  5
1FE5C
102
{ACAD_REACTORS
330
1FE46
102
}
330
1FE46
100
AcDbXrecord
 10
0.0
 20
0.0
 30
0.0
  0
XRECORD
  5
1FE5A
102
{ACAD_REACTORS
330
1FE46
102
}
330
1FE46
100
AcDbXrecord
 10
0.0
 20
0.0
 30
0.0
  0
XRECORD
  5
1FE5B
102
{ACAD_REACTORS
330
1FE46
102
}
330
1FE46
100
AcDbXrecord
 10
0.0
 20
0.0
 30
0.0
  0
XRECORD
  5
1FE58
102
{ACAD_REACTORS
330
1FE46
102
}
330
1FE46
100
AcDbXrecord
 10
0.0
 20
0.0
 30
0.0
  0
XRECORD
  5
1FE55
102
{ACAD_REACTORS
330
1FE46
102
}
330
1FE46
100
AcDbXrecord
340
0
  0
XRECORD
  5
1FE56
102
{ACAD_REACTORS
330
1FE46
102
}
330
1FE46
100
AcDbXrecord
 70
     0
  0
XRECORD
  5
1FE4A
102
{ACAD_REACTORS
330
1FE46
102
}
330
1FE46
100
AcDbXrecord
  1

  0
XRECORD
  5
1FE47
102
{ACAD_REACTORS
330
1FE46
102
}
330
1FE46
100
AcDbXrecord
 90
        1
  0
XRECORD
  5
1FE48
102
{ACAD_REACTORS
330
1FE46
102
}
330
1FE46
100
AcDbXrecord
 90
       70
  0
XRECORD
  5
1FE60
102
{ACAD_REACTORS
330
1FE46
102
}
330
1FE46
100
AcDbXrecord
340
0
  0
XRECORD
  5
1FE66
102
{ACAD_REACTORS
330
1FE46
102
}
330
1FE46
100
AcDbXrecord
 10
0.0
 20
0.0
 30
0.0
  0
XRECORD
  5
1FE62
102
{ACAD_REACTORS
330
1FE46
102
}
330
1FE46
100
AcDbXrecord
 10
0.0
 20
0.0
 30
0.0
  0
XRECORD
  5
1FE65
102
{ACAD_REACTORS
330
1FE46
102
}
330
1FE46
100
AcDbXrecord
 10
0.0
 20
0.0
 30
0.0
  0
XRECORD
  5
1FE63
102
{ACAD_REACTORS
330
1FE46
102
}
330
1FE46
100
AcDbXrecord
 10
0.0
 20
0.0
 30
0.0
  0
XRECORD
  5
1FE64
102
{ACAD_REACTORS
330
1FE46
102
}
330
1FE46
100
AcDbXrecord
 10
0.0
 20
0.0
 30
0.0
  0
XRECORD
  5
1FE61
102
{ACAD_REACTORS
330
1FE46
102
}
330
1FE46
100
AcDbXrecord
 10
0.0
 20
0.0
 30
0.0
  0
XRECORD
  5
1FE5E
102
{ACAD_REACTORS
330
1FE46
102
}
330
1FE46
100
AcDbXrecord
340
0
  0
XRECORD
  5
1FE5F
102
{ACAD_REACTORS
330
1FE46
102
}
330
1FE46
100
AcDbXrecord
 70
     0
  0
XRECORD
  5
1FE52
102
{ACAD_REACTORS
330
1FE46
102
}
330
1FE46
100
AcDbXrecord
  1
{A6125355-F39D-4C95-939B-FC378FC3DDDE}
  0
DICTIONARYVAR
  5
EDE8
102
{ACAD_REACTORS
330
EDE7
102
}
330
EDE7
100
DictionaryVariables
280
     0
  1
1
  0
ENDSEC
  0
EOF
