  0
SECTION
  2
HEADER
  9
$ACADVER
  1
AC1014
  9
$ACADMAINTVER
 70
     9
  9
$DWGCODEPAGE
  3
ANSI_1252
  9
$INSBASE
 10
421.0218958999721
 20
357.7769748938917
 30
0.0
  9
$EXTMIN
 10
-1452.407976980932
 20
1829.090539512936
 30
0.0
  9
$EXTMAX
 10
2501.031257637156
 20
6346.188038735895
 30
0.0
  9
$LIMMIN
 10
9749.260046900117
 20
-1602.70564605534
  9
$LIMMAX
 10
11438.24325486453
 20
-732.5285748461251
  9
$ORTHOMODE
 70
     1
  9
$REGENMODE
 70
     1
  9
$FILLMODE
 70
     1
  9
$QTEXTMODE
 70
     0
  9
$MIRRTEXT
 70
     1
  9
$DRAGMODE
 70
     2
  9
$LTSCALE
 40
5.0
  9
$OSMODE
 70
   128
  9
$ATTMODE
 70
     1
  9
$TEXTSIZE
 40
40.0
  9
$TRACEWID
 40
1.0
  9
$TEXTSTYLE
  7
ROMANS8
  9
$CLAYER
  8
VLB
  9
$CELTYPE
  6
BYLAYER
  9
$CECOLOR
 62
   256
  9
$CELTSCALE
 40
1.0
  9
$DELOBJ
 70
     1
  9
$DISPSILH
 70
     0
  9
$DIMSCALE
 40
20.0
  9
$DIMASZ
 40
3.5
  9
$DIMEXO
 40
0.1
  9
$DIMDLI
 40
7.0
  9
$DIMRND
 40
0.0
  9
$DIMDLE
 40
0.0
  9
$DIMEXE
 40
1.8
  9
$DIMTP
 40
0.0
  9
$DIMTM
 40
0.0
  9
$DIMTXT
 40
3.5
  9
$DIMCEN
 40
0.0
  9
$DIMTSZ
 40
0.0
  9
$DIMTOL
 70
     0
  9
$DIMLIM
 70
     0
  9
$DIMTIH
 70
     0
  9
$DIMTOH
 70
     0
  9
$DIMSE1
 70
     0
  9
$DIMSE2
 70
     0
  9
$DIMTAD
 70
     1
  9
$DIMZIN
 70
     8
  9
$DIMBLK
  1

  9
$DIMASO
 70
     1
  9
$DIMSHO
 70
     0
  9
$DIMPOST
  1

  9
$DIMAPOST
  1

  9
$DIMALT
 70
     0
  9
$DIMALTD
 70
     2
  9
$DIMALTF
 40
25.4
  9
$DIMLFAC
 40
1.0
  9
$DIMTOFL
 70
     0
  9
$DIMTVP
 40
0.0
  9
$DIMTIX
 70
     0
  9
$DIMSOXD
 70
     0
  9
$DIMSAH
 70
     0
  9
$DIMBLK1
  1

  9
$DIMBLK2
  1

  9
$DIMSTYLE
  2
1_20
  9
$DIMCLRD
 70
   256
  9
$DIMCLRE
 70
   256
  9
$DIMCLRT
 70
   256
  9
$DIMTFAC
 40
1.0
  9
$DIMGAP
 40
1.7
  9
$DIMJUST
 70
     0
  9
$DIMSD1
 70
     0
  9
$DIMSD2
 70
     0
  9
$DIMTOLJ
 70
     1
  9
$DIMTZIN
 70
     8
  9
$DIMALTZ
 70
     0
  9
$DIMALTTZ
 70
     0
  9
$DIMFIT
 70
     3
  9
$DIMUPT
 70
     1
  9
$DIMUNIT
 70
     2
  9
$DIMDEC
 70
     4
  9
$DIMTDEC
 70
     4
  9
$DIMALTU
 70
     2
  9
$DIMALTTD
 70
     2
  9
$DIMTXSTY
  7
ROMANS
  9
$DIMAUNIT
 70
     0
  9
$LUNITS
 70
     2
  9
$LUPREC
 70
     2
  9
$SKETCHINC
 40
1.0
  9
$FILLETRAD
 40
0.0
  9
$AUNITS
 70
     0
  9
$AUPREC
 70
     2
  9
$MENU
  1
ACAD
  9
$ELEVATION
 40
0.0
  9
$PELEVATION
 40
0.0
  9
$THICKNESS
 40
0.0
  9
$LIMCHECK
 70
     0
  9
$BLIPMODE
 70
     0
  9
$CHAMFERA
 40
15.0
  9
$CHAMFERB
 40
15.0
  9
$CHAMFERC
 40
0.0
  9
$CHAMFERD
 40
0.0
  9
$SKPOLY
 70
     0
  9
$TDCREATE
 40
2453677.393372893
  9
$TDUPDATE
 40
2453682.579505740
  9
$TDINDWG
 40
0.4889170255
  9
$TDUSRTIMER
 40
0.4889149421
  9
$USRTIMER
 70
     1
  9
$ANGBASE
 50
0.0
  9
$ANGDIR
 70
     0
  9
$PDMODE
 70
     2
  9
$PDSIZE
 40
2.0
  9
$PLINEWID
 40
0.0
  9
$COORDS
 70
     0
  9
$SPLFRAME
 70
     0
  9
$SPLINETYPE
 70
     6
  9
$SPLINESEGS
 70
     8
  9
$ATTDIA
 70
     0
  9
$ATTREQ
 70
     1
  9
$HANDLING
 70
 22529
  9
$HANDSEED
  5
1FE6B
  9
$SURFTAB1
 70
     6
  9
$SURFTAB2
 70
     6
  9
$SURFTYPE
 70
     6
  9
$SURFU
 70
     6
  9
$SURFV
 70
     6
  9
$UCSNAME
  2

  9
$UCSORG
 10
10154.57763192681
 20
-1347.460051185509
 30
0.0
  9
$UCSXDIR
 10
1.0
 20
0.0
 30
0.0
  9
$UCSYDIR
 10
0.0
 20
1.0
 30
0.0
  9
$PUCSNAME
  2

  9
$PUCSORG
 10
0.0
 20
0.0
 30
0.0
  9
$PUCSXDIR
 10
1.0
 20
0.0
 30
0.0
  9
$PUCSYDIR
 10
0.0
 20
1.0
 30
0.0
  9
$USERI1
 70
     0
  9
$USERI2
 70
     0
  9
$USERI3
 70
     0
  9
$USERI4
 70
     0
  9
$USERI5
 70
     0
  9
$USERR1
 40
0.0
  9
$USERR2
 40
0.0
  9
$USERR3
 40
0.0
  9
$USERR4
 40
0.0
  9
$USERR5
 40
0.0
  9
$WORLDVIEW
 70
     1
  9
$SHADEDGE
 70
     3
  9
$SHADEDIF
 70
    70
  9
$TILEMODE
 70
     1
  9
$MAXACTVP
 70
    16
  9
$PINSBASE
 10
0.0
 20
0.0
 30
0.0
  9
$PLIMCHECK
 70
     0
  9
$PEXTMIN
 10
-559.9955194189885
 20
-11.99914987354685
 30
0.0
  9
$PEXTMAX
 10
898.8167291158939
 20
692.004025362777
 30
5.0
  9
$PLIMMIN
 10
-581.4504078847034
 20
-42.42333302514301
  9
$PLIMMAX
 10
920.2716460794404
 20
1019.530090726515
  9
$UNITMODE
 70
     1
  9
$VISRETAIN
 70
     0
  9
$PLINEGEN
 70
     0
  9
$PSLTSCALE
 70
     0
  9
$TREEDEPTH
 70
  3020
  9
$PICKSTYLE
 70
     1
  9
$CMLSTYLE
  2
STANDARD
  9
$CMLJUST
 70
     0
  9
$CMLSCALE
 40
1.0
  9
$PROXYGRAPHICS
 70
     1
  9
$MEASUREMENT
 70
     1
  0
ENDSEC
  0
SECTION
  2
CLASSES
  0
CLASS
  1
IDBUFFER
  2
AcDbIdBuffer
  3
AutoCAD 2000
 90
        0
280
     0
281
     0
  0
CLASS
  1
LWPOLYLINE
  2
AcDbPolyline
  3
AutoCAD 2000
 90
        0
280
     0
281
     1
  0
CLASS
  1
DICTIONARYVAR
  2
AcDbDictionaryVar
  3
AutoCAD 2000
 90
        0
280
     0
281
     0
  0
CLASS
  1
HATCH
  2
AcDbHatch
  3
AutoCAD 2000
 90
        0
280
     0
281
     1
  0
CLASS
  1
ACDBDICTIONARYWDFLT
  2
AcDbDictionaryWithDefault
  3
AutoCAD 2000
 90
        0
280
     0
281
     0
  0
CLASS
  1
ACDBPLACEHOLDER
  2
AcDbPlaceHolder
  3
AutoCAD 2000
 90
        0
280
     0
281
     0
  0
CLASS
  1
LAYOUT
  2
AcDbLayout
  3
AutoCAD 2000
 90
        0
280
     0
281
     0
  0
CLASS
  1
LONG_TRANSACTION
  2
AcDbLongTransaction
  3
AutoCAD 2000
 90
        0
280
     0
281
     0
  0
CLASS
  1
LWPOLYLINE
  2
AcDbPolyline
  3
AutoCAD 2000
 90
        0
280
     0
281
     1
  0
CLASS
  1
HATCH
  2
AcDbHatch
  3
AutoCAD 2000
 90
        0
280
     0
281
     1
  0
CLASS
  1
XRECORD
  2
AcDbXrecord
  3
AutoCAD 2000
 90
        0
280
     0
281
     0
  0
ENDSEC
  0
SECTION
  2
TABLES
  0
TABLE
  2
VPORT
  5
12
330
0
100
AcDbSymbolTable
 70
     2
  0
VPORT
  5
1FE45
330
12
100
AcDbSymbolTableRecord
100
AcDbViewportTableRecord
  2
*ACTIVE
 70
     0
 10
0.0
 20
0.0
 11
1.0
 21
1.0
 12
523.6929945418232
 22
4087.698452648353
 13
0.0
 23
0.0
 14
1.0
 24
1.0
 15
10.0
 25
10.0
 16
0.0
 26
0.0
 36
1.0
 17
0.0
 27
0.0
 37
0.0
 40
4560.556241153786
 41
1.714968152866241
 42
50.0
 43
0.0
 44
0.0
 50
0.0
 51
0.0
 71
     0
 72
  1000
 73
     1
 74
     1
 75
     0
 76
     0
 77
     0
 78
     0
  0
ENDTAB
  0
TABLE
  2
LTYPE
  5
D
330
0
100
AcDbSymbolTable
 70
     3
  0
LTYPE
  5
E
330
D
100
AcDbSymbolTableRecord
100
AcDbLinetypeTableRecord
  2
BYBLOCK
 70
     0
  3

 72
    65
 73
     0
 40
0.0
  0
LTYPE
  5
F
330
D
100
AcDbSymbolTableRecord
100
AcDbLinetypeTableRecord
  2
BYLAYER
 70
     0
  3

 72
    65
 73
     0
 40
0.0
  0
LTYPE
  5
5
330
D
100
AcDbSymbolTableRecord
100
AcDbLinetypeTableRecord
  2
AUSGEZOGEN
 70
     0
  3
Ausgezogene Linie
 72
    65
 73
     0
 40
0.0
  0
LTYPE
  5
21
330
D
100
AcDbSymbolTableRecord
100
AcDbLinetypeTableRecord
  2
MLA3
 70
     0
  3
------ - -------
 72
    65
 73
     4
 40
15.0
 49
10.0
 74
     0
 49
-2.0
 74
     0
 49
1.0
 74
     0
 49
-2.0
 74
     0
  0
LTYPE
  5
540
330
D
100
AcDbSymbolTableRecord
100
AcDbLinetypeTableRecord
  2
CONTINUOUS
 70
     0
  3
Solid line
 72
    65
 73
     0
 40
0.0
  0
ENDTAB
  0
TABLE
  2
LAYER
  5
A
330
0
100
AcDbSymbolTable
 70
     5
  0
LAYER
  5
4
330
A
100
AcDbSymbolTableRecord
100
AcDbLayerTableRecord
  2
0
 70
     0
 62
     7
  6
AUSGEZOGEN
  0
LAYER
  5
1B
330
A
100
AcDbSymbolTableRecord
100
AcDbLayerTableRecord
  2
VLB
 70
     0
 62
     7
  6
AUSGEZOGEN
  0
LAYER
  5
20
330
A
100
AcDbSymbolTableRecord
100
AcDbLayerTableRecord
  2
SPS
 70
     0
 62
     1
  6
MLA3
  0
LAYER
  5
5B
330
A
100
AcDbSymbolTableRecord
100
AcDbLayerTableRecord
  2
VLS
 70
     0
 62
   252
  6
AUSGEZOGEN
  0
LAYER
  5
73C
330
A
100
AcDbSymbolTableRecord
100
AcDbLayerTableRecord
  2
DEFPOINTS
 70
     0
 62
     7
  6
AUSGEZOGEN
  0
ENDTAB
  0
TABLE
  2
STYLE
  5
B
330
0
100
AcDbSymbolTable
 70
     3
  0
STYLE
  5
C
330
B
100
AcDbSymbolTableRecord
100
AcDbTextStyleTableRecord
  2
STANDARD
 70
     0
 40
0.0
 41
1.0
 50
0.0
 71
     0
 42
3.0
  3
txt
  4

  0
STYLE
  5
1C
330
B
100
AcDbSymbolTableRecord
100
AcDbTextStyleTableRecord
  2
ROMANS
 70
     0
 40
0.0
 41
1.0
 50
0.0
 71
     0
 42
3.5
  3
romans.shx
  4

  0
STYLE
  5
1451
330
B
100
AcDbSymbolTableRecord
100
AcDbTextStyleTableRecord
  2
ROMANS8
 70
     0
 40
0.0
 41
1.0
 50
0.0
 71
     0
 42
40.0
  3
simplex.shx
  4

  0
ENDTAB
  0
TABLE
  2
VIEW
  5
10
330
0
100
AcDbSymbolTable
 70
     0
  0
ENDTAB
  0
TABLE
  2
UCS
  5
11
330
0
100
AcDbSymbolTable
 70
     0
  0
ENDTAB
  0
TABLE
  2
APPID
  5
14
330
0
100
AcDbSymbolTable
 70
     6
  0
APPID
  5
15
330
14
100
AcDbSymbolTableRecord
100
AcDbRegAppTableRecord
  2
ACAD
 70
     0
  0
APPID
  5
81B
330
14
100
AcDbSymbolTableRecord
100
AcDbRegAppTableRecord
  2
CONTENTTABDATA
 70
     0
  0
APPID
  5
81C
330
14
100
AcDbSymbolTableRecord
100
AcDbRegAppTableRecord
  2
CONTENTCURRENTTAB
 70
     0
  0
APPID
  5
9B6
330
14
100
AcDbSymbolTableRecord
100
AcDbRegAppTableRecord
  2
CONTENTBLOCKDESCRIPTION
 70
     0
  0
APPID
  5
B5D
330
14
100
AcDbSymbolTableRecord
100
AcDbRegAppTableRecord
  2
CONTENTBLOCKICON
 70
     0
  0
APPID
  5
1453
330
14
100
AcDbSymbolTableRecord
100
AcDbRegAppTableRecord
  2
AVE_RENDER
 70
     0
  0
ENDTAB
  0
TABLE
  2
DIMSTYLE
  5
16
330
0
100
AcDbSymbolTable
 70
     2
  0
DIMSTYLE
105
1E
330
16
100
AcDbSymbolTableRecord
100
AcDbDimStyleTableRecord
  2
STANDARD
 70
     0
  3

  4

  5

  6

  7

 40
3.0
 41
3.5
 42
0.1
 43
7.0
 44
1.8
 45
0.0
 46
0.0
 47
0.0
 48
0.0
140
3.5
141
0.0
142
0.0
143
25.4
144
1.0
145
0.0
146
1.0
147
1.7
 71
     0
 72
     0
 73
     0
 74
     0
 75
     0
 76
     0
 77
     1
 78
     8
170
     0
171
     2
172
     0
173
     0
174
     0
175
     0
176
   256
177
   256
178
   256
270
     2
271
     2
272
     2
273
     2
274
     2
340
1C
275
     0
280
     0
281
     0
282
     0
283
     1
284
     0
285
     0
286
     0
287
     3
288
     1
  0
DIMSTYLE
105
955B
330
16
100
AcDbSymbolTableRecord
100
AcDbDimStyleTableRecord
  2
1_20
 70
     0
  3

  4

  5

  6

  7

 40
20.0
 41
3.5
 42
0.1
 43
7.0
 44
1.8
 45
0.0
 46
0.0
 47
0.0
 48
0.0
140
3.5
141
0.0
142
0.0
143
25.4
144
1.0
145
0.0
146
1.0
147
1.7
 71
     0
 72
     0
 73
     0
 74
     0
 75
     0
 76
     0
 77
     1
 78
     8
170
     0
171
     2
172
     0
173
     0
174
     0
175
     0
176
   256
177
   256
178
   256
270
     2
271
     4
272
     4
273
     2
274
     2
340
1C
275
     0
280
     0
281
     0
282
     0
283
     1
284
     8
285
     0
286
     0
287
     3
288
     1
  0
ENDTAB
  0
TABLE
  2
BLOCK_RECORD
  5
1
330
0
100
AcDbSymbolTable
 70
     0
  0
BLOCK_RECORD
  5
2
102
{ACAD_XDICTIONARY
360
1FE67
102
}
330
1
100
AcDbSymbolTableRecord
100
AcDbBlockTableRecord
  2
*MODEL_SPACE
  0
BLOCK_RECORD
  5
7
102
{ACAD_XDICTIONARY
360
1FE69
102
}
330
1
100
AcDbSymbolTableRecord
100
AcDbBlockTableRecord
  2
*PAPER_SPACE
  0
ENDTAB
  0
ENDSEC
  0
SECTION
  2
BLOCKS
  0
BLOCK
  5
3
330
2
100
AcDbEntity
  8
0
100
AcDbBlockBegin
  2
*MODEL_SPACE
 70
     2
 10
0.0
 20
0.0
 30
0.0
  3
*MODEL_SPACE
  1

  0
ENDBLK
  5
6
330
2
100
AcDbEntity
  8
0
100
AcDbBlockEnd
  0
BLOCK
  5
8
330
7
100
AcDbEntity
 67
     1
  8
0
100
AcDbBlockBegin
  2
*PAPER_SPACE
 70
     2
 10
0.0
 20
0.0
 30
0.0
  3
*PAPER_SPACE
  1

  0
ENDBLK
  5
9
330
7
100
AcDbEntity
 67
     1
  8
0
100
AcDbBlockEnd
  0
ENDSEC
  0
SECTION
  2
ENTITIES
  0
LINE
  5
1F96A
330
2
100
AcDbEntity
  8
VLB
100
AcDbLine
 10
-1437.407976980932
 20
4143.709034781838
 30
0.0
 11
118.5920230190677
 21
4143.709034781838
 31
0.0
  0
LINE
  5
1F96B
330
2
100
AcDbEntity
  8
VLB
100
AcDbLine
 10
118.5920230190677
 20
4143.709034781838
 30
0.0
 11
118.5920230190677
 21
5643.709034781838
 31
0.0
  0
LINE
  5
1F96C
330
2
100
AcDbEntity
  8
VLB
100
AcDbLine
 10
118.5920230190677
 20
5643.709034781838
 30
0.0
 11
-1437.407976980932
 21
5643.709034781838
 31
0.0
  0
LINE
  5
1F96D
330
2
100
AcDbEntity
  8
VLB
100
AcDbLine
 10
-1437.407976980932
 20
5643.709034781838
 30
0.0
 11
-1437.407976980932
 21
4143.709034781838
 31
0.0
  0
LINE
  5
1F96E
330
2
100
AcDbEntity
  8
VLB
100
AcDbLine
 10
-1435.407976980932
 20
5643.709034781838
 30
0.0
 11
-1435.407976980932
 21
4143.709034781838
 31
0.0
  0
LINE
  5
1F96F
330
2
100
AcDbEntity
  8
VLB
100
AcDbLine
 10
117.5920230190677
 20
4143.709034781838
 30
0.0
 11
117.5920230190677
 21
5643.709034781838
 31
0.0
  0
LINE
  5
1F971
330
2
100
AcDbEntity
  8
VLB
100
AcDbLine
 10
-1297.407976980932
 20
4138.709034781838
 30
0.0
 11
-21.40797698093229
 21
4138.709034781838
 31
0.0
  0
LINE
  5
1F972
330
2
100
AcDbEntity
  8
VLB
100
AcDbLine
 10
-1297.407976980932
 20
4143.709034781838
 30
0.0
 11
-1297.407976980932
 21
4138.709034781838
 31
0.0
  0
LINE
  5
1F973
330
2
100
AcDbEntity
  8
VLB
100
AcDbLine
 10
-21.40797698093229
 20
4143.709034781838
 30
0.0
 11
-21.40797698093229
 21
4138.709034781838
 31
0.0
  0
LINE
  5
1F974
330
2
100
AcDbEntity
  8
SPS
100
AcDbLine
 10
-659.4079769809322
 20
5778.286140814023
 30
0.0
 11
-659.4079769809322
 21
4123.709034781837
 31
0.0
  0
LINE
  5
1F975
330
2
100
AcDbEntity
  8
SPS
100
AcDbLine
 10
-1415.463660510069
 20
4158.709034781837
 30
0.0
 11
-1450.543229171193
 21
4158.709034781837
 31
0.0
  0
LINE
  5
1F976
330
2
100
AcDbEntity
  8
SPS
100
AcDbLine
 10
-1100.162468074688
 20
4158.709034781837
 30
0.0
 11
-1118.890287591142
 21
4158.709034781837
 31
0.0
  0
LINE
  5
1F977
330
2
100
AcDbEntity
  8
SPS
100
AcDbLine
 10
-1109.407976980937
 20
4151.286502553317
 30
0.0
 11
-1109.407976980937
 21
4168.691279218088
 31
0.0
  0
LINE
  5
1F978
330
2
100
AcDbEntity
  8
SPS
100
AcDbLine
 10
-220.6534858871873
 20
4158.709034781837
 30
0.0
 11
-201.9256663707328
 21
4158.709034781837
 31
0.0
  0
LINE
  5
1F979
330
2
100
AcDbEntity
  8
SPS
100
AcDbLine
 10
-211.4079769809377
 20
4151.286502553317
 30
0.0
 11
-211.4079769809377
 21
4168.691279218088
 31
0.0
  0
LINE
  5
1F97A
330
2
100
AcDbEntity
  8
SPS
100
AcDbLine
 10
94.64770654819403
 20
4158.709034781837
 30
0.0
 11
129.7272752093176
 21
4158.709034781837
 31
0.0
  0
LINE
  5
1F97C
330
2
100
AcDbEntity
  8
SPS
100
AcDbLine
 10
-1109.407976980939
 20
4151.286502553317
 30
0.0
 11
-1109.407976980939
 21
4168.691279218088
 31
0.0
  0
LINE
  5
1F97D
330
2
100
AcDbEntity
  8
SPS
100
AcDbLine
 10
-1100.162468074689
 20
4158.709034781837
 30
0.0
 11
-1118.890287591144
 21
4158.709034781837
 31
0.0
  0
LINE
  5
1F97E
330
2
100
AcDbEntity
  8
SPS
100
AcDbLine
 10
-1118.153969401839
 20
4158.709034781837
 30
0.0
 11
-1100.661984560036
 21
4158.709034781837
 31
0.0
  0
LWPOLYLINE
  5
1F97F
330
2
100
AcDbEntity
  8
VLB
100
AcDbPolyline
 90
        6
 70
     1
 43
0.0
 10
-1113.16075373067
 20
4165.209034781837
 10
-1116.913530480402
 20
4158.709034781837
 10
-1113.16075373067
 20
4152.209034781837
 10
-1105.655200231205
 20
4152.209034781837
 10
-1101.902423481472
 20
4158.709034781837
 10
-1105.655200231205
 20
4165.209034781837
  0
CIRCLE
  5
1F980
330
2
100
AcDbEntity
  8
VLB
100
AcDbCircle
 10
-1109.407976980937
 20
4158.709034781837
 30
0.0
 40
6.5
  0
LINE
  5
1F981
330
2
100
AcDbEntity
  8
SPS
100
AcDbLine
 10
-1109.407976980937
 20
4167.455027202739
 30
0.0
 11
-1109.407976980937
 21
4149.963042360936
 31
0.0
  0
LINE
  5
1F982
330
2
100
AcDbEntity
  8
SPS
100
AcDbLine
 10
-211.4079769809395
 20
4151.286502553317
 30
0.0
 11
-211.4079769809395
 21
4168.691279218088
 31
0.0
  0
LINE
  5
1F983
330
2
100
AcDbEntity
  8
SPS
100
AcDbLine
 10
-202.1624680746899
 20
4158.709034781837
 30
0.0
 11
-220.8902875911444
 21
4158.709034781837
 31
0.0
  0
LINE
  5
1F984
330
2
100
AcDbEntity
  8
SPS
100
AcDbLine
 10
-220.1539694018392
 20
4158.709034781837
 30
0.0
 11
-202.6619845600362
 21
4158.709034781837
 31
0.0
  0
LWPOLYLINE
  5
1F985
330
2
100
AcDbEntity
  8
VLB
100
AcDbPolyline
 90
        6
 70
     1
 43
0.0
 10
-215.1607537306699
 20
4165.209034781837
 10
-218.9135304804021
 20
4158.709034781837
 10
-215.1607537306699
 20
4152.209034781837
 10
-207.6552002312055
 20
4152.209034781837
 10
-203.9024234814724
 20
4158.709034781837
 10
-207.6552002312055
 20
4165.209034781837
  0
CIRCLE
  5
1F986
330
2
100
AcDbEntity
  8
VLB
100
AcDbCircle
 10
-211.4079769809377
 20
4158.709034781837
 30
0.0
 40
6.5
  0
LINE
  5
1F987
330
2
100
AcDbEntity
  8
SPS
100
AcDbLine
 10
-211.4079769809377
 20
4167.455027202739
 30
0.0
 11
-211.4079769809377
 21
4149.963042360936
 31
0.0
  0
LINE
  5
1F988
330
2
100
AcDbEntity
  8
VLB
100
AcDbLine
 10
-1443.564541666431
 20
4159.709034781841
 30
0.0
 11
-1443.564541666431
 21
4165.375700781838
 31
0.0
  0
ARC
  5
1F989
330
2
100
AcDbEntity
  8
VLB
100
AcDbCircle
 10
-1430.826652666433
 20
4158.709034781837
 30
0.0
 40
12.737889
100
AcDbArc
 50
162.4120459999403
 51
175.4973080000216
  0
LINE
  5
1F98A
330
2
100
AcDbEntity
  8
VLB
100
AcDbLine
 10
-1438.231208666433
 20
4160.790941781841
 30
0.0
 11
-1438.231208666433
 21
4164.642366781838
 31
0.0
  0
LINE
  5
1F98B
330
2
100
AcDbEntity
  8
VLB
100
AcDbLine
 10
-1438.231208666433
 20
4166.209033781841
 30
0.0
 11
-1438.231208666433
 21
4159.709034781841
 31
0.0
  0
LINE
  5
1F98C
330
2
100
AcDbEntity
  8
VLB
100
AcDbLine
 10
-1438.897875666433
 20
4159.709034781841
 30
0.0
 11
-1438.897875666433
 21
4166.407036781839
 31
0.0
  0
LINE
  5
1F98D
330
2
100
AcDbEntity
  8
VLB
100
AcDbLine
 10
-1443.564541666431
 20
4152.042368781836
 30
0.0
 11
-1443.564541666431
 21
4159.709034781841
 31
0.0
  0
ARC
  5
1F98E
330
2
100
AcDbEntity
  8
VLB
100
AcDbCircle
 10
-1430.826652666433
 20
4158.709034781837
 30
0.0
 40
12.737889
100
AcDbArc
 50
175.4973080000216
 51
197.5879540000596
  0
LINE
  5
1F98F
330
2
100
AcDbEntity
  8
VLB
100
AcDbLine
 10
-1438.231208666433
 20
4158.709034781837
 30
0.0
 11
-1438.231208666433
 21
4151.209034781838
 31
0.0
  0
LINE
  5
1F990
330
2
100
AcDbEntity
  8
VLB
100
AcDbLine
 10
-1438.897875666433
 20
4151.011031781837
 30
0.0
 11
-1438.897875666433
 21
4159.709034781841
 31
0.0
  0
LINE
  5
1F991
330
2
100
AcDbEntity
  8
VLB
100
AcDbLine
 10
-1438.231208666433
 20
4152.77570178184
 30
0.0
 11
-1438.231208666433
 21
4159.709034781841
 31
0.0
  0
ARC
  5
1F992
330
2
100
AcDbEntity
  8
VLB
100
AcDbCircle
 10
-1440.191269666433
 20
4152.946233781836
 30
0.0
 40
3.373272
100
AcDbArc
 50
145.4349069999197
 51
210.0000000000272
  0
LINE
  5
1F993
330
2
100
AcDbEntity
  8
VLB
100
AcDbLine
 10
-1443.564541666431
 20
4152.042368781836
 30
0.0
 11
-1442.969098666432
 21
4151.011031781837
 31
0.0
  0
LINE
  5
1F994
330
2
100
AcDbEntity
  8
VLB
100
AcDbLine
 10
-1438.231208666433
 20
4152.77570178184
 30
0.0
 11
-1438.897875666433
 21
4152.77570178184
 31
0.0
  0
LINE
  5
1F995
330
2
100
AcDbEntity
  8
VLB
100
AcDbLine
 10
-1437.431208666434
 20
4151.209034781838
 30
0.0
 11
-1438.231208666433
 21
4151.209034781838
 31
0.0
1001
ACAD
1000
ASC_BOUNDS
1002
{
1070
    16
1002
}
  0
LINE
  5
1F996
330
2
100
AcDbEntity
  8
VLB
100
AcDbLine
 10
-1438.231208666433
 20
4151.209034781838
 30
0.0
 11
-1437.431208666434
 21
4151.209034781838
 31
0.0
  0
LINE
  5
1F997
330
2
100
AcDbEntity
  8
VLB
100
AcDbLine
 10
-1438.897875666433
 20
4154.860032781838
 30
0.0
 11
-1442.969098666432
 21
4154.860032781838
 31
0.0
  0
LINE
  5
1F998
330
2
100
AcDbEntity
  8
VLB
100
AcDbLine
 10
-1438.897875666433
 20
4151.011031781837
 30
0.0
 11
-1442.969098666432
 21
4151.011031781837
 31
0.0
  0
LINE
  5
1F999
330
2
100
AcDbEntity
  8
VLB
100
AcDbLine
 10
-1438.231208666433
 20
4159.709034781841
 30
0.0
 11
-1438.231208666433
 21
4158.709034781837
 31
0.0
  0
LINE
  5
1F99A
330
2
100
AcDbEntity
  8
VLB
100
AcDbLine
 10
-1443.564541666431
 20
4165.375700781838
 30
0.0
 11
-1442.969098666432
 21
4166.407036781839
 31
0.0
  0
LINE
  5
1F99B
330
2
100
AcDbEntity
  8
VLB
100
AcDbLine
 10
-1437.431208666434
 20
4166.209033781841
 30
0.0
 11
-1438.231208666433
 21
4166.209033781841
 31
0.0
1001
ACAD
1000
ASC_BOUNDS
1002
{
1070
    16
1002
}
  0
LINE
  5
1F99C
330
2
100
AcDbEntity
  8
VLB
100
AcDbLine
 10
-1438.231208666433
 20
4164.642366781838
 30
0.0
 11
-1438.897875666433
 21
4164.642366781838
 31
0.0
  0
LINE
  5
1F99D
330
2
100
AcDbEntity
  8
VLB
100
AcDbLine
 10
-1438.897875666433
 20
4166.407036781839
 30
0.0
 11
-1442.969098666432
 21
4166.407036781839
 31
0.0
  0
LINE
  5
1F99E
330
2
100
AcDbEntity
  8
VLB
100
AcDbLine
 10
-1438.897875666433
 20
4162.558035781836
 30
0.0
 11
-1442.969098666432
 21
4162.558035781836
 31
0.0
  0
ARC
  5
1F99F
330
2
100
AcDbEntity
  8
VLB
100
AcDbCircle
 10
-1440.191269666433
 20
4164.471834781838
 30
0.0
 40
3.373272
100
AcDbArc
 50
149.9999999999727
 51
214.5650930000803
  0
ARC
  5
1F9A1
330
2
100
AcDbEntity
  8
VLB
100
AcDbCircle
 10
121.3753157045684
 20
4164.471834781838
 30
0.0
 40
3.373272
100
AcDbArc
 50
325.4349069999197
 51
30.00000000002724
  0
LINE
  5
1F9A2
330
2
100
AcDbEntity
  8
VLB
100
AcDbLine
 10
120.0819217045682
 20
4162.558035781836
 30
0.0
 11
124.1531447045672
 21
4162.558035781836
 31
0.0
  0
LINE
  5
1F9A3
330
2
100
AcDbEntity
  8
VLB
100
AcDbLine
 10
120.0819217045682
 20
4166.407036781839
 30
0.0
 11
124.1531447045672
 21
4166.407036781839
 31
0.0
  0
LINE
  5
1F9A4
330
2
100
AcDbEntity
  8
VLB
100
AcDbLine
 10
119.4152547045687
 20
4164.642366781838
 30
0.0
 11
120.0819217045682
 21
4164.642366781838
 31
0.0
  0
LINE
  5
1F9A5
330
2
100
AcDbEntity
  8
VLB
100
AcDbLine
 10
118.6152547045694
 20
4166.209033781841
 30
0.0
 11
119.4152547045687
 21
4166.209033781841
 31
0.0
1001
ACAD
1000
ASC_BOUNDS
1002
{
1070
    16
1002
}
  0
LINE
  5
1F9A6
330
2
100
AcDbEntity
  8
VLB
100
AcDbLine
 10
124.7485877045674
 20
4165.375700781838
 30
0.0
 11
124.1531447045672
 21
4166.407036781839
 31
0.0
  0
LINE
  5
1F9A7
330
2
100
AcDbEntity
  8
VLB
100
AcDbLine
 10
119.4152547045687
 20
4159.709034781841
 30
0.0
 11
119.4152547045687
 21
4158.709034781837
 31
0.0
  0
LINE
  5
1F9A8
330
2
100
AcDbEntity
  8
VLB
100
AcDbLine
 10
120.0819217045682
 20
4151.011031781837
 30
0.0
 11
124.1531447045672
 21
4151.011031781837
 31
0.0
  0
LINE
  5
1F9A9
330
2
100
AcDbEntity
  8
VLB
100
AcDbLine
 10
120.0819217045682
 20
4154.860032781838
 30
0.0
 11
124.1531447045672
 21
4154.860032781838
 31
0.0
  0
LINE
  5
1F9AA
330
2
100
AcDbEntity
  8
VLB
100
AcDbLine
 10
119.4152547045687
 20
4151.209034781838
 30
0.0
 11
118.6152547045694
 21
4151.209034781838
 31
0.0
  0
LINE
  5
1F9AB
330
2
100
AcDbEntity
  8
VLB
100
AcDbLine
 10
118.6152547045694
 20
4151.209034781838
 30
0.0
 11
119.4152547045687
 21
4151.209034781838
 31
0.0
1001
ACAD
1000
ASC_BOUNDS
1002
{
1070
    16
1002
}
  0
LINE
  5
1F9AC
330
2
100
AcDbEntity
  8
VLB
100
AcDbLine
 10
119.4152547045687
 20
4152.77570178184
 30
0.0
 11
120.0819217045682
 21
4152.77570178184
 31
0.0
  0
LINE
  5
1F9AD
330
2
100
AcDbEntity
  8
VLB
100
AcDbLine
 10
124.7485877045674
 20
4152.042368781836
 30
0.0
 11
124.1531447045672
 21
4151.011031781837
 31
0.0
  0
ARC
  5
1F9AE
330
2
100
AcDbEntity
  8
VLB
100
AcDbCircle
 10
121.3753157045684
 20
4152.946233781836
 30
0.0
 40
3.373272
100
AcDbArc
 50
329.9999999999727
 51
34.56509300008031
  0
LINE
  5
1F9AF
330
2
100
AcDbEntity
  8
VLB
100
AcDbLine
 10
119.4152547045687
 20
4152.77570178184
 30
0.0
 11
119.4152547045687
 21
4159.709034781841
 31
0.0
  0
LINE
  5
1F9B0
330
2
100
AcDbEntity
  8
VLB
100
AcDbLine
 10
120.0819217045682
 20
4151.011031781837
 30
0.0
 11
120.0819217045682
 21
4159.709034781841
 31
0.0
  0
LINE
  5
1F9B1
330
2
100
AcDbEntity
  8
VLB
100
AcDbLine
 10
119.4152547045687
 20
4158.709034781837
 30
0.0
 11
119.4152547045687
 21
4151.209034781838
 31
0.0
  0
ARC
  5
1F9B2
330
2
100
AcDbEntity
  8
VLB
100
AcDbCircle
 10
112.0106987045692
 20
4158.709034781837
 30
0.0
 40
12.737889
100
AcDbArc
 50
342.4120459999404
 51
4.502691999978413
  0
LINE
  5
1F9B3
330
2
100
AcDbEntity
  8
VLB
100
AcDbLine
 10
124.7485877045674
 20
4152.042368781836
 30
0.0
 11
124.7485877045674
 21
4159.709034781841
 31
0.0
  0
LINE
  5
1F9B4
330
2
100
AcDbEntity
  8
VLB
100
AcDbLine
 10
120.0819217045682
 20
4159.709034781841
 30
0.0
 11
120.0819217045682
 21
4166.407036781839
 31
0.0
  0
LINE
  5
1F9B5
330
2
100
AcDbEntity
  8
VLB
100
AcDbLine
 10
119.4152547045687
 20
4166.209033781841
 30
0.0
 11
119.4152547045687
 21
4159.709034781841
 31
0.0
  0
LINE
  5
1F9B6
330
2
100
AcDbEntity
  8
VLB
100
AcDbLine
 10
119.4152547045687
 20
4160.790941781841
 30
0.0
 11
119.4152547045687
 21
4164.642366781838
 31
0.0
  0
ARC
  5
1F9B7
330
2
100
AcDbEntity
  8
VLB
100
AcDbCircle
 10
112.0106987045692
 20
4158.709034781837
 30
0.0
 40
12.737889
100
AcDbArc
 50
4.502691999978413
 51
17.58795400005962
  0
LINE
  5
1F9B8
330
2
100
AcDbEntity
  8
VLB
100
AcDbLine
 10
124.7485877045674
 20
4159.709034781841
 30
0.0
 11
124.7485877045674
 21
4165.375700781838
 31
0.0
  0
LINE
  5
1F9BB
330
2
100
AcDbEntity
  8
VLB
100
AcDbLine
 10
-1250.907976980932
 20
5720.209034781835
 30
0.0
 11
-740.9079769809304
 21
5720.209034781835
 31
0.0
  0
LINE
  5
1F9BC
330
2
100
AcDbEntity
  8
VLB
100
AcDbLine
 10
-1250.907976980932
 20
5720.209034781835
 30
0.0
 11
-1250.907976980932
 21
5643.709034781837
 31
0.0
  0
LINE
  5
1F9BD
330
2
100
AcDbEntity
  8
VLB
100
AcDbLine
 10
-67.90797698093228
 20
5720.209034781835
 30
0.0
 11
-67.90797698093228
 21
5643.709034781837
 31
0.0
  0
LINE
  5
1F9D6
330
2
100
AcDbEntity
  8
SPS
100
AcDbLine
 10
-1428.613272471204
 20
4184.396825361538
 30
0.0
 11
-1441.652463077214
 21
4184.396825361538
 31
0.0
  0
CIRCLE
  5
1F9D7
330
2
100
AcDbEntity
  8
VLB
100
AcDbCircle
 10
-1427.333164878806
 20
4184.396825361538
 30
0.0
 40
2.550000000006548
  0
CIRCLE
  5
1F9D8
330
2
100
AcDbEntity
  8
VLB
100
AcDbCircle
 10
-1427.333164878806
 20
4184.396825361538
 30
0.0
 40
5.000000000001818
  0
LINE
  5
1F9D9
330
2
100
AcDbEntity
  8
SPS
100
AcDbLine
 10
-1427.333164878806
 20
4176.988582507576
 30
0.0
 11
-1427.333164878806
 21
4192.881434585419
 31
0.0
  0
LINE
  5
1F9DA
330
2
100
AcDbEntity
  8
SPS
100
AcDbLine
 10
-1433.644521435881
 20
4184.396825361538
 30
0.0
 11
-1420.303835291239
 21
4184.396825361538
 31
0.0
  0
LINE
  5
1F9DB
330
2
100
AcDbEntity
  8
VLB
100
AcDbLine
 10
-1438.407976980928
 20
4179.396825361538
 30
0.0
 11
-1437.40797698093
 21
4179.39682536154
 31
0.0
  0
LINE
  5
1F9DC
330
2
100
AcDbEntity
  8
VLB
100
AcDbLine
 10
-1438.407976980928
 20
4189.396825361538
 30
0.0
 11
-1437.40797698093
 21
4189.396825361536
 31
0.0
  0
ARC
  5
1F9DD
330
2
100
AcDbEntity
  8
VLB
100
AcDbCircle
 10
-1426.40797698093
 20
4184.396825361538
 30
0.0
 40
12.99999999999925
100
AcDbArc
 50
157.3801350519214
 51
202.6198649480785
  0
LINE
  5
1F9DF
330
2
100
AcDbEntity
  8
SPS
100
AcDbLine
 10
114.82856747402
 20
4184.396825361538
 30
0.0
 11
101.487881329378
 21
4184.396825361538
 31
0.0
  0
LINE
  5
1F9E0
330
2
100
AcDbEntity
  8
SPS
100
AcDbLine
 10
108.5172109169452
 20
4176.988582507576
 30
0.0
 11
108.5172109169452
 21
4192.881434585419
 31
0.0
  0
CIRCLE
  5
1F9E1
330
2
100
AcDbEntity
  8
VLB
100
AcDbCircle
 10
108.5172109169452
 20
4184.396825361538
 30
0.0
 40
5.000000000001818
  0
CIRCLE
  5
1F9E2
330
2
100
AcDbEntity
  8
VLB
100
AcDbCircle
 10
108.5172109169452
 20
4184.396825361538
 30
0.0
 40
2.550000000006548
  0
LINE
  5
1F9E3
330
2
100
AcDbEntity
  8
SPS
100
AcDbLine
 10
114.82856747402
 20
5632.173513190666
 30
0.0
 11
101.487881329378
 21
5632.173513190666
 31
0.0
  0
CIRCLE
  5
1F9E4
330
2
100
AcDbEntity
  8
VLB
100
AcDbCircle
 10
108.5172109169452
 20
5632.173513190666
 30
0.0
 40
5.000000000001818
  0
CIRCLE
  5
1F9E5
330
2
100
AcDbEntity
  8
VLB
100
AcDbCircle
 10
108.5172109169452
 20
5632.173513190666
 30
0.0
 40
2.550000000006548
  0
LINE
  5
1F9E6
330
2
100
AcDbEntity
  8
SPS
100
AcDbLine
 10
108.5172109169452
 20
5624.765270336704
 30
0.0
 11
108.5172109169452
 21
5640.658122414547
 31
0.0
  0
ARC
  5
1F9EB
330
2
100
AcDbEntity
  8
VLB
100
AcDbCircle
 10
-1426.407976980928
 20
5632.173513190668
 30
0.0
 40
12.99999999999925
100
AcDbArc
 50
157.3801350519214
 51
202.6198649480785
  0
LINE
  5
1F9EC
330
2
100
AcDbEntity
  8
VLB
100
AcDbLine
 10
-1438.407976980927
 20
5637.173513190668
 30
0.0
 11
-1437.40797698093
 21
5637.173513190666
 31
0.0
  0
LINE
  5
1F9ED
330
2
100
AcDbEntity
  8
VLB
100
AcDbLine
 10
-1438.407976980927
 20
5627.173513190668
 30
0.0
 11
-1437.40797698093
 21
5627.17351319067
 31
0.0
  0
LINE
  5
1F9EE
330
2
100
AcDbEntity
  8
SPS
100
AcDbLine
 10
-1428.613272471202
 20
5632.173513190668
 30
0.0
 11
-1441.652463077212
 21
5632.173513190668
 31
0.0
  0
ARC
  5
1FA17
330
2
100
AcDbEntity
  8
VLB
100
AcDbCircle
 10
-1426.40797698093
 20
4305.044885361539
 30
0.0
 40
12.99999999999925
100
AcDbArc
 50
157.3801350519214
 51
202.6198649480785
  0
LINE
  5
1FA18
330
2
100
AcDbEntity
  8
VLB
100
AcDbLine
 10
-1438.407976980928
 20
4310.044885361539
 30
0.0
 11
-1437.40797698093
 21
4310.044885361537
 31
0.0
  0
LINE
  5
1FA19
330
2
100
AcDbEntity
  8
VLB
100
AcDbLine
 10
-1438.407976980928
 20
4300.044885361539
 30
0.0
 11
-1437.40797698093
 21
4300.044885361541
 31
0.0
  0
LINE
  5
1FA1A
330
2
100
AcDbEntity
  8
SPS
100
AcDbLine
 10
-1428.613272471204
 20
4305.044885361539
 30
0.0
 11
-1441.652463077214
 21
4305.044885361539
 31
0.0
  0
CIRCLE
  5
1FA1B
330
2
100
AcDbEntity
  8
VLB
100
AcDbCircle
 10
108.5172109169452
 20
4305.044885361539
 30
0.0
 40
2.550000000006548
  0
CIRCLE
  5
1FA1C
330
2
100
AcDbEntity
  8
VLB
100
AcDbCircle
 10
108.5172109169452
 20
4305.044885361539
 30
0.0
 40
5.000000000001818
  0
LINE
  5
1FA1D
330
2
100
AcDbEntity
  8
SPS
100
AcDbLine
 10
108.5172109169452
 20
4297.636642507576
 30
0.0
 11
108.5172109169452
 21
4313.529494585419
 31
0.0
  0
LINE
  5
1FA1E
330
2
100
AcDbEntity
  8
SPS
100
AcDbLine
 10
114.82856747402
 20
4305.044885361539
 30
0.0
 11
101.487881329378
 21
4305.044885361539
 31
0.0
  0
ARC
  5
1FA1F
330
2
100
AcDbEntity
  8
VLB
100
AcDbCircle
 10
-1426.40797698093
 20
4425.692945361539
 30
0.0
 40
12.99999999999925
100
AcDbArc
 50
157.3801350519214
 51
202.6198649480785
  0
LINE
  5
1FA20
330
2
100
AcDbEntity
  8
VLB
100
AcDbLine
 10
-1438.407976980928
 20
4430.692945361539
 30
0.0
 11
-1437.40797698093
 21
4430.692945361538
 31
0.0
  0
LINE
  5
1FA21
330
2
100
AcDbEntity
  8
VLB
100
AcDbLine
 10
-1438.407976980928
 20
4420.69294536154
 30
0.0
 11
-1437.40797698093
 21
4420.692945361541
 31
0.0
  0
LINE
  5
1FA22
330
2
100
AcDbEntity
  8
SPS
100
AcDbLine
 10
-1428.613272471204
 20
4425.692945361539
 30
0.0
 11
-1441.652463077214
 21
4425.692945361539
 31
0.0
  0
CIRCLE
  5
1FA23
330
2
100
AcDbEntity
  8
VLB
100
AcDbCircle
 10
108.5172109169452
 20
4425.692945361539
 30
0.0
 40
2.550000000006548
  0
CIRCLE
  5
1FA24
330
2
100
AcDbEntity
  8
VLB
100
AcDbCircle
 10
108.5172109169452
 20
4425.692945361539
 30
0.0
 40
5.000000000001818
  0
LINE
  5
1FA25
330
2
100
AcDbEntity
  8
SPS
100
AcDbLine
 10
108.5172109169452
 20
4418.284702507577
 30
0.0
 11
108.5172109169452
 21
4434.17755458542
 31
0.0
  0
LINE
  5
1FA26
330
2
100
AcDbEntity
  8
SPS
100
AcDbLine
 10
114.82856747402
 20
4425.692945361539
 30
0.0
 11
101.487881329378
 21
4425.692945361539
 31
0.0
  0
ARC
  5
1FA27
330
2
100
AcDbEntity
  8
VLB
100
AcDbCircle
 10
-1426.40797698093
 20
4546.341005361539
 30
0.0
 40
12.99999999999925
100
AcDbArc
 50
157.3801350519214
 51
202.6198649480785
  0
LINE
  5
1FA28
330
2
100
AcDbEntity
  8
VLB
100
AcDbLine
 10
-1438.407976980928
 20
4551.34100536154
 30
0.0
 11
-1437.40797698093
 21
4551.341005361538
 31
0.0
  0
LINE
  5
1FA29
330
2
100
AcDbEntity
  8
VLB
100
AcDbLine
 10
-1438.407976980928
 20
4541.34100536154
 30
0.0
 11
-1437.40797698093
 21
4541.341005361541
 31
0.0
  0
LINE
  5
1FA2A
330
2
100
AcDbEntity
  8
SPS
100
AcDbLine
 10
-1428.613272471204
 20
4546.341005361539
 30
0.0
 11
-1441.652463077214
 21
4546.341005361539
 31
0.0
  0
CIRCLE
  5
1FA2B
330
2
100
AcDbEntity
  8
VLB
100
AcDbCircle
 10
108.5172109169452
 20
4546.341005361539
 30
0.0
 40
2.550000000006548
  0
CIRCLE
  5
1FA2C
330
2
100
AcDbEntity
  8
VLB
100
AcDbCircle
 10
108.5172109169452
 20
4546.341005361539
 30
0.0
 40
5.000000000001818
  0
LINE
  5
1FA2D
330
2
100
AcDbEntity
  8
SPS
100
AcDbLine
 10
108.5172109169452
 20
4538.932762507577
 30
0.0
 11
108.5172109169452
 21
4554.82561458542
 31
0.0
  0
LINE
  5
1FA2E
330
2
100
AcDbEntity
  8
SPS
100
AcDbLine
 10
114.82856747402
 20
4546.341005361539
 30
0.0
 11
101.487881329378
 21
4546.341005361539
 31
0.0
  0
ARC
  5
1FA2F
330
2
100
AcDbEntity
  8
VLB
100
AcDbCircle
 10
-1426.40797698093
 20
4666.98906536154
 30
0.0
 40
12.99999999999925
100
AcDbArc
 50
157.3801350519214
 51
202.6198649480785
  0
LINE
  5
1FA30
330
2
100
AcDbEntity
  8
VLB
100
AcDbLine
 10
-1438.407976980928
 20
4671.98906536154
 30
0.0
 11
-1437.40797698093
 21
4671.989065361539
 31
0.0
  0
LINE
  5
1FA31
330
2
100
AcDbEntity
  8
VLB
100
AcDbLine
 10
-1438.407976980928
 20
4661.989065361541
 30
0.0
 11
-1437.40797698093
 21
4661.989065361542
 31
0.0
  0
LINE
  5
1FA32
330
2
100
AcDbEntity
  8
SPS
100
AcDbLine
 10
-1428.613272471204
 20
4666.98906536154
 30
0.0
 11
-1441.652463077214
 21
4666.98906536154
 31
0.0
  0
CIRCLE
  5
1FA33
330
2
100
AcDbEntity
  8
VLB
100
AcDbCircle
 10
108.5172109169452
 20
4666.98906536154
 30
0.0
 40
2.550000000006548
  0
CIRCLE
  5
1FA34
330
2
100
AcDbEntity
  8
VLB
100
AcDbCircle
 10
108.5172109169452
 20
4666.98906536154
 30
0.0
 40
5.000000000001818
  0
LINE
  5
1FA35
330
2
100
AcDbEntity
  8
SPS
100
AcDbLine
 10
108.5172109169452
 20
4659.580822507577
 30
0.0
 11
108.5172109169452
 21
4675.473674585421
 31
0.0
  0
LINE
  5
1FA36
330
2
100
AcDbEntity
  8
SPS
100
AcDbLine
 10
114.82856747402
 20
4666.98906536154
 30
0.0
 11
101.487881329378
 21
4666.98906536154
 31
0.0
  0
ARC
  5
1FA37
330
2
100
AcDbEntity
  8
VLB
100
AcDbCircle
 10
-1426.40797698093
 20
4787.63712536154
 30
0.0
 40
12.99999999999925
100
AcDbArc
 50
157.3801350519214
 51
202.6198649480785
  0
LINE
  5
1FA38
330
2
100
AcDbEntity
  8
VLB
100
AcDbLine
 10
-1438.407976980928
 20
4792.63712536154
 30
0.0
 11
-1437.40797698093
 21
4792.637125361539
 31
0.0
  0
LINE
  5
1FA39
330
2
100
AcDbEntity
  8
VLB
100
AcDbLine
 10
-1438.407976980928
 20
4782.63712536154
 30
0.0
 11
-1437.40797698093
 21
4782.637125361542
 31
0.0
  0
LINE
  5
1FA3A
330
2
100
AcDbEntity
  8
SPS
100
AcDbLine
 10
-1428.613272471204
 20
4787.63712536154
 30
0.0
 11
-1441.652463077214
 21
4787.63712536154
 31
0.0
  0
CIRCLE
  5
1FA3B
330
2
100
AcDbEntity
  8
VLB
100
AcDbCircle
 10
108.5172109169452
 20
4787.63712536154
 30
0.0
 40
2.550000000006548
  0
CIRCLE
  5
1FA3C
330
2
100
AcDbEntity
  8
VLB
100
AcDbCircle
 10
108.5172109169452
 20
4787.63712536154
 30
0.0
 40
5.000000000001818
  0
LINE
  5
1FA3D
330
2
100
AcDbEntity
  8
SPS
100
AcDbLine
 10
108.5172109169452
 20
4780.228882507578
 30
0.0
 11
108.5172109169452
 21
4796.121734585421
 31
0.0
  0
LINE
  5
1FA3E
330
2
100
AcDbEntity
  8
SPS
100
AcDbLine
 10
114.82856747402
 20
4787.63712536154
 30
0.0
 11
101.487881329378
 21
4787.63712536154
 31
0.0
  0
ARC
  5
1FA3F
330
2
100
AcDbEntity
  8
VLB
100
AcDbCircle
 10
-1426.40797698093
 20
4908.285185361541
 30
0.0
 40
12.99999999999925
100
AcDbArc
 50
157.3801350519214
 51
202.6198649480785
  0
LINE
  5
1FA40
330
2
100
AcDbEntity
  8
VLB
100
AcDbLine
 10
-1438.407976980928
 20
4913.285185361541
 30
0.0
 11
-1437.40797698093
 21
4913.285185361539
 31
0.0
  0
LINE
  5
1FA41
330
2
100
AcDbEntity
  8
VLB
100
AcDbLine
 10
-1438.407976980928
 20
4903.285185361541
 30
0.0
 11
-1437.40797698093
 21
4903.285185361543
 31
0.0
  0
LINE
  5
1FA42
330
2
100
AcDbEntity
  8
SPS
100
AcDbLine
 10
-1428.613272471204
 20
4908.285185361541
 30
0.0
 11
-1441.652463077214
 21
4908.285185361541
 31
0.0
  0
CIRCLE
  5
1FA43
330
2
100
AcDbEntity
  8
VLB
100
AcDbCircle
 10
108.5172109169452
 20
4908.285185361541
 30
0.0
 40
2.550000000006548
  0
CIRCLE
  5
1FA44
330
2
100
AcDbEntity
  8
VLB
100
AcDbCircle
 10
108.5172109169452
 20
4908.285185361541
 30
0.0
 40
5.000000000001818
  0
LINE
  5
1FA45
330
2
100
AcDbEntity
  8
SPS
100
AcDbLine
 10
108.5172109169452
 20
4900.876942507579
 30
0.0
 11
108.5172109169452
 21
4916.769794585421
 31
0.0
  0
LINE
  5
1FA46
330
2
100
AcDbEntity
  8
SPS
100
AcDbLine
 10
114.82856747402
 20
4908.285185361541
 30
0.0
 11
101.487881329378
 21
4908.285185361541
 31
0.0
  0
ARC
  5
1FA47
330
2
100
AcDbEntity
  8
VLB
100
AcDbCircle
 10
-1426.40797698093
 20
5028.933245361542
 30
0.0
 40
12.99999999999925
100
AcDbArc
 50
157.3801350519214
 51
202.6198649480785
  0
LINE
  5
1FA48
330
2
100
AcDbEntity
  8
VLB
100
AcDbLine
 10
-1438.407976980928
 20
5033.933245361541
 30
0.0
 11
-1437.40797698093
 21
5033.93324536154
 31
0.0
  0
LINE
  5
1FA49
330
2
100
AcDbEntity
  8
VLB
100
AcDbLine
 10
-1438.407976980928
 20
5023.933245361542
 30
0.0
 11
-1437.40797698093
 21
5023.933245361543
 31
0.0
  0
LINE
  5
1FA4A
330
2
100
AcDbEntity
  8
SPS
100
AcDbLine
 10
-1428.613272471204
 20
5028.933245361542
 30
0.0
 11
-1441.652463077214
 21
5028.933245361542
 31
0.0
  0
CIRCLE
  5
1FA4B
330
2
100
AcDbEntity
  8
VLB
100
AcDbCircle
 10
108.5172109169452
 20
5028.933245361542
 30
0.0
 40
2.550000000006548
  0
CIRCLE
  5
1FA4C
330
2
100
AcDbEntity
  8
VLB
100
AcDbCircle
 10
108.5172109169452
 20
5028.933245361542
 30
0.0
 40
5.000000000001818
  0
LINE
  5
1FA4D
330
2
100
AcDbEntity
  8
SPS
100
AcDbLine
 10
108.5172109169452
 20
5021.52500250758
 30
0.0
 11
108.5172109169452
 21
5037.417854585422
 31
0.0
  0
LINE
  5
1FA4E
330
2
100
AcDbEntity
  8
SPS
100
AcDbLine
 10
114.82856747402
 20
5028.933245361542
 30
0.0
 11
101.487881329378
 21
5028.933245361542
 31
0.0
  0
ARC
  5
1FA4F
330
2
100
AcDbEntity
  8
VLB
100
AcDbCircle
 10
-1426.40797698093
 20
5149.581305361542
 30
0.0
 40
12.99999999999925
100
AcDbArc
 50
157.3801350519214
 51
202.6198649480785
  0
LINE
  5
1FA50
330
2
100
AcDbEntity
  8
VLB
100
AcDbLine
 10
-1438.407976980928
 20
5154.581305361542
 30
0.0
 11
-1437.40797698093
 21
5154.58130536154
 31
0.0
  0
LINE
  5
1FA51
330
2
100
AcDbEntity
  8
VLB
100
AcDbLine
 10
-1438.407976980928
 20
5144.581305361542
 30
0.0
 11
-1437.40797698093
 21
5144.581305361544
 31
0.0
  0
LINE
  5
1FA52
330
2
100
AcDbEntity
  8
SPS
100
AcDbLine
 10
-1428.613272471204
 20
5149.581305361542
 30
0.0
 11
-1441.652463077214
 21
5149.581305361542
 31
0.0
  0
CIRCLE
  5
1FA53
330
2
100
AcDbEntity
  8
VLB
100
AcDbCircle
 10
108.5172109169452
 20
5149.581305361542
 30
0.0
 40
2.550000000006548
  0
CIRCLE
  5
1FA54
330
2
100
AcDbEntity
  8
VLB
100
AcDbCircle
 10
108.5172109169452
 20
5149.581305361542
 30
0.0
 40
5.000000000001818
  0
LINE
  5
1FA55
330
2
100
AcDbEntity
  8
SPS
100
AcDbLine
 10
108.5172109169452
 20
5142.17306250758
 30
0.0
 11
108.5172109169452
 21
5158.065914585423
 31
0.0
  0
LINE
  5
1FA56
330
2
100
AcDbEntity
  8
SPS
100
AcDbLine
 10
114.82856747402
 20
5149.581305361542
 30
0.0
 11
101.487881329378
 21
5149.581305361542
 31
0.0
  0
ARC
  5
1FA5F
330
2
100
AcDbEntity
  8
VLB
100
AcDbCircle
 10
-1426.40797698093
 20
5270.229365361543
 30
0.0
 40
12.99999999999925
100
AcDbArc
 50
157.3801350519214
 51
202.6198649480785
  0
LINE
  5
1FA60
330
2
100
AcDbEntity
  8
VLB
100
AcDbLine
 10
-1438.407976980928
 20
5275.229365361543
 30
0.0
 11
-1437.40797698093
 21
5275.229365361541
 31
0.0
  0
LINE
  5
1FA61
330
2
100
AcDbEntity
  8
VLB
100
AcDbLine
 10
-1438.407976980928
 20
5265.229365361542
 30
0.0
 11
-1437.40797698093
 21
5265.229365361545
 31
0.0
  0
LINE
  5
1FA62
330
2
100
AcDbEntity
  8
SPS
100
AcDbLine
 10
-1428.613272471204
 20
5270.229365361543
 30
0.0
 11
-1441.652463077214
 21
5270.229365361543
 31
0.0
  0
CIRCLE
  5
1FA63
330
2
100
AcDbEntity
  8
VLB
100
AcDbCircle
 10
108.5172109169452
 20
5270.229365361543
 30
0.0
 40
2.550000000006548
  0
CIRCLE
  5
1FA64
330
2
100
AcDbEntity
  8
VLB
100
AcDbCircle
 10
108.5172109169452
 20
5270.229365361543
 30
0.0
 40
5.000000000001818
  0
LINE
  5
1FA65
330
2
100
AcDbEntity
  8
SPS
100
AcDbLine
 10
108.5172109169452
 20
5262.82112250758
 30
0.0
 11
108.5172109169452
 21
5278.713974585423
 31
0.0
  0
LINE
  5
1FA66
330
2
100
AcDbEntity
  8
SPS
100
AcDbLine
 10
114.82856747402
 20
5270.229365361543
 30
0.0
 11
101.487881329378
 21
5270.229365361543
 31
0.0
  0
ARC
  5
1FA67
330
2
100
AcDbEntity
  8
VLB
100
AcDbCircle
 10
-1426.40797698093
 20
5390.877425361543
 30
0.0
 40
12.99999999999925
100
AcDbArc
 50
157.3801350519214
 51
202.6198649480785
  0
LINE
  5
1FA68
330
2
100
AcDbEntity
  8
VLB
100
AcDbLine
 10
-1438.407976980928
 20
5395.877425361543
 30
0.0
 11
-1437.40797698093
 21
5395.877425361541
 31
0.0
  0
LINE
  5
1FA69
330
2
100
AcDbEntity
  8
VLB
100
AcDbLine
 10
-1438.407976980928
 20
5385.877425361543
 30
0.0
 11
-1437.40797698093
 21
5385.877425361545
 31
0.0
  0
LINE
  5
1FA6A
330
2
100
AcDbEntity
  8
SPS
100
AcDbLine
 10
-1428.613272471204
 20
5390.877425361543
 30
0.0
 11
-1441.652463077214
 21
5390.877425361543
 31
0.0
  0
CIRCLE
  5
1FA6B
330
2
100
AcDbEntity
  8
VLB
100
AcDbCircle
 10
108.5172109169452
 20
5390.877425361543
 30
0.0
 40
2.550000000006548
  0
CIRCLE
  5
1FA6C
330
2
100
AcDbEntity
  8
VLB
100
AcDbCircle
 10
108.5172109169452
 20
5390.877425361543
 30
0.0
 40
5.000000000001818
  0
LINE
  5
1FA6D
330
2
100
AcDbEntity
  8
SPS
100
AcDbLine
 10
108.5172109169452
 20
5383.469182507581
 30
0.0
 11
108.5172109169452
 21
5399.362034585423
 31
0.0
  0
LINE
  5
1FA6E
330
2
100
AcDbEntity
  8
SPS
100
AcDbLine
 10
114.82856747402
 20
5390.877425361543
 30
0.0
 11
101.487881329378
 21
5390.877425361543
 31
0.0
  0
ARC
  5
1FA6F
330
2
100
AcDbEntity
  8
VLB
100
AcDbCircle
 10
-1426.40797698093
 20
5511.525485361543
 30
0.0
 40
12.99999999999925
100
AcDbArc
 50
157.3801350519214
 51
202.6198649480785
  0
LINE
  5
1FA70
330
2
100
AcDbEntity
  8
VLB
100
AcDbLine
 10
-1438.407976980928
 20
5516.525485361544
 30
0.0
 11
-1437.40797698093
 21
5516.525485361541
 31
0.0
  0
LINE
  5
1FA71
330
2
100
AcDbEntity
  8
VLB
100
AcDbLine
 10
-1438.407976980928
 20
5506.525485361543
 30
0.0
 11
-1437.40797698093
 21
5506.525485361545
 31
0.0
  0
LINE
  5
1FA72
330
2
100
AcDbEntity
  8
SPS
100
AcDbLine
 10
-1428.613272471204
 20
5511.525485361543
 30
0.0
 11
-1441.652463077214
 21
5511.525485361543
 31
0.0
  0
CIRCLE
  5
1FA73
330
2
100
AcDbEntity
  8
VLB
100
AcDbCircle
 10
108.5172109169452
 20
5511.525485361543
 30
0.0
 40
2.550000000006548
  0
CIRCLE
  5
1FA74
330
2
100
AcDbEntity
  8
VLB
100
AcDbCircle
 10
108.5172109169452
 20
5511.525485361543
 30
0.0
 40
5.000000000001818
  0
LINE
  5
1FA75
330
2
100
AcDbEntity
  8
SPS
100
AcDbLine
 10
108.5172109169452
 20
5504.117242507581
 30
0.0
 11
108.5172109169452
 21
5520.010094585424
 31
0.0
  0
LINE
  5
1FA76
330
2
100
AcDbEntity
  8
SPS
100
AcDbLine
 10
114.82856747402
 20
5511.525485361543
 30
0.0
 11
101.487881329378
 21
5511.525485361543
 31
0.0
  0
CIRCLE
  5
1FA78
330
2
100
AcDbEntity
  8
VLB
100
AcDbCircle
 10
-659.4079769809322
 20
4184.396825361538
 30
0.0
 40
2.550000000006548
  0
CIRCLE
  5
1FA79
330
2
100
AcDbEntity
  8
VLB
100
AcDbCircle
 10
-659.4079769809322
 20
4184.396825361538
 30
0.0
 40
5.000000000001818
  0
LINE
  5
1FA7A
330
2
100
AcDbEntity
  8
SPS
100
AcDbLine
 10
-659.4079769809322
 20
4176.988582507576
 30
0.0
 11
-659.4079769809322
 21
4192.881434585419
 31
0.0
  0
LINE
  5
1FA7B
330
2
100
AcDbEntity
  8
SPS
100
AcDbLine
 10
-653.0966204238575
 20
4184.396825361538
 30
0.0
 11
-666.4373065684994
 21
4184.396825361538
 31
0.0
  0
LINE
  5
1FA7D
330
2
100
AcDbEntity
  8
SPS
100
AcDbLine
 10
1711.896005446907
 20
5778.286140814023
 30
0.0
 11
1711.896005446905
 21
4123.709034781837
 31
0.0
  0
LINE
  5
1FA7E
330
2
100
AcDbEntity
  8
VLB
100
AcDbLine
 10
2488.896005446906
 20
4143.709034781838
 30
0.0
 11
2488.896005446906
 21
5643.709034781838
 31
0.0
  0
LINE
  5
1FA7F
330
2
100
AcDbEntity
  8
VLB
100
AcDbLine
 10
2489.896005446906
 20
4143.709034781838
 30
0.0
 11
2489.896005446906
 21
5643.709034781838
 31
0.0
  0
LINE
  5
1FA80
330
2
100
AcDbEntity
  8
VLB
100
AcDbLine
 10
935.8960054469061
 20
5643.709034781838
 30
0.0
 11
935.8960054469061
 21
4143.709034781838
 31
0.0
  0
LINE
  5
1FA81
330
2
100
AcDbEntity
  8
VLB
100
AcDbLine
 10
933.8960054469062
 20
5643.709034781838
 30
0.0
 11
933.8960054469062
 21
4143.709034781838
 31
0.0
  0
LINE
  5
1FA82
330
2
100
AcDbEntity
  8
VLB
100
AcDbLine
 10
1073.896005446906
 20
4138.709034781838
 30
0.0
 11
2349.896005446906
 21
4138.709034781838
 31
0.0
  0
LINE
  5
1FA83
330
2
100
AcDbEntity
  8
VLB
100
AcDbLine
 10
933.8960054469062
 20
4143.709034781838
 30
0.0
 11
2489.896005446906
 21
4143.709034781838
 31
0.0
  0
ARC
  5
1FA84
330
2
100
AcDbEntity
  8
VLB
100
AcDbCircle
 10
944.8960054469081
 20
4184.396825361538
 30
0.0
 40
12.99999999999925
100
AcDbArc
 50
157.3801350519214
 51
202.6198649480785
  0
LINE
  5
1FA85
330
2
100
AcDbEntity
  8
VLB
100
AcDbLine
 10
932.8960054469098
 20
4189.396825361538
 30
0.0
 11
933.896005446908
 21
4189.396825361536
 31
0.0
  0
LINE
  5
1FA86
330
2
100
AcDbEntity
  8
VLB
100
AcDbLine
 10
932.8960054469098
 20
4179.396825361538
 30
0.0
 11
933.896005446908
 21
4179.39682536154
 31
0.0
  0
LINE
  5
1FA87
330
2
100
AcDbEntity
  8
SPS
100
AcDbLine
 10
937.6594609919575
 20
4184.396825361538
 30
0.0
 11
951.0001471365994
 21
4184.396825361538
 31
0.0
  0
LINE
  5
1FA88
330
2
100
AcDbEntity
  8
SPS
100
AcDbLine
 10
943.9708175490322
 20
4176.988582507576
 30
0.0
 11
943.9708175490322
 21
4192.881434585419
 31
0.0
  0
CIRCLE
  5
1FA89
330
2
100
AcDbEntity
  8
VLB
100
AcDbCircle
 10
943.9708175490322
 20
4184.396825361538
 30
0.0
 40
5.000000000001818
  0
CIRCLE
  5
1FA8A
330
2
100
AcDbEntity
  8
VLB
100
AcDbCircle
 10
943.9708175490322
 20
4184.396825361538
 30
0.0
 40
2.550000000006548
  0
LINE
  5
1FA8B
330
2
100
AcDbEntity
  8
SPS
100
AcDbLine
 10
942.6907099566342
 20
4184.396825361538
 30
0.0
 11
929.6515193506238
 21
4184.396825361538
 31
0.0
  0
LINE
  5
1FA8C
330
2
100
AcDbEntity
  8
SPS
100
AcDbLine
 10
955.8403219177689
 20
4158.709034781837
 30
0.0
 11
920.7607532566454
 21
4158.709034781837
 31
0.0
  0
LINE
  5
1FA8D
330
2
100
AcDbEntity
  8
VLB
100
AcDbLine
 10
927.7394407614066
 20
4159.709034781841
 30
0.0
 11
927.7394407614066
 21
4165.375700781838
 31
0.0
  0
ARC
  5
1FA8E
330
2
100
AcDbEntity
  8
VLB
100
AcDbCircle
 10
940.4773297614047
 20
4158.709034781837
 30
0.0
 40
12.737889
100
AcDbArc
 50
162.4120459999403
 51
175.4973080000216
  0
LINE
  5
1FA8F
330
2
100
AcDbEntity
  8
VLB
100
AcDbLine
 10
933.0727737614052
 20
4160.790941781841
 30
0.0
 11
933.0727737614052
 21
4164.642366781838
 31
0.0
  0
LINE
  5
1FA90
330
2
100
AcDbEntity
  8
VLB
100
AcDbLine
 10
933.0727737614052
 20
4166.209033781841
 30
0.0
 11
933.0727737614052
 21
4159.709034781841
 31
0.0
  0
LINE
  5
1FA91
330
2
100
AcDbEntity
  8
VLB
100
AcDbLine
 10
932.4061067614056
 20
4159.709034781841
 30
0.0
 11
932.4061067614056
 21
4166.407036781839
 31
0.0
  0
LINE
  5
1FA92
330
2
100
AcDbEntity
  8
VLB
100
AcDbLine
 10
927.7394407614066
 20
4152.042368781836
 30
0.0
 11
927.7394407614066
 21
4159.709034781841
 31
0.0
  0
ARC
  5
1FA93
330
2
100
AcDbEntity
  8
VLB
100
AcDbCircle
 10
940.4773297614047
 20
4158.709034781837
 30
0.0
 40
12.737889
100
AcDbArc
 50
175.4973080000216
 51
197.5879540000596
  0
LINE
  5
1FA94
330
2
100
AcDbEntity
  8
VLB
100
AcDbLine
 10
933.0727737614052
 20
4158.709034781837
 30
0.0
 11
933.0727737614052
 21
4151.209034781838
 31
0.0
  0
LINE
  5
1FA95
330
2
100
AcDbEntity
  8
VLB
100
AcDbLine
 10
932.4061067614056
 20
4151.011031781837
 30
0.0
 11
932.4061067614056
 21
4159.709034781841
 31
0.0
  0
LINE
  5
1FA96
330
2
100
AcDbEntity
  8
VLB
100
AcDbLine
 10
933.0727737614052
 20
4152.77570178184
 30
0.0
 11
933.0727737614052
 21
4159.709034781841
 31
0.0
  0
ARC
  5
1FA97
330
2
100
AcDbEntity
  8
VLB
100
AcDbCircle
 10
931.1127127614055
 20
4152.946233781836
 30
0.0
 40
3.373272
100
AcDbArc
 50
145.4349069999197
 51
210.0000000000272
  0
LINE
  5
1FA98
330
2
100
AcDbEntity
  8
VLB
100
AcDbLine
 10
927.7394407614066
 20
4152.042368781836
 30
0.0
 11
928.3348837614067
 21
4151.011031781837
 31
0.0
  0
LINE
  5
1FA99
330
2
100
AcDbEntity
  8
VLB
100
AcDbLine
 10
933.0727737614052
 20
4152.77570178184
 30
0.0
 11
932.4061067614056
 21
4152.77570178184
 31
0.0
  0
LINE
  5
1FA9A
330
2
100
AcDbEntity
  8
VLB
100
AcDbLine
 10
933.8727737614044
 20
4151.209034781838
 30
0.0
 11
933.0727737614052
 21
4151.209034781838
 31
0.0
1001
ACAD
1000
ASC_BOUNDS
1002
{
1070
    16
1002
}
  0
LINE
  5
1FA9B
330
2
100
AcDbEntity
  8
VLB
100
AcDbLine
 10
933.0727737614052
 20
4151.209034781838
 30
0.0
 11
933.8727737614044
 21
4151.209034781838
 31
0.0
  0
LINE
  5
1FA9C
330
2
100
AcDbEntity
  8
VLB
100
AcDbLine
 10
932.4061067614056
 20
4154.860032781838
 30
0.0
 11
928.3348837614067
 21
4154.860032781838
 31
0.0
  0
LINE
  5
1FA9D
330
2
100
AcDbEntity
  8
VLB
100
AcDbLine
 10
932.4061067614056
 20
4151.011031781837
 30
0.0
 11
928.3348837614067
 21
4151.011031781837
 31
0.0
  0
LINE
  5
1FA9E
330
2
100
AcDbEntity
  8
VLB
100
AcDbLine
 10
933.0727737614052
 20
4159.709034781841
 30
0.0
 11
933.0727737614052
 21
4158.709034781837
 31
0.0
  0
LINE
  5
1FA9F
330
2
100
AcDbEntity
  8
VLB
100
AcDbLine
 10
927.7394407614066
 20
4165.375700781838
 30
0.0
 11
928.3348837614067
 21
4166.407036781839
 31
0.0
  0
LINE
  5
1FAA0
330
2
100
AcDbEntity
  8
VLB
100
AcDbLine
 10
933.8727737614044
 20
4166.209033781841
 30
0.0
 11
933.0727737614052
 21
4166.209033781841
 31
0.0
1001
ACAD
1000
ASC_BOUNDS
1002
{
1070
    16
1002
}
  0
LINE
  5
1FAA1
330
2
100
AcDbEntity
  8
VLB
100
AcDbLine
 10
933.0727737614052
 20
4164.642366781838
 30
0.0
 11
932.4061067614056
 21
4164.642366781838
 31
0.0
  0
LINE
  5
1FAA2
330
2
100
AcDbEntity
  8
VLB
100
AcDbLine
 10
932.4061067614056
 20
4166.407036781839
 30
0.0
 11
928.3348837614067
 21
4166.407036781839
 31
0.0
  0
LINE
  5
1FAA3
330
2
100
AcDbEntity
  8
VLB
100
AcDbLine
 10
932.4061067614056
 20
4162.558035781836
 30
0.0
 11
928.3348837614067
 21
4162.558035781836
 31
0.0
  0
ARC
  5
1FAA4
330
2
100
AcDbEntity
  8
VLB
100
AcDbCircle
 10
931.1127127614055
 20
4164.471834781838
 30
0.0
 40
3.373272
100
AcDbArc
 50
149.9999999999727
 51
214.5650930000803
  0
LINE
  5
1FAA5
330
2
100
AcDbEntity
  8
SPS
100
AcDbLine
 10
942.6907099566342
 20
4425.692945361539
 30
0.0
 11
929.6515193506238
 21
4425.692945361539
 31
0.0
  0
LINE
  5
1FAA6
330
2
100
AcDbEntity
  8
VLB
100
AcDbLine
 10
932.8960054469098
 20
4420.69294536154
 30
0.0
 11
933.896005446908
 21
4420.692945361541
 31
0.0
  0
LINE
  5
1FAA7
330
2
100
AcDbEntity
  8
VLB
100
AcDbLine
 10
932.8960054469098
 20
4430.692945361539
 30
0.0
 11
933.896005446908
 21
4430.692945361538
 31
0.0
  0
ARC
  5
1FAA8
330
2
100
AcDbEntity
  8
VLB
100
AcDbCircle
 10
944.8960054469081
 20
4425.692945361539
 30
0.0
 40
12.99999999999925
100
AcDbArc
 50
157.3801350519214
 51
202.6198649480785
  0
ARC
  5
1FAA9
330
2
100
AcDbEntity
  8
VLB
100
AcDbCircle
 10
944.8960054469081
 20
4305.044885361539
 30
0.0
 40
12.99999999999925
100
AcDbArc
 50
157.3801350519214
 51
202.6198649480785
  0
LINE
  5
1FAAA
330
2
100
AcDbEntity
  8
SPS
100
AcDbLine
 10
942.6907099566342
 20
4305.044885361539
 30
0.0
 11
929.6515193506238
 21
4305.044885361539
 31
0.0
  0
LINE
  5
1FAAB
330
2
100
AcDbEntity
  8
VLB
100
AcDbLine
 10
932.8960054469098
 20
4300.044885361539
 30
0.0
 11
933.896005446908
 21
4300.044885361541
 31
0.0
  0
LINE
  5
1FAAC
330
2
100
AcDbEntity
  8
VLB
100
AcDbLine
 10
932.8960054469098
 20
4310.044885361539
 30
0.0
 11
933.896005446908
 21
4310.044885361537
 31
0.0
  0
LINE
  5
1FAAD
330
2
100
AcDbEntity
  8
SPS
100
AcDbLine
 10
1271.14151435315
 20
4158.709034781837
 30
0.0
 11
1252.413694836695
 21
4158.709034781837
 31
0.0
  0
LINE
  5
1FAAE
330
2
100
AcDbEntity
  8
SPS
100
AcDbLine
 10
1261.8960054469
 20
4151.286502553317
 30
0.0
 11
1261.8960054469
 21
4168.691279218088
 31
0.0
  0
LINE
  5
1FAAF
330
2
100
AcDbEntity
  8
SPS
100
AcDbLine
 10
1261.896005446899
 20
4151.286502553317
 30
0.0
 11
1261.896005446899
 21
4168.691279218088
 31
0.0
  0
LINE
  5
1FAB0
330
2
100
AcDbEntity
  8
SPS
100
AcDbLine
 10
1271.141514353148
 20
4158.709034781837
 30
0.0
 11
1252.413694836694
 21
4158.709034781837
 31
0.0
  0
LINE
  5
1FAB1
330
2
100
AcDbEntity
  8
SPS
100
AcDbLine
 10
1253.150013025999
 20
4158.709034781837
 30
0.0
 11
1270.641997867802
 21
4158.709034781837
 31
0.0
  0
LWPOLYLINE
  5
1FAB2
330
2
100
AcDbEntity
  8
VLB
100
AcDbPolyline
 90
        6
 70
     1
 43
0.0
 10
1258.143228697168
 20
4165.209034781837
 10
1254.390451947436
 20
4158.709034781837
 10
1258.143228697168
 20
4152.209034781837
 10
1265.648782196633
 20
4152.209034781837
 10
1269.401558946366
 20
4158.709034781837
 10
1265.648782196633
 20
4165.209034781837
  0
CIRCLE
  5
1FAB3
330
2
100
AcDbEntity
  8
VLB
100
AcDbCircle
 10
1261.8960054469
 20
4158.709034781837
 30
0.0
 40
6.5
  0
LINE
  5
1FAB4
330
2
100
AcDbEntity
  8
SPS
100
AcDbLine
 10
1261.8960054469
 20
4167.455027202739
 30
0.0
 11
1261.8960054469
 21
4149.963042360936
 31
0.0
  0
LINE
  5
1FAB5
330
2
100
AcDbEntity
  8
VLB
100
AcDbLine
 10
1073.896005446906
 20
4143.709034781838
 30
0.0
 11
1073.896005446906
 21
4138.709034781838
 31
0.0
  0
LINE
  5
1FAB6
330
2
100
AcDbEntity
  8
SPS
100
AcDbLine
 10
1718.207362003981
 20
4184.396825361538
 30
0.0
 11
1704.866675859339
 21
4184.396825361538
 31
0.0
  0
LINE
  5
1FAB7
330
2
100
AcDbEntity
  8
SPS
100
AcDbLine
 10
1711.896005446906
 20
4176.988582507576
 30
0.0
 11
1711.896005446906
 21
4192.881434585419
 31
0.0
  0
CIRCLE
  5
1FAB8
330
2
100
AcDbEntity
  8
VLB
100
AcDbCircle
 10
1711.896005446906
 20
4184.396825361538
 30
0.0
 40
5.000000000001818
  0
CIRCLE
  5
1FAB9
330
2
100
AcDbEntity
  8
VLB
100
AcDbCircle
 10
1711.896005446906
 20
4184.396825361538
 30
0.0
 40
2.550000000006548
  0
LINE
  5
1FABA
330
2
100
AcDbEntity
  8
SPS
100
AcDbLine
 10
942.6907099566342
 20
4666.98906536154
 30
0.0
 11
929.6515193506238
 21
4666.98906536154
 31
0.0
  0
LINE
  5
1FABB
330
2
100
AcDbEntity
  8
VLB
100
AcDbLine
 10
932.8960054469098
 20
4661.989065361541
 30
0.0
 11
933.896005446908
 21
4661.989065361542
 31
0.0
  0
LINE
  5
1FABC
330
2
100
AcDbEntity
  8
VLB
100
AcDbLine
 10
932.8960054469098
 20
4671.98906536154
 30
0.0
 11
933.896005446908
 21
4671.989065361539
 31
0.0
  0
ARC
  5
1FABD
330
2
100
AcDbEntity
  8
VLB
100
AcDbCircle
 10
944.8960054469081
 20
4666.98906536154
 30
0.0
 40
12.99999999999925
100
AcDbArc
 50
157.3801350519214
 51
202.6198649480785
  0
LINE
  5
1FABE
330
2
100
AcDbEntity
  8
SPS
100
AcDbLine
 10
942.6907099566342
 20
4546.341005361539
 30
0.0
 11
929.6515193506238
 21
4546.341005361539
 31
0.0
  0
LINE
  5
1FABF
330
2
100
AcDbEntity
  8
VLB
100
AcDbLine
 10
932.8960054469098
 20
4541.34100536154
 30
0.0
 11
933.896005446908
 21
4541.341005361541
 31
0.0
  0
LINE
  5
1FAC0
330
2
100
AcDbEntity
  8
VLB
100
AcDbLine
 10
932.8960054469098
 20
4551.34100536154
 30
0.0
 11
933.896005446908
 21
4551.341005361538
 31
0.0
  0
ARC
  5
1FAC1
330
2
100
AcDbEntity
  8
VLB
100
AcDbCircle
 10
944.8960054469081
 20
4546.341005361539
 30
0.0
 40
12.99999999999925
100
AcDbArc
 50
157.3801350519214
 51
202.6198649480785
  0
LINE
  5
1FAC2
330
2
100
AcDbEntity
  8
SPS
100
AcDbLine
 10
942.6907099566342
 20
5028.933245361542
 30
0.0
 11
929.6515193506238
 21
5028.933245361542
 31
0.0
  0
LINE
  5
1FAC3
330
2
100
AcDbEntity
  8
VLB
100
AcDbLine
 10
932.8960054469098
 20
5023.933245361542
 30
0.0
 11
933.896005446908
 21
5023.933245361543
 31
0.0
  0
LINE
  5
1FAC4
330
2
100
AcDbEntity
  8
VLB
100
AcDbLine
 10
932.8960054469098
 20
5033.933245361541
 30
0.0
 11
933.896005446908
 21
5033.93324536154
 31
0.0
  0
ARC
  5
1FAC5
330
2
100
AcDbEntity
  8
VLB
100
AcDbCircle
 10
944.8960054469081
 20
5028.933245361542
 30
0.0
 40
12.99999999999925
100
AcDbArc
 50
157.3801350519214
 51
202.6198649480785
  0
LINE
  5
1FAC6
330
2
100
AcDbEntity
  8
SPS
100
AcDbLine
 10
942.6907099566342
 20
4908.285185361541
 30
0.0
 11
929.6515193506238
 21
4908.285185361541
 31
0.0
  0
LINE
  5
1FAC7
330
2
100
AcDbEntity
  8
VLB
100
AcDbLine
 10
932.8960054469098
 20
4903.285185361541
 30
0.0
 11
933.896005446908
 21
4903.285185361543
 31
0.0
  0
LINE
  5
1FAC8
330
2
100
AcDbEntity
  8
VLB
100
AcDbLine
 10
932.8960054469098
 20
4913.285185361541
 30
0.0
 11
933.896005446908
 21
4913.285185361539
 31
0.0
  0
ARC
  5
1FAC9
330
2
100
AcDbEntity
  8
VLB
100
AcDbCircle
 10
944.8960054469081
 20
4908.285185361541
 30
0.0
 40
12.99999999999925
100
AcDbArc
 50
157.3801350519214
 51
202.6198649480785
  0
LINE
  5
1FACA
330
2
100
AcDbEntity
  8
SPS
100
AcDbLine
 10
942.6907099566342
 20
4787.63712536154
 30
0.0
 11
929.6515193506238
 21
4787.63712536154
 31
0.0
  0
LINE
  5
1FACB
330
2
100
AcDbEntity
  8
VLB
100
AcDbLine
 10
932.8960054469098
 20
4782.63712536154
 30
0.0
 11
933.896005446908
 21
4782.637125361542
 31
0.0
  0
LINE
  5
1FACC
330
2
100
AcDbEntity
  8
VLB
100
AcDbLine
 10
932.8960054469098
 20
4792.63712536154
 30
0.0
 11
933.896005446908
 21
4792.637125361539
 31
0.0
  0
ARC
  5
1FACD
330
2
100
AcDbEntity
  8
VLB
100
AcDbCircle
 10
944.8960054469081
 20
4787.63712536154
 30
0.0
 40
12.99999999999925
100
AcDbArc
 50
157.3801350519214
 51
202.6198649480785
  0
LINE
  5
1FACE
330
2
100
AcDbEntity
  8
SPS
100
AcDbLine
 10
2150.650496540651
 20
4158.709034781837
 30
0.0
 11
2169.378316057105
 21
4158.709034781837
 31
0.0
  0
LINE
  5
1FACF
330
2
100
AcDbEntity
  8
SPS
100
AcDbLine
 10
2159.8960054469
 20
4151.286502553317
 30
0.0
 11
2159.8960054469
 21
4168.691279218088
 31
0.0
  0
LINE
  5
1FAD0
330
2
100
AcDbEntity
  8
SPS
100
AcDbLine
 10
2159.896005446899
 20
4151.286502553317
 30
0.0
 11
2159.896005446899
 21
4168.691279218088
 31
0.0
  0
LINE
  5
1FAD1
330
2
100
AcDbEntity
  8
SPS
100
AcDbLine
 10
2169.141514353148
 20
4158.709034781837
 30
0.0
 11
2150.413694836694
 21
4158.709034781837
 31
0.0
  0
LINE
  5
1FAD2
330
2
100
AcDbEntity
  8
SPS
100
AcDbLine
 10
2151.150013025999
 20
4158.709034781837
 30
0.0
 11
2168.641997867802
 21
4158.709034781837
 31
0.0
  0
LWPOLYLINE
  5
1FAD3
330
2
100
AcDbEntity
  8
VLB
100
AcDbPolyline
 90
        6
 70
     1
 43
0.0
 10
2156.143228697168
 20
4165.209034781837
 10
2152.390451947436
 20
4158.709034781837
 10
2156.143228697168
 20
4152.209034781837
 10
2163.648782196633
 20
4152.209034781837
 10
2167.401558946365
 20
4158.709034781837
 10
2163.648782196633
 20
4165.209034781837
  0
CIRCLE
  5
1FAD4
330
2
100
AcDbEntity
  8
VLB
100
AcDbCircle
 10
2159.8960054469
 20
4158.709034781837
 30
0.0
 40
6.5
  0
LINE
  5
1FAD5
330
2
100
AcDbEntity
  8
SPS
100
AcDbLine
 10
2159.8960054469
 20
4167.455027202739
 30
0.0
 11
2159.8960054469
 21
4149.963042360936
 31
0.0
  0
CIRCLE
  5
1FAD6
330
2
100
AcDbEntity
  8
VLB
100
AcDbCircle
 10
2479.821193344784
 20
4184.396825361538
 30
0.0
 40
2.550000000006548
  0
CIRCLE
  5
1FAD7
330
2
100
AcDbEntity
  8
VLB
100
AcDbCircle
 10
2479.821193344784
 20
4184.396825361538
 30
0.0
 40
5.000000000001818
  0
LINE
  5
1FAD8
330
2
100
AcDbEntity
  8
SPS
100
AcDbLine
 10
2479.821193344784
 20
4176.988582507576
 30
0.0
 11
2479.821193344784
 21
4192.881434585419
 31
0.0
  0
LINE
  5
1FAD9
330
2
100
AcDbEntity
  8
SPS
100
AcDbLine
 10
2486.132549901858
 20
4184.396825361538
 30
0.0
 11
2472.791863757216
 21
4184.396825361538
 31
0.0
  0
LINE
  5
1FADA
330
2
100
AcDbEntity
  8
SPS
100
AcDbLine
 10
2465.951688976032
 20
4158.709034781837
 30
0.0
 11
2501.031257637156
 21
4158.709034781837
 31
0.0
  0
ARC
  5
1FADB
330
2
100
AcDbEntity
  8
VLB
100
AcDbCircle
 10
2492.679298132407
 20
4164.471834781838
 30
0.0
 40
3.373272
100
AcDbArc
 50
325.4349069999197
 51
30.00000000002724
  0
LINE
  5
1FADC
330
2
100
AcDbEntity
  8
VLB
100
AcDbLine
 10
2491.385904132406
 20
4162.558035781836
 30
0.0
 11
2495.457127132405
 21
4162.558035781836
 31
0.0
  0
LINE
  5
1FADD
330
2
100
AcDbEntity
  8
VLB
100
AcDbLine
 10
2491.385904132406
 20
4166.407036781839
 30
0.0
 11
2495.457127132405
 21
4166.407036781839
 31
0.0
  0
LINE
  5
1FADE
330
2
100
AcDbEntity
  8
VLB
100
AcDbLine
 10
2490.719237132407
 20
4164.642366781838
 30
0.0
 11
2491.385904132406
 21
4164.642366781838
 31
0.0
  0
LINE
  5
1FADF
330
2
100
AcDbEntity
  8
VLB
100
AcDbLine
 10
2489.919237132408
 20
4166.209033781841
 30
0.0
 11
2490.719237132407
 21
4166.209033781841
 31
0.0
1001
ACAD
1000
ASC_BOUNDS
1002
{
1070
    16
1002
}
  0
LINE
  5
1FAE0
330
2
100
AcDbEntity
  8
VLB
100
AcDbLine
 10
2496.052570132405
 20
4165.375700781838
 30
0.0
 11
2495.457127132405
 21
4166.407036781839
 31
0.0
  0
LINE
  5
1FAE1
330
2
100
AcDbEntity
  8
VLB
100
AcDbLine
 10
2490.719237132407
 20
4159.709034781841
 30
0.0
 11
2490.719237132407
 21
4158.709034781837
 31
0.0
  0
LINE
  5
1FAE2
330
2
100
AcDbEntity
  8
VLB
100
AcDbLine
 10
2491.385904132406
 20
4151.011031781837
 30
0.0
 11
2495.457127132405
 21
4151.011031781837
 31
0.0
  0
LINE
  5
1FAE3
330
2
100
AcDbEntity
  8
VLB
100
AcDbLine
 10
2491.385904132406
 20
4154.860032781838
 30
0.0
 11
2495.457127132405
 21
4154.860032781838
 31
0.0
  0
LINE
  5
1FAE4
330
2
100
AcDbEntity
  8
VLB
100
AcDbLine
 10
2490.719237132407
 20
4151.209034781838
 30
0.0
 11
2489.919237132408
 21
4151.209034781838
 31
0.0
  0
LINE
  5
1FAE5
330
2
100
AcDbEntity
  8
VLB
100
AcDbLine
 10
2489.919237132408
 20
4151.209034781838
 30
0.0
 11
2490.719237132407
 21
4151.209034781838
 31
0.0
1001
ACAD
1000
ASC_BOUNDS
1002
{
1070
    16
1002
}
  0
LINE
  5
1FAE6
330
2
100
AcDbEntity
  8
VLB
100
AcDbLine
 10
2490.719237132407
 20
4152.77570178184
 30
0.0
 11
2491.385904132406
 21
4152.77570178184
 31
0.0
  0
LINE
  5
1FAE7
330
2
100
AcDbEntity
  8
VLB
100
AcDbLine
 10
2496.052570132405
 20
4152.042368781836
 30
0.0
 11
2495.457127132405
 21
4151.011031781837
 31
0.0
  0
ARC
  5
1FAE8
330
2
100
AcDbEntity
  8
VLB
100
AcDbCircle
 10
2492.679298132407
 20
4152.946233781836
 30
0.0
 40
3.373272
100
AcDbArc
 50
329.9999999999727
 51
34.56509300008031
  0
LINE
  5
1FAE9
330
2
100
AcDbEntity
  8
VLB
100
AcDbLine
 10
2490.719237132407
 20
4152.77570178184
 30
0.0
 11
2490.719237132407
 21
4159.709034781841
 31
0.0
  0
LINE
  5
1FAEA
330
2
100
AcDbEntity
  8
VLB
100
AcDbLine
 10
2491.385904132406
 20
4151.011031781837
 30
0.0
 11
2491.385904132406
 21
4159.709034781841
 31
0.0
  0
LINE
  5
1FAEB
330
2
100
AcDbEntity
  8
VLB
100
AcDbLine
 10
2490.719237132407
 20
4158.709034781837
 30
0.0
 11
2490.719237132407
 21
4151.209034781838
 31
0.0
  0
ARC
  5
1FAEC
330
2
100
AcDbEntity
  8
VLB
100
AcDbCircle
 10
2483.314681132407
 20
4158.709034781837
 30
0.0
 40
12.737889
100
AcDbArc
 50
342.4120459999404
 51
4.502691999978413
  0
LINE
  5
1FAED
330
2
100
AcDbEntity
  8
VLB
100
AcDbLine
 10
2496.052570132405
 20
4152.042368781836
 30
0.0
 11
2496.052570132405
 21
4159.709034781841
 31
0.0
  0
LINE
  5
1FAEE
330
2
100
AcDbEntity
  8
VLB
100
AcDbLine
 10
2491.385904132406
 20
4159.709034781841
 30
0.0
 11
2491.385904132406
 21
4166.407036781839
 31
0.0
  0
LINE
  5
1FAEF
330
2
100
AcDbEntity
  8
VLB
100
AcDbLine
 10
2490.719237132407
 20
4166.209033781841
 30
0.0
 11
2490.719237132407
 21
4159.709034781841
 31
0.0
  0
LINE
  5
1FAF0
330
2
100
AcDbEntity
  8
VLB
100
AcDbLine
 10
2490.719237132407
 20
4160.790941781841
 30
0.0
 11
2490.719237132407
 21
4164.642366781838
 31
0.0
  0
ARC
  5
1FAF1
330
2
100
AcDbEntity
  8
VLB
100
AcDbCircle
 10
2483.314681132407
 20
4158.709034781837
 30
0.0
 40
12.737889
100
AcDbArc
 50
4.502691999978413
 51
17.58795400005962
  0
LINE
  5
1FAF2
330
2
100
AcDbEntity
  8
VLB
100
AcDbLine
 10
2496.052570132405
 20
4159.709034781841
 30
0.0
 11
2496.052570132405
 21
4165.375700781838
 31
0.0
  0
LINE
  5
1FAF3
330
2
100
AcDbEntity
  8
VLB
100
AcDbLine
 10
2349.896005446906
 20
4143.709034781838
 30
0.0
 11
2349.896005446906
 21
4138.709034781838
 31
0.0
  0
LINE
  5
1FAF4
330
2
100
AcDbEntity
  8
SPS
100
AcDbLine
 10
2486.132549901858
 20
4425.692945361539
 30
0.0
 11
2472.791863757216
 21
4425.692945361539
 31
0.0
  0
LINE
  5
1FAF5
330
2
100
AcDbEntity
  8
SPS
100
AcDbLine
 10
2479.821193344784
 20
4418.284702507577
 30
0.0
 11
2479.821193344784
 21
4434.17755458542
 31
0.0
  0
CIRCLE
  5
1FAF6
330
2
100
AcDbEntity
  8
VLB
100
AcDbCircle
 10
2479.821193344784
 20
4425.692945361539
 30
0.0
 40
5.000000000001818
  0
CIRCLE
  5
1FAF7
330
2
100
AcDbEntity
  8
VLB
100
AcDbCircle
 10
2479.821193344784
 20
4425.692945361539
 30
0.0
 40
2.550000000006548
  0
LINE
  5
1FAF8
330
2
100
AcDbEntity
  8
SPS
100
AcDbLine
 10
2486.132549901858
 20
4305.044885361539
 30
0.0
 11
2472.791863757216
 21
4305.044885361539
 31
0.0
  0
LINE
  5
1FAF9
330
2
100
AcDbEntity
  8
SPS
100
AcDbLine
 10
2479.821193344784
 20
4297.636642507576
 30
0.0
 11
2479.821193344784
 21
4313.529494585419
 31
0.0
  0
CIRCLE
  5
1FAFA
330
2
100
AcDbEntity
  8
VLB
100
AcDbCircle
 10
2479.821193344784
 20
4305.044885361539
 30
0.0
 40
5.000000000001818
  0
CIRCLE
  5
1FAFB
330
2
100
AcDbEntity
  8
VLB
100
AcDbCircle
 10
2479.821193344784
 20
4305.044885361539
 30
0.0
 40
2.550000000006548
  0
LINE
  5
1FAFC
330
2
100
AcDbEntity
  8
SPS
100
AcDbLine
 10
2479.821193344784
 20
4780.228882507578
 30
0.0
 11
2479.821193344784
 21
4796.121734585421
 31
0.0
  0
LINE
  5
1FAFD
330
2
100
AcDbEntity
  8
SPS
100
AcDbLine
 10
2486.132549901858
 20
4666.98906536154
 30
0.0
 11
2472.791863757216
 21
4666.98906536154
 31
0.0
  0
LINE
  5
1FAFE
330
2
100
AcDbEntity
  8
SPS
100
AcDbLine
 10
2479.821193344784
 20
4659.580822507577
 30
0.0
 11
2479.821193344784
 21
4675.473674585421
 31
0.0
  0
CIRCLE
  5
1FAFF
330
2
100
AcDbEntity
  8
VLB
100
AcDbCircle
 10
2479.821193344784
 20
4666.98906536154
 30
0.0
 40
5.000000000001818
  0
CIRCLE
  5
1FB00
330
2
100
AcDbEntity
  8
VLB
100
AcDbCircle
 10
2479.821193344784
 20
4666.98906536154
 30
0.0
 40
2.550000000006548
  0
LINE
  5
1FB01
330
2
100
AcDbEntity
  8
SPS
100
AcDbLine
 10
2486.132549901858
 20
4546.341005361539
 30
0.0
 11
2472.791863757216
 21
4546.341005361539
 31
0.0
  0
LINE
  5
1FB02
330
2
100
AcDbEntity
  8
SPS
100
AcDbLine
 10
2479.821193344784
 20
4538.932762507577
 30
0.0
 11
2479.821193344784
 21
4554.82561458542
 31
0.0
  0
CIRCLE
  5
1FB03
330
2
100
AcDbEntity
  8
VLB
100
AcDbCircle
 10
2479.821193344784
 20
4546.341005361539
 30
0.0
 40
5.000000000001818
  0
CIRCLE
  5
1FB04
330
2
100
AcDbEntity
  8
VLB
100
AcDbCircle
 10
2479.821193344784
 20
4546.341005361539
 30
0.0
 40
2.550000000006548
  0
LINE
  5
1FB05
330
2
100
AcDbEntity
  8
SPS
100
AcDbLine
 10
2486.132549901858
 20
5028.933245361542
 30
0.0
 11
2472.791863757216
 21
5028.933245361542
 31
0.0
  0
LINE
  5
1FB06
330
2
100
AcDbEntity
  8
SPS
100
AcDbLine
 10
2479.821193344784
 20
5021.52500250758
 30
0.0
 11
2479.821193344784
 21
5037.417854585422
 31
0.0
  0
CIRCLE
  5
1FB07
330
2
100
AcDbEntity
  8
VLB
100
AcDbCircle
 10
2479.821193344784
 20
5028.933245361542
 30
0.0
 40
5.000000000001818
  0
CIRCLE
  5
1FB08
330
2
100
AcDbEntity
  8
VLB
100
AcDbCircle
 10
2479.821193344784
 20
5028.933245361542
 30
0.0
 40
2.550000000006548
  0
LINE
  5
1FB09
330
2
100
AcDbEntity
  8
SPS
100
AcDbLine
 10
2486.132549901858
 20
4908.285185361541
 30
0.0
 11
2472.791863757216
 21
4908.285185361541
 31
0.0
  0
LINE
  5
1FB0A
330
2
100
AcDbEntity
  8
SPS
100
AcDbLine
 10
2479.821193344784
 20
4900.876942507579
 30
0.0
 11
2479.821193344784
 21
4916.769794585421
 31
0.0
  0
CIRCLE
  5
1FB0B
330
2
100
AcDbEntity
  8
VLB
100
AcDbCircle
 10
2479.821193344784
 20
4908.285185361541
 30
0.0
 40
5.000000000001818
  0
CIRCLE
  5
1FB0C
330
2
100
AcDbEntity
  8
VLB
100
AcDbCircle
 10
2479.821193344784
 20
4908.285185361541
 30
0.0
 40
2.550000000006548
  0
LINE
  5
1FB0D
330
2
100
AcDbEntity
  8
SPS
100
AcDbLine
 10
2486.132549901858
 20
4787.63712536154
 30
0.0
 11
2472.791863757216
 21
4787.63712536154
 31
0.0
  0
CIRCLE
  5
1FB0E
330
2
100
AcDbEntity
  8
VLB
100
AcDbCircle
 10
2479.821193344784
 20
4787.63712536154
 30
0.0
 40
5.000000000001818
  0
CIRCLE
  5
1FB0F
330
2
100
AcDbEntity
  8
VLB
100
AcDbCircle
 10
2479.821193344784
 20
4787.63712536154
 30
0.0
 40
2.550000000006548
  0
LINE
  5
1FB10
330
2
100
AcDbEntity
  8
VLB
100
AcDbLine
 10
1120.396005446906
 20
5720.209034781835
 30
0.0
 11
2303.396005446906
 21
5720.209034781835
 31
0.0
  0
LINE
  5
1FB11
330
2
100
AcDbEntity
  8
VLB
100
AcDbLine
 10
2489.896005446906
 20
5643.709034781838
 30
0.0
 11
933.8960054469062
 21
5643.709034781838
 31
0.0
  0
LINE
  5
1FB12
330
2
100
AcDbEntity
  8
VLB
100
AcDbLine
 10
1120.396005446906
 20
5720.209034781835
 30
0.0
 11
1120.396005446906
 21
5643.709034781837
 31
0.0
  0
LINE
  5
1FB13
330
2
100
AcDbEntity
  8
SPS
100
AcDbLine
 10
942.6907099566342
 20
5270.229365361543
 30
0.0
 11
929.6515193506238
 21
5270.229365361543
 31
0.0
  0
LINE
  5
1FB14
330
2
100
AcDbEntity
  8
VLB
100
AcDbLine
 10
932.8960054469098
 20
5265.229365361542
 30
0.0
 11
933.896005446908
 21
5265.229365361545
 31
0.0
  0
LINE
  5
1FB15
330
2
100
AcDbEntity
  8
VLB
100
AcDbLine
 10
932.8960054469098
 20
5275.229365361543
 30
0.0
 11
933.896005446908
 21
5275.229365361541
 31
0.0
  0
ARC
  5
1FB16
330
2
100
AcDbEntity
  8
VLB
100
AcDbCircle
 10
944.8960054469081
 20
5270.229365361543
 30
0.0
 40
12.99999999999925
100
AcDbArc
 50
157.3801350519214
 51
202.6198649480785
  0
LINE
  5
1FB17
330
2
100
AcDbEntity
  8
SPS
100
AcDbLine
 10
942.6907099566342
 20
5149.581305361542
 30
0.0
 11
929.6515193506238
 21
5149.581305361542
 31
0.0
  0
LINE
  5
1FB18
330
2
100
AcDbEntity
  8
VLB
100
AcDbLine
 10
932.8960054469098
 20
5144.581305361542
 30
0.0
 11
933.896005446908
 21
5144.581305361544
 31
0.0
  0
LINE
  5
1FB19
330
2
100
AcDbEntity
  8
VLB
100
AcDbLine
 10
932.8960054469098
 20
5154.581305361542
 30
0.0
 11
933.896005446908
 21
5154.58130536154
 31
0.0
  0
ARC
  5
1FB1A
330
2
100
AcDbEntity
  8
VLB
100
AcDbCircle
 10
944.8960054469081
 20
5149.581305361542
 30
0.0
 40
12.99999999999925
100
AcDbArc
 50
157.3801350519214
 51
202.6198649480785
  0
LINE
  5
1FB1B
330
2
100
AcDbEntity
  8
SPS
100
AcDbLine
 10
942.6907099566342
 20
5511.525485361543
 30
0.0
 11
929.6515193506238
 21
5511.525485361543
 31
0.0
  0
LINE
  5
1FB1C
330
2
100
AcDbEntity
  8
VLB
100
AcDbLine
 10
932.8960054469098
 20
5506.525485361543
 30
0.0
 11
933.896005446908
 21
5506.525485361545
 31
0.0
  0
LINE
  5
1FB1D
330
2
100
AcDbEntity
  8
VLB
100
AcDbLine
 10
932.8960054469098
 20
5516.525485361544
 30
0.0
 11
933.896005446908
 21
5516.525485361541
 31
0.0
  0
ARC
  5
1FB1E
330
2
100
AcDbEntity
  8
VLB
100
AcDbCircle
 10
944.8960054469081
 20
5511.525485361543
 30
0.0
 40
12.99999999999925
100
AcDbArc
 50
157.3801350519214
 51
202.6198649480785
  0
LINE
  5
1FB1F
330
2
100
AcDbEntity
  8
SPS
100
AcDbLine
 10
942.6907099566342
 20
5390.877425361543
 30
0.0
 11
929.6515193506238
 21
5390.877425361543
 31
0.0
  0
LINE
  5
1FB20
330
2
100
AcDbEntity
  8
VLB
100
AcDbLine
 10
932.8960054469098
 20
5385.877425361543
 30
0.0
 11
933.896005446908
 21
5385.877425361545
 31
0.0
  0
LINE
  5
1FB21
330
2
100
AcDbEntity
  8
VLB
100
AcDbLine
 10
932.8960054469098
 20
5395.877425361543
 30
0.0
 11
933.896005446908
 21
5395.877425361541
 31
0.0
  0
ARC
  5
1FB22
330
2
100
AcDbEntity
  8
VLB
100
AcDbCircle
 10
944.8960054469081
 20
5390.877425361543
 30
0.0
 40
12.99999999999925
100
AcDbArc
 50
157.3801350519214
 51
202.6198649480785
  0
LINE
  5
1FB23
330
2
100
AcDbEntity
  8
SPS
100
AcDbLine
 10
942.690709956636
 20
5632.173513190668
 30
0.0
 11
929.6515193506257
 21
5632.173513190668
 31
0.0
  0
LINE
  5
1FB24
330
2
100
AcDbEntity
  8
VLB
100
AcDbLine
 10
932.8960054469117
 20
5627.173513190668
 30
0.0
 11
933.896005446908
 21
5627.17351319067
 31
0.0
  0
LINE
  5
1FB25
330
2
100
AcDbEntity
  8
VLB
100
AcDbLine
 10
932.8960054469117
 20
5637.173513190668
 30
0.0
 11
933.896005446908
 21
5637.173513190666
 31
0.0
  0
ARC
  5
1FB26
330
2
100
AcDbEntity
  8
VLB
100
AcDbCircle
 10
944.8960054469099
 20
5632.173513190668
 30
0.0
 40
12.99999999999925
100
AcDbArc
 50
157.3801350519214
 51
202.6198649480785
  0
LINE
  5
1FB27
330
2
100
AcDbEntity
  8
VLB
100
AcDbLine
 10
2303.396005446906
 20
5720.209034781835
 30
0.0
 11
2303.396005446906
 21
5643.709034781837
 31
0.0
  0
LINE
  5
1FB28
330
2
100
AcDbEntity
  8
SPS
100
AcDbLine
 10
2486.132549901858
 20
5270.229365361543
 30
0.0
 11
2472.791863757216
 21
5270.229365361543
 31
0.0
  0
LINE
  5
1FB29
330
2
100
AcDbEntity
  8
SPS
100
AcDbLine
 10
2479.821193344784
 20
5262.82112250758
 30
0.0
 11
2479.821193344784
 21
5278.713974585423
 31
0.0
  0
CIRCLE
  5
1FB2A
330
2
100
AcDbEntity
  8
VLB
100
AcDbCircle
 10
2479.821193344784
 20
5270.229365361543
 30
0.0
 40
5.000000000001818
  0
CIRCLE
  5
1FB2B
330
2
100
AcDbEntity
  8
VLB
100
AcDbCircle
 10
2479.821193344784
 20
5270.229365361543
 30
0.0
 40
2.550000000006548
  0
LINE
  5
1FB2C
330
2
100
AcDbEntity
  8
SPS
100
AcDbLine
 10
2486.132549901858
 20
5149.581305361542
 30
0.0
 11
2472.791863757216
 21
5149.581305361542
 31
0.0
  0
LINE
  5
1FB2D
330
2
100
AcDbEntity
  8
SPS
100
AcDbLine
 10
2479.821193344784
 20
5142.17306250758
 30
0.0
 11
2479.821193344784
 21
5158.065914585423
 31
0.0
  0
CIRCLE
  5
1FB2E
330
2
100
AcDbEntity
  8
VLB
100
AcDbCircle
 10
2479.821193344784
 20
5149.581305361542
 30
0.0
 40
5.000000000001818
  0
CIRCLE
  5
1FB2F
330
2
100
AcDbEntity
  8
VLB
100
AcDbCircle
 10
2479.821193344784
 20
5149.581305361542
 30
0.0
 40
2.550000000006548
  0
LINE
  5
1FB30
330
2
100
AcDbEntity
  8
SPS
100
AcDbLine
 10
2486.132549901858
 20
5511.525485361543
 30
0.0
 11
2472.791863757216
 21
5511.525485361543
 31
0.0
  0
LINE
  5
1FB31
330
2
100
AcDbEntity
  8
SPS
100
AcDbLine
 10
2479.821193344784
 20
5504.117242507581
 30
0.0
 11
2479.821193344784
 21
5520.010094585424
 31
0.0
  0
CIRCLE
  5
1FB32
330
2
100
AcDbEntity
  8
VLB
100
AcDbCircle
 10
2479.821193344784
 20
5511.525485361543
 30
0.0
 40
5.000000000001818
  0
CIRCLE
  5
1FB33
330
2
100
AcDbEntity
  8
VLB
100
AcDbCircle
 10
2479.821193344784
 20
5511.525485361543
 30
0.0
 40
2.550000000006548
  0
LINE
  5
1FB34
330
2
100
AcDbEntity
  8
SPS
100
AcDbLine
 10
2486.132549901858
 20
5390.877425361543
 30
0.0
 11
2472.791863757216
 21
5390.877425361543
 31
0.0
  0
LINE
  5
1FB35
330
2
100
AcDbEntity
  8
SPS
100
AcDbLine
 10
2479.821193344784
 20
5383.469182507581
 30
0.0
 11
2479.821193344784
 21
5399.362034585423
 31
0.0
  0
CIRCLE
  5
1FB36
330
2
100
AcDbEntity
  8
VLB
100
AcDbCircle
 10
2479.821193344784
 20
5390.877425361543
 30
0.0
 40
5.000000000001818
  0
CIRCLE
  5
1FB37
330
2
100
AcDbEntity
  8
VLB
100
AcDbCircle
 10
2479.821193344784
 20
5390.877425361543
 30
0.0
 40
2.550000000006548
  0
LINE
  5
1FB38
330
2
100
AcDbEntity
  8
SPS
100
AcDbLine
 10
2479.821193344784
 20
5624.765270336704
 30
0.0
 11
2479.821193344784
 21
5640.658122414547
 31
0.0
  0
CIRCLE
  5
1FB39
330
2
100
AcDbEntity
  8
VLB
100
AcDbCircle
 10
2479.821193344784
 20
5632.173513190666
 30
0.0
 40
2.550000000006548
  0
CIRCLE
  5
1FB3A
330
2
100
AcDbEntity
  8
VLB
100
AcDbCircle
 10
2479.821193344784
 20
5632.173513190666
 30
0.0
 40
5.000000000001818
  0
LINE
  5
1FB3B
330
2
100
AcDbEntity
  8
SPS
100
AcDbLine
 10
2486.132549901858
 20
5632.173513190666
 30
0.0
 11
2472.791863757216
 21
5632.173513190666
 31
0.0
  0
LINE
  5
1FB3C
330
2
100
AcDbEntity
  8
VLB
100
AcDbLine
 10
1711.896005446906
 20
5754.686914127287
 30
0.0
 11
2303.396005446908
 21
5735.209034781836
 31
0.0
  0
LINE
  5
1FB3D
330
2
100
AcDbEntity
  8
VLB
100
AcDbLine
 10
2303.396005446908
 20
5735.209034781836
 30
0.0
 11
2303.396005446908
 21
5720.209034781835
 31
0.0
  0
LINE
  5
1FB3E
330
2
100
AcDbEntity
  8
VLB
100
AcDbLine
 10
2304.269333003665
 20
5741.193680776717
 30
0.0
 11
2303.523341489924
 21
5718.706050918028
 31
0.0
  0
LINE
  5
1FB3F
330
2
100
AcDbEntity
  8
VLB
100
AcDbLine
 10
2472.676694389853
 20
5735.607033218251
 30
0.0
 11
2304.269333003665
 21
5741.193680776717
 31
0.0
  0
LINE
  5
1FB40
330
2
100
AcDbEntity
  8
SPS
100
AcDbLine
 10
2311.719312747072
 20
5715.432512289578
 30
0.0
 11
2311.967976584988
 21
5722.928388909141
 31
0.0
  0
LINE
  5
1FB41
330
2
100
AcDbEntity
  8
VLB
100
AcDbLine
 10
2493.418882518859
 20
5712.406567024208
 30
0.0
 11
2303.523341489924
 21
5718.706050918028
 31
0.0
  0
LINE
  5
1FB42
330
2
100
AcDbEntity
  8
VLB
100
AcDbLine
 10
2493.418882518859
 20
5712.406567024208
 30
0.0
 11
2493.468615286441
 21
5713.905742348121
 31
0.0
  0
LINE
  5
1FB43
330
2
100
AcDbEntity
  8
VLB
100
AcDbLine
 10
2493.468615286441
 20
5713.905742348121
 30
0.0
 11
2472.676694389853
 21
5735.607033218251
 31
0.0
  0
CIRCLE
  5
1FB44
330
2
100
AcDbEntity
  8
VLB
100
AcDbCircle
 10
2293.321193344787
 20
5708.673513190664
 30
0.0
 40
5.000000000001818
  0
CIRCLE
  5
1FB45
330
2
100
AcDbEntity
  8
VLB
100
AcDbCircle
 10
2293.321193344787
 20
5708.673513190664
 30
0.0
 40
2.550000000006548
  0
LINE
  5
1FB46
330
2
100
AcDbEntity
  8
SPS
100
AcDbLine
 10
2299.632549901862
 20
5708.673513190664
 30
0.0
 11
2286.29186375722
 21
5708.673513190664
 31
0.0
  0
LINE
  5
1FB47
330
2
100
AcDbEntity
  8
SPS
100
AcDbLine
 10
2293.321193344787
 20
5701.265270336702
 30
0.0
 11
2293.321193344787
 21
5717.158122414545
 31
0.0
  0
LINE
  5
1FB48
330
2
100
AcDbEntity
  8
VLB
100
AcDbLine
 10
951.1153165039596
 20
5735.607033218251
 30
0.0
 11
1119.522677890147
 21
5741.193680776717
 31
0.0
  0
LINE
  5
1FB49
330
2
100
AcDbEntity
  8
VLB
100
AcDbLine
 10
930.3731283749529
 20
5712.406567024208
 30
0.0
 11
930.3233956073709
 21
5713.905742348121
 31
0.0
  0
LINE
  5
1FB4A
330
2
100
AcDbEntity
  8
VLB
100
AcDbLine
 10
930.3731283749529
 20
5712.406567024208
 30
0.0
 11
1120.268669403887
 21
5718.706050918028
 31
0.0
  0
LINE
  5
1FB4B
330
2
100
AcDbEntity
  8
VLB
100
AcDbLine
 10
930.3233956073709
 20
5713.905742348121
 30
0.0
 11
951.1153165039596
 21
5735.607033218251
 31
0.0
  0
LINE
  5
1FB4C
330
2
100
AcDbEntity
  8
VLB
100
AcDbLine
 10
1711.896005446906
 20
5754.686914127289
 30
0.0
 11
1120.396005446904
 21
5735.209034781836
 31
0.0
  0
LINE
  5
1FB4D
330
2
100
AcDbEntity
  8
VLB
100
AcDbLine
 10
1119.522677890147
 20
5741.193680776717
 30
0.0
 11
1120.268669403887
 21
5718.706050918028
 31
0.0
  0
LINE
  5
1FB4E
330
2
100
AcDbEntity
  8
VLB
100
AcDbLine
 10
1120.396005446904
 20
5735.209034781836
 30
0.0
 11
1120.396005446904
 21
5720.209034781835
 31
0.0
  0
LINE
  5
1FB4F
330
2
100
AcDbEntity
  8
SPS
100
AcDbLine
 10
1112.072698146739
 20
5715.432512289578
 30
0.0
 11
1111.824034308823
 21
5722.928388909141
 31
0.0
  0
LINE
  5
1FB50
330
2
100
AcDbEntity
  8
VLB
100
AcDbLine
 10
1120.396005446906
 20
5698.209034781847
 30
0.0
 11
1120.396005446906
 21
5720.209034781835
 31
0.0
  0
LINE
  5
1FB51
330
2
100
AcDbEntity
  8
VLB
100
AcDbLine
 10
1119.396005446913
 20
5713.527315647507
 30
0.0
 11
1120.396005446911
 21
5713.527315647505
 31
0.0
  0
LINE
  5
1FB52
330
2
100
AcDbEntity
  8
VLB
100
AcDbLine
 10
1119.396005446913
 20
5703.527315647507
 30
0.0
 11
1120.396005446911
 21
5703.527315647509
 31
0.0
  0
ARC
  5
1FB53
330
2
100
AcDbEntity
  8
VLB
100
AcDbCircle
 10
1131.396005446911
 20
5708.527315647507
 30
0.0
 40
12.99999999999925
100
AcDbArc
 50
157.3801350519214
 51
202.6198649480785
  0
LINE
  5
1FB54
330
2
100
AcDbEntity
  8
SPS
100
AcDbLine
 10
1129.190709956637
 20
5708.527315647507
 30
0.0
 11
1116.151519350627
 21
5708.527315647507
 31
0.0
  0
CIRCLE
  5
1FB55
330
2
100
AcDbEntity
  8
VLB
100
AcDbCircle
 10
1130.571513915963
 20
5708.527315647507
 30
0.0
 40
2.550000000006548
  0
LINE
  5
1FB56
330
2
100
AcDbEntity
  8
SPS
100
AcDbLine
 10
1124.260157358889
 20
5708.527315647507
 30
0.0
 11
1137.60084350353
 21
5708.527315647507
 31
0.0
  0
CIRCLE
  5
1FB57
330
2
100
AcDbEntity
  8
VLB
100
AcDbCircle
 10
1130.571513915963
 20
5708.527315647507
 30
0.0
 40
5.000000000001818
  0
LINE
  5
1FB58
330
2
100
AcDbEntity
  8
SPS
100
AcDbLine
 10
1130.571513915963
 20
5701.119072793545
 30
0.0
 11
1130.571513915963
 21
5717.011924871387
 31
0.0
  0
LINE
  5
1FB59
330
2
100
AcDbEntity
  8
VLB
100
AcDbLine
 10
1699.396005446906
 20
5643.709034781839
 30
0.0
 11
1724.396005446908
 21
5643.709034781838
 31
0.0
  0
LINE
  5
1FB5A
330
2
100
AcDbEntity
  8
VLB
100
AcDbLine
 10
1699.396005446906
 20
5651.565419364849
 30
0.0
 11
1706.896005446908
 21
5651.565419364849
 31
0.0
  0
LINE
  5
1FB5B
330
2
100
AcDbEntity
  8
VLB
100
AcDbLine
 10
1699.396005446904
 20
5651.565419364849
 30
0.0
 11
1706.896005446908
 21
5655.09735816649
 31
0.0
  0
LINE
  5
1FB5C
330
2
100
AcDbEntity
  8
VLB
100
AcDbLine
 10
1699.396005446904
 20
5651.565419364849
 30
0.0
 11
1699.396005446906
 21
5643.709034781839
 31
0.0
  0
LINE
  5
1FB5D
330
2
100
AcDbEntity
  8
SPS
100
AcDbLine
 10
1703.896005446908
 20
5666.209034781838
 30
0.0
 11
1719.896005446906
 21
5666.209034781838
 31
0.0
  0
ARC
  5
1FB5E
330
2
100
AcDbEntity
  8
VLB
100
AcDbCircle
 10
1711.896005446908
 20
5683.709034781839
 30
0.0
 40
5.0
100
AcDbArc
 50
0.0
 51
180.0
  0
ELLIPSE
  5
1FB5F
330
2
100
AcDbEntity
  8
VLS
100
AcDbEllipse
 10
1711.896005446908
 20
5649.309121589152
 30
0.0
 11
-5.0
 21
0.0000000000000003
 31
0.0
210
0.0
220
0.0
230
1.0
 40
0.3616747482367373
 41
0.6435011087932847
 42
2.498091544796508
  0
LINE
  5
1FB60
330
2
100
AcDbEntity
  8
VLB
100
AcDbLine
 10
1706.896005446906
 20
5683.709034781838
 30
0.0
 11
1706.896005446908
 21
5649.309121589152
 31
0.0
  0
LINE
  5
1FB61
330
2
100
AcDbEntity
  8
VLB
100
AcDbLine
 10
1716.896005446906
 20
5683.709034781839
 30
0.0
 11
1716.896005446908
 21
5649.309121589152
 31
0.0
  0
LINE
  5
1FB62
330
2
100
AcDbEntity
  8
VLB
100
AcDbLine
 10
1724.396005446906
 20
5651.565419364849
 30
0.0
 11
1724.396005446906
 21
5643.709034781839
 31
0.0
  0
LINE
  5
1FB63
330
2
100
AcDbEntity
  8
VLB
100
AcDbLine
 10
1724.396005446908
 20
5651.565419364849
 30
0.0
 11
1716.896005446908
 21
5655.097358166488
 31
0.0
  0
LINE
  5
1FB64
330
2
100
AcDbEntity
  8
VLB
100
AcDbLine
 10
1716.896005446908
 20
5651.565419364849
 30
0.0
 11
1724.396005446906
 21
5651.565419364849
 31
0.0
  0
LINE
  5
1FB67
330
2
100
AcDbEntity
  8
VLB
100
AcDbLine
 10
-577.9079769809304
 20
5712.406567024208
 30
0.0
 11
-740.9079769809286
 21
5712.406567024208
 31
0.0
  0
LINE
  5
1FB68
330
2
100
AcDbEntity
  8
VLB
100
AcDbLine
 10
-578.9079769809286
 20
5713.905742348121
 30
0.0
 11
-739.9079769809323
 21
5713.905742348121
 31
0.0
  0
LINE
  5
1FB69
330
2
100
AcDbEntity
  8
VLB
100
AcDbLine
 10
-579.9079769809286
 20
5719.097116968942
 30
0.0
 11
-738.9079769809322
 21
5719.097116968942
 31
0.0
  0
LINE
  5
1FB6A
330
2
100
AcDbEntity
  8
VLB
100
AcDbLine
 10
-578.9079769809286
 20
5720.096567184885
 30
0.0
 11
-739.9079769809323
 21
5720.096567184885
 31
0.0
  0
LINE
  5
1FB6B
330
2
100
AcDbEntity
  8
VLB
100
AcDbLine
 10
-659.4079769809304
 20
5730.087925405058
 30
0.0
 11
-578.9079769809286
 21
5727.437089754493
 31
0.0
  0
LINE
  5
1FB6C
330
2
100
AcDbEntity
  8
VLB
100
AcDbLine
 10
-739.9079769809323
 20
5713.905742348121
 30
0.0
 11
-739.9079769809304
 21
5741.193680776717
 31
0.0
  0
LINE
  5
1FB6D
330
2
100
AcDbEntity
  8
VLB
100
AcDbLine
 10
-739.9079769809304
 20
5741.193680776717
 30
0.0
 11
-740.9079769809304
 21
5741.193680776717
 31
0.0
  0
LINE
  5
1FB6E
330
2
100
AcDbEntity
  8
VLB
100
AcDbLine
 10
-739.9079769809304
 20
5735.607033218251
 30
0.0
 11
-740.9079769809304
 21
5735.607033218251
 31
0.0
  0
LINE
  5
1FB6F
330
2
100
AcDbEntity
  8
VLB
100
AcDbLine
 10
-738.9079769809322
 20
5719.097116968942
 30
0.0
 11
-738.9079769809322
 21
5720.096567184885
 31
0.0
  0
LINE
  5
1FB70
330
2
100
AcDbEntity
  8
VLB
100
AcDbLine
 10
-739.9079769809323
 20
5727.437089754492
 30
0.0
 11
-659.4079769809304
 21
5730.087925405058
 31
0.0
  0
LINE
  5
1FB71
330
2
100
AcDbEntity
  8
VLB
100
AcDbLine
 10
-578.9079769809286
 20
5713.905742348121
 30
0.0
 11
-578.9079769809286
 21
5741.193680776717
 31
0.0
  0
LINE
  5
1FB72
330
2
100
AcDbEntity
  8
VLB
100
AcDbLine
 10
-577.9079769809304
 20
5735.607033218251
 30
0.0
 11
-578.9079769809286
 21
5735.607033218251
 31
0.0
  0
LINE
  5
1FB73
330
2
100
AcDbEntity
  8
VLB
100
AcDbLine
 10
-577.9079769809323
 20
5741.193680776717
 30
0.0
 11
-578.9079769809286
 21
5741.193680776717
 31
0.0
  0
LINE
  5
1FB74
330
2
100
AcDbEntity
  8
VLB
100
AcDbLine
 10
-579.9079769809286
 20
5719.097116968942
 30
0.0
 11
-579.9079769809286
 21
5720.096567184885
 31
0.0
  0
LINE
  5
1FB75
330
2
100
AcDbEntity
  8
VLB
100
AcDbLine
 10
-740.9079769809304
 20
5712.406567024208
 30
0.0
 11
-740.9079769809286
 21
5752.003148841311
 31
0.0
  0
LINE
  5
1FB76
330
2
100
AcDbEntity
  8
VLB
100
AcDbLine
 10
-577.9079769809304
 20
5712.406567024208
 30
0.0
 11
-577.9079769809304
 21
5752.003148841315
 31
0.0
  0
LINE
  5
1FB78
330
2
100
AcDbEntity
  8
VLB
100
AcDbLine
 10
-1250.90797698093
 20
5735.209034781836
 30
0.0
 11
-740.9079769809286
 21
5752.003148841311
 31
0.0
  0
LINE
  5
1FB79
330
2
100
AcDbEntity
  8
VLB
100
AcDbLine
 10
-1250.90797698093
 20
5720.209034781835
 30
0.0
 11
-1250.90797698093
 21
5735.209034781836
 31
0.0
  0
LINE
  5
1FB7A
330
2
100
AcDbEntity
  8
VLB
100
AcDbLine
 10
-577.9079769809304
 20
5752.003148841315
 30
0.0
 11
-67.90797698093228
 21
5735.209034781836
 31
0.0
  0
LINE
  5
1FB7B
330
2
100
AcDbEntity
  8
VLB
100
AcDbLine
 10
-67.90797698093228
 20
5735.209034781836
 30
0.0
 11
-67.90797698093228
 21
5720.209034781835
 31
0.0
  0
LINE
  5
1FB7C
330
2
100
AcDbEntity
  8
VLB
100
AcDbLine
 10
-577.9079769809304
 20
5720.209034781835
 30
0.0
 11
-67.90797698093228
 21
5720.209034781835
 31
0.0
  0
LINE
  5
1FB7D
330
2
100
AcDbEntity
  8
SPS
100
AcDbLine
 10
-1428.150042199204
 20
5634.914330272112
 30
0.0
 11
-1428.150042199204
 21
5647.953520878122
 31
0.0
  0
LINE
  5
1FB7E
330
2
100
AcDbEntity
  8
SPS
100
AcDbLine
 10
-1394.959716011433
 20
5634.914330272112
 30
0.0
 11
-1394.959716011433
 21
5647.953520878122
 31
0.0
  0
LINE
  5
1FB7F
330
2
100
AcDbEntity
  8
SPS
100
AcDbLine
 10
-1410.737158705675
 20
5648.603272120237
 30
0.0
 11
-1410.737158705675
 21
5634.603272120235
 31
0.0
  0
CIRCLE
  5
1FB80
330
2
100
AcDbEntity
  8
VLB
100
AcDbCircle
 10
-1410.737158705675
 20
5666.103272120235
 30
0.0
 40
12.5
  0
ARC
  5
1FB81
330
2
100
AcDbEntity
  8
VLB
100
AcDbCircle
 10
-1410.737158705675
 20
5666.103272120235
 30
0.0
 40
22.5
100
AcDbArc
 50
303.748988595957
 51
236.2510114040428
  0
LINE
  5
1FB82
330
2
100
AcDbEntity
  8
VLS
100
AcDbLine
 10
-1398.237158705675
 20
5653.603272120236
 30
0.0
 11
-1423.237158705675
 21
5653.603272120237
 31
0.0
  0
ARC
  5
1FB83
330
2
100
AcDbEntity
  8
VLB
100
AcDbCircle
 10
-1428.150042199204
 20
5632.709034781838
 30
0.0
 40
12.99999999999925
100
AcDbArc
 50
67.3801350519691
 51
112.6198649480308
  0
LINE
  5
1FB84
330
2
100
AcDbEntity
  8
VLB
100
AcDbLine
 10
-1423.150042199204
 20
5644.709034781836
 30
0.0
 11
-1423.150042199206
 21
5643.709034781838
 31
0.0
  0
LINE
  5
1FB85
330
2
100
AcDbEntity
  8
VLB
100
AcDbLine
 10
-1433.150042199204
 20
5644.709034781836
 30
0.0
 11
-1433.150042199202
 21
5643.709034781838
 31
0.0
  0
LINE
  5
1FB86
330
2
100
AcDbEntity
  8
VLB
100
AcDbLine
 10
-1423.237158705676
 20
5653.603272120236
 30
0.0
 11
-1416.136139898908
 21
5654.82936409883
 31
0.0
  0
ARC
  5
1FB87
330
2
100
AcDbEntity
  8
VLB
100
AcDbCircle
 10
-1394.959716011433
 20
5632.709034781838
 30
0.0
 40
12.99999999999925
100
AcDbArc
 50
67.3801350519691
 51
112.6198649480308
  0
LINE
  5
1FB88
330
2
100
AcDbEntity
  8
VLB
100
AcDbLine
 10
-1389.959716011433
 20
5644.709034781836
 30
0.0
 11
-1389.959716011435
 21
5643.709034781838
 31
0.0
  0
LINE
  5
1FB89
330
2
100
AcDbEntity
  8
VLB
100
AcDbLine
 10
-1399.959716011433
 20
5644.709034781836
 30
0.0
 11
-1399.959716011431
 21
5643.709034781838
 31
0.0
  0
LINE
  5
1FB8A
330
2
100
AcDbEntity
  8
VLB
100
AcDbLine
 10
-1398.237158705675
 20
5653.603272120236
 30
0.0
 11
-1405.338177512441
 21
5654.82936409883
 31
0.0
  0
LINE
  5
1FB8B
330
2
100
AcDbEntity
  8
VLB
100
AcDbLine
 10
-1398.237158705675
 20
5645.289113056075
 30
0.0
 11
-1398.237158705675
 21
5653.603272120236
 31
0.0
  0
LINE
  5
1FB8C
330
2
100
AcDbEntity
  8
VLB
100
AcDbLine
 10
-1423.237158705675
 20
5653.603272120237
 30
0.0
 11
-1423.237158705675
 21
5644.744963320135
 31
0.0
  0
ARC
  5
1FB8D
330
2
100
AcDbEntity
  8
VLB
100
AcDbCircle
 10
91.92120474381409
 20
5666.103272120234
 30
0.0
 40
22.5
100
AcDbArc
 50
303.748988595957
 51
236.2510114040428
  0
CIRCLE
  5
1FB8E
330
2
100
AcDbEntity
  8
VLB
100
AcDbCircle
 10
91.92120474381409
 20
5666.103272120234
 30
0.0
 40
12.5
  0
LINE
  5
1FB8F
330
2
100
AcDbEntity
  8
VLS
100
AcDbLine
 10
79.42120474381408
 20
5653.603272120234
 30
0.0
 11
104.421204743814
 21
5653.603272120236
 31
0.0
  0
LINE
  5
1FB90
330
2
100
AcDbEntity
  8
VLB
100
AcDbLine
 10
79.42120474381408
 20
5653.603272120234
 30
0.0
 11
86.52222355058075
 21
5654.829364098828
 31
0.0
  0
LINE
  5
1FB91
330
2
100
AcDbEntity
  8
SPS
100
AcDbLine
 10
91.92120474381409
 20
5648.603272120236
 30
0.0
 11
91.92120474381409
 21
5634.603272120234
 31
0.0
  0
LINE
  5
1FB92
330
2
100
AcDbEntity
  8
SPS
100
AcDbLine
 10
91.92120474381409
 20
5631.203301120234
 30
0.0
 11
91.92120474381409
 21
5661.229374098827
 31
0.0
  0
LINE
  5
1FB93
330
2
100
AcDbEntity
  8
VLB
100
AcDbLine
 10
104.4212047438159
 20
5653.603272120234
 30
0.0
 11
97.32018593704744
 21
5654.829364098828
 31
0.0
  0
LINE
  5
1FB94
330
2
100
AcDbEntity
  8
VLB
100
AcDbLine
 10
79.42120474381408
 20
5643.709034781839
 30
0.0
 11
79.42120474381408
 21
5653.603272120234
 31
0.0
  0
LINE
  5
1FB95
330
2
100
AcDbEntity
  8
VLB
100
AcDbLine
 10
104.421204743814
 20
5653.603272120236
 30
0.0
 11
104.421204743814
 21
5643.709034781838
 31
0.0
  0
LINE
  5
1FBB6
330
2
100
AcDbEntity
  8
VLB
100
AcDbLine
 10
-1249.90797698093
 20
5720.209034781835
 30
0.0
 11
-1249.90797698093
 21
5735.209034781836
 31
0.0
  0
LINE
  5
1FBB7
330
2
100
AcDbEntity
  8
VLB
100
AcDbLine
 10
-68.90797698093229
 20
5735.209034781836
 30
0.0
 11
-68.90797698093229
 21
5720.209034781835
 31
0.0
  0
LINE
  5
1FBB8
330
2
100
AcDbEntity
  8
VLB
100
AcDbLine
 10
-68.90797698093229
 20
5720.209034781835
 30
0.0
 11
-68.90797698093229
 21
5643.709034781837
 31
0.0
  0
LINE
  5
1FBB9
330
2
100
AcDbEntity
  8
VLB
100
AcDbLine
 10
1121.396005446904
 20
5735.209034781836
 30
0.0
 11
1121.396005446904
 21
5720.209034781835
 31
0.0
  0
LINE
  5
1FBBA
330
2
100
AcDbEntity
  8
VLB
100
AcDbLine
 10
2302.396005446908
 20
5735.209034781836
 30
0.0
 11
2302.396005446908
 21
5720.209034781835
 31
0.0
  0
LINE
  5
1FBBB
330
2
100
AcDbEntity
  8
VLB
100
AcDbLine
 10
2302.396005446906
 20
5720.209034781835
 30
0.0
 11
2302.396005446906
 21
5643.709034781837
 31
0.0
  0
LINE
  5
1FBBC
330
2
100
AcDbEntity
  8
VLB
100
AcDbLine
 10
1122.396005446906
 20
5720.209034781835
 30
0.0
 11
1122.396005446906
 21
5643.709034781837
 31
0.0
  0
LINE
  5
1FBBD
330
2
100
AcDbEntity
  8
SPS
100
AcDbLine
 10
-659.4079769809322
 20
3422.090539512938
 30
0.0
 11
-659.4079769809322
 21
1829.090539512936
 31
0.0
  0
LINE
  5
1FBBE
330
2
100
AcDbEntity
  8
SPS
100
AcDbLine
 10
-1452.407976980932
 20
2625.590539512937
 30
0.0
 11
133.5920230190713
 21
2625.590539512937
 31
0.0
  0
LINE
  5
1FBBF
330
2
100
AcDbEntity
  8
VLB
100
AcDbLine
 10
-1437.407976980932
 20
3402.090539512938
 30
0.0
 11
-1437.407976980932
 21
1848.590539512938
 31
0.0
  0
LINE
  5
1FBC0
330
2
100
AcDbEntity
  8
VLB
100
AcDbLine
 10
-1435.907976980932
 20
1847.590539512936
 30
0.0
 11
-740.9079769809323
 21
1847.590539512935
 31
0.0
  0
LINE
  5
1FBC1
330
2
100
AcDbEntity
  8
VLB
100
AcDbLine
 10
118.5920230190704
 20
1849.090539512936
 30
0.0
 11
118.5920230190713
 21
3402.590539512936
 31
0.0
  0
LINE
  5
1FBC2
330
2
100
AcDbEntity
  8
VLB
100
AcDbLine
 10
117.0920230190713
 20
3403.590539512937
 30
0.0
 11
-577.9079769809323
 21
3403.590539512938
 31
0.0
  0
LINE
  5
1FBC7
330
2
100
AcDbEntity
  8
SPS
100
AcDbLine
 10
-1434.961398756286
 20
3363.014798762037
 30
0.0
 11
-1421.620712611644
 21
3363.014798762037
 31
0.0
  0
LINE
  5
1FBC8
330
2
100
AcDbEntity
  8
SPS
100
AcDbLine
 10
-1397.409888958134
 20
3363.014798762037
 30
0.0
 11
-1384.069202813492
 21
3363.014798762037
 31
0.0
  0
ARC
  5
1FBC9
330
2
100
AcDbEntity
  8
VLB
100
AcDbCircle
 10
-1428.650042199211
 20
3392.590539512938
 30
0.0
 40
12.99999999999925
100
AcDbArc
 50
67.3801350519691
 51
112.6198649480308
  0
LINE
  5
1FBCA
330
2
100
AcDbEntity
  8
VLB
100
AcDbLine
 10
-1423.650042199211
 20
3404.590539512936
 30
0.0
 11
-1423.650042199211
 21
3403.590539512938
 31
0.0
  0
LINE
  5
1FBCB
330
2
100
AcDbEntity
  8
VLB
100
AcDbLine
 10
-1433.650042199211
 20
3404.590539512936
 30
0.0
 11
-1433.650042199207
 21
3403.590539512938
 31
0.0
  0
LINE
  5
1FBCC
330
2
100
AcDbEntity
  8
SPS
100
AcDbLine
 10
-1428.650042199211
 20
3394.795835003212
 30
0.0
 11
-1428.650042199211
 21
3407.835025609223
 31
0.0
  0
LINE
  5
1FBCD
330
2
100
AcDbEntity
  8
VLB
100
AcDbLine
 10
-1437.40797698093
 20
3402.090539512938
 30
0.0
 11
-1436.40797698093
 21
3402.090539512938
 31
0.0
  0
LINE
  5
1FBCE
330
2
100
AcDbEntity
  8
VLB
100
AcDbLine
 10
-1438.407976980928
 20
3386.761726353856
 30
0.0
 11
-1437.40797698093
 21
3386.761726353858
 31
0.0
  0
LINE
  5
1FBCF
330
2
100
AcDbEntity
  8
VLB
100
AcDbLine
 10
-1438.407976980928
 20
3396.761726353857
 30
0.0
 11
-1437.40797698093
 21
3396.761726353854
 31
0.0
  0
ARC
  5
1FBD0
330
2
100
AcDbEntity
  8
VLB
100
AcDbCircle
 10
-1426.407976980808
 20
3391.761726353804
 30
0.0
 40
13.00000000013173
100
AcDbArc
 50
157.3801350519214
 51
164.0576313944422
  0
ARC
  5
1FBD1
330
2
100
AcDbEntity
  8
VLB
100
AcDbCircle
 10
-1426.40797698093
 20
3391.761726353856
 30
0.0
 40
12.99999999999925
100
AcDbArc
 50
164.0576313944422
 51
195.9423686055577
  0
LINE
  5
1FBD2
330
2
100
AcDbEntity
  8
SPS
100
AcDbLine
 10
-1428.613272471204
 20
3391.761726353856
 30
0.0
 11
-1441.652463077214
 21
3391.761726353856
 31
0.0
  0
ARC
  5
1FBD3
330
2
100
AcDbEntity
  8
VLB
100
AcDbCircle
 10
-1426.407976981046
 20
3391.761726353829
 30
0.0
 40
12.9999999998802
100
AcDbArc
 50
195.9423686055577
 51
202.6198649481446
  0
LINE
  5
1FBD4
330
2
100
AcDbEntity
  8
VLB
100
AcDbLine
 10
-1437.40797698093
 20
3396.761726353854
 30
0.0
 11
-1437.40797698093
 21
3386.761726353858
 31
0.0
  0
LINE
  5
1FBD5
330
2
100
AcDbEntity
  8
VLB
100
AcDbLine
 10
-1383.40797698093
 20
3352.090539512938
 30
0.0
 11
-1436.40797698093
 21
3352.090539512938
 31
0.0
  0
LINE
  5
1FBD6
330
2
100
AcDbEntity
  8
VLB
100
AcDbLine
 10
-1383.40797698093
 20
3352.090539512938
 30
0.0
 11
-1383.40797698093
 21
3350.590539512934
 31
0.0
  0
LINE
  5
1FBD7
330
2
100
AcDbEntity
  8
VLB
100
AcDbLine
 10
-1436.40797698093
 20
3403.590539512938
 30
0.0
 11
-1436.40797698093
 21
3352.090539512938
 31
0.0
  0
CIRCLE
  5
1FBD8
330
2
100
AcDbEntity
  8
VLB
100
AcDbCircle
 10
-1428.650042199211
 20
3363.014798762037
 30
0.0
 40
5.000000000001818
  0
CIRCLE
  5
1FBD9
330
2
100
AcDbEntity
  8
VLB
100
AcDbCircle
 10
-1428.650042199211
 20
3363.014798762037
 30
0.0
 40
2.550000000006548
  0
CIRCLE
  5
1FBDA
330
2
100
AcDbEntity
  8
VLB
100
AcDbCircle
 10
-1391.098532401059
 20
3363.014798762037
 30
0.0
 40
2.550000000006548
  0
CIRCLE
  5
1FBDB
330
2
100
AcDbEntity
  8
VLB
100
AcDbCircle
 10
-1391.098532401059
 20
3363.014798762037
 30
0.0
 40
5.000000000001818
  0
LINE
  5
1FBDC
330
2
100
AcDbEntity
  8
SPS
100
AcDbLine
 10
-1428.650042199211
 20
3355.606555908077
 30
0.0
 11
-1428.650042199211
 21
3371.499407985919
 31
0.0
  0
LINE
  5
1FBDD
330
2
100
AcDbEntity
  8
SPS
100
AcDbLine
 10
-1391.098532401059
 20
3355.606555908077
 30
0.0
 11
-1391.098532401059
 21
3371.499407985919
 31
0.0
  0
LINE
  5
1FBDE
330
2
100
AcDbEntity
  8
VLB
100
AcDbLine
 10
-1384.407976980924
 20
3352.090539512938
 30
0.0
 11
-1384.407976980916
 21
1901.590539512937
 31
0.0
  0
LINE
  5
1FBDF
330
2
100
AcDbEntity
  8
VLB
100
AcDbLine
 10
-1437.407976980932
 20
1848.590539512938
 30
0.0
 11
-1385.907976980932
 21
1848.590539512938
 31
0.0
  0
LINE
  5
1FBE0
330
2
100
AcDbEntity
  8
VLB
100
AcDbLine
 10
-1430.579163821849
 20
1847.590539512938
 30
0.0
 11
-1420.579163821852
 21
1847.590539512938
 31
0.0
  0
ARC
  5
1FBE1
330
2
100
AcDbEntity
  8
VLB
100
AcDbCircle
 10
-1425.579163821849
 20
1858.590539512937
 30
0.0
 40
12.99999999999925
100
AcDbArc
 50
254.0576313944422
 51
285.9423686055577
  0
LINE
  5
1FBE2
330
2
100
AcDbEntity
  8
SPS
100
AcDbLine
 10
-1389.423993376071
 20
1893.899984092808
 30
0.0
 11
-1405.316845453913
 21
1893.899984092808
 31
0.0
  0
LINE
  5
1FBE3
330
2
100
AcDbEntity
  8
SPS
100
AcDbLine
 10
-1389.423993376071
 20
1856.348474294657
 30
0.0
 11
-1405.316845453913
 21
1856.348474294657
 31
0.0
  0
CIRCLE
  5
1FBE4
330
2
100
AcDbEntity
  8
VLB
100
AcDbCircle
 10
-1396.83223623003
 20
1893.899984092808
 30
0.0
 40
5.000000000001818
  0
CIRCLE
  5
1FBE5
330
2
100
AcDbEntity
  8
VLB
100
AcDbCircle
 10
-1396.83223623003
 20
1893.899984092808
 30
0.0
 40
2.550000000006548
  0
CIRCLE
  5
1FBE6
330
2
100
AcDbEntity
  8
VLB
100
AcDbCircle
 10
-1396.83223623003
 20
1856.348474294656
 30
0.0
 40
2.550000000006548
  0
CIRCLE
  5
1FBE7
330
2
100
AcDbEntity
  8
VLB
100
AcDbCircle
 10
-1396.83223623003
 20
1856.348474294656
 30
0.0
 40
5.000000000001818
  0
LINE
  5
1FBE8
330
2
100
AcDbEntity
  8
VLB
100
AcDbLine
 10
-1385.907976980932
 20
1901.590539512937
 30
0.0
 11
-1384.407976980928
 21
1901.590539512937
 31
0.0
  0
LINE
  5
1FBE9
330
2
100
AcDbEntity
  8
VLB
100
AcDbLine
 10
-1385.907976980932
 20
1901.590539512937
 30
0.0
 11
-1385.907976980932
 21
1848.590539512938
 31
0.0
  0
ARC
  5
1FBEA
330
2
100
AcDbEntity
  8
VLB
100
AcDbCircle
 10
-1425.579163821822
 20
1858.590539512821
 30
0.0
 40
12.9999999998802
100
AcDbArc
 50
285.9423686055577
 51
292.6198649481445
  0
LINE
  5
1FBEB
330
2
100
AcDbEntity
  8
VLB
100
AcDbLine
 10
-1420.57916382185
 20
1846.590539512939
 30
0.0
 11
-1420.579163821852
 21
1847.590539512938
 31
0.0
  0
LINE
  5
1FBEC
330
2
100
AcDbEntity
  8
SPS
100
AcDbLine
 10
-1396.832236230031
 20
1887.588627535733
 30
0.0
 11
-1396.832236230031
 21
1900.929313680375
 31
0.0
  0
LINE
  5
1FBED
330
2
100
AcDbEntity
  8
SPS
100
AcDbLine
 10
-1396.832236230031
 20
1850.037117737582
 30
0.0
 11
-1396.832236230031
 21
1863.377803882224
 31
0.0
  0
LINE
  5
1FBEE
330
2
100
AcDbEntity
  8
SPS
100
AcDbLine
 10
-1425.57916382185
 20
1856.385244022664
 30
0.0
 11
-1425.57916382185
 21
1843.346053416653
 31
0.0
  0
ARC
  5
1FBEF
330
2
100
AcDbEntity
  8
VLB
100
AcDbCircle
 10
-1425.579163821797
 20
1858.590539513059
 30
0.0
 40
13.00000000013173
100
AcDbArc
 50
247.3801350519214
 51
254.0576313944422
  0
LINE
  5
1FBF0
330
2
100
AcDbEntity
  8
VLB
100
AcDbLine
 10
-1430.57916382185
 20
1846.590539512939
 30
0.0
 11
-1430.579163821849
 21
1847.590539512938
 31
0.0
  0
LINE
  5
1FBF1
330
2
100
AcDbEntity
  8
VLB
100
AcDbLine
 10
-1435.907976980932
 20
1847.590539512938
 30
0.0
 11
-1435.907976980932
 21
1848.590539512938
 31
0.0
  0
LINE
  5
1FBF2
330
2
100
AcDbEntity
  8
SPS
100
AcDbLine
 10
-1428.613272471206
 20
1856.348474294657
 30
0.0
 11
-1441.652463077216
 21
1856.348474294657
 31
0.0
  0
LINE
  5
1FBF3
330
2
100
AcDbEntity
  8
VLB
100
AcDbLine
 10
-1438.40797698093
 20
1851.348474294657
 30
0.0
 11
-1437.407976980932
 21
1851.348474294661
 31
0.0
  0
LINE
  5
1FBF4
330
2
100
AcDbEntity
  8
VLB
100
AcDbLine
 10
-1438.40797698093
 20
1861.348474294657
 30
0.0
 11
-1437.407976980932
 21
1861.348474294657
 31
0.0
  0
ARC
  5
1FBF5
330
2
100
AcDbEntity
  8
VLB
100
AcDbCircle
 10
-1426.407976980931
 20
1856.348474294656
 30
0.0
 40
12.99999999999925
100
AcDbArc
 50
157.380135051969
 51
202.6198649480308
  0
LINE
  5
1FBF8
330
2
100
AcDbEntity
  8
VLB
100
AcDbLine
 10
-1385.907976980932
 20
1900.590539512943
 30
0.0
 11
-740.9079769809323
 21
1900.590539512947
 31
0.0
  0
LINE
  5
1FBF9
330
2
100
AcDbEntity
  8
VLB
100
AcDbLine
 10
117.5920230190686
 20
1847.590539512936
 30
0.0
 11
117.5920230190686
 21
1899.090539512936
 31
0.0
  0
LINE
  5
1FBFA
330
2
100
AcDbEntity
  8
VLB
100
AcDbLine
 10
118.5920230190686
 20
1854.419352672019
 30
0.0
 11
118.5920230190686
 21
1864.419352672015
 31
0.0
  0
ARC
  5
1FBFB
330
2
100
AcDbEntity
  8
VLB
100
AcDbCircle
 10
107.5920230190686
 20
1859.419352672017
 30
0.0
 40
12.99999999999925
100
AcDbArc
 50
344.0576313944422
 51
15.94236860555772
  0
LINE
  5
1FBFC
330
2
100
AcDbEntity
  8
SPS
100
AcDbLine
 10
72.282578439198
 20
1895.574523117797
 30
0.0
 11
72.282578439198
 21
1879.681671039955
 31
0.0
  0
LINE
  5
1FBFD
330
2
100
AcDbEntity
  8
SPS
100
AcDbLine
 10
109.8340882373495
 20
1895.574523117797
 30
0.0
 11
109.8340882373495
 21
1879.681671039955
 31
0.0
  0
CIRCLE
  5
1FBFE
330
2
100
AcDbEntity
  8
VLB
100
AcDbCircle
 10
72.282578439198
 20
1888.166280263837
 30
0.0
 40
5.000000000001818
  0
CIRCLE
  5
1FBFF
330
2
100
AcDbEntity
  8
VLB
100
AcDbCircle
 10
72.282578439198
 20
1888.166280263837
 30
0.0
 40
2.550000000006548
  0
CIRCLE
  5
1FC00
330
2
100
AcDbEntity
  8
VLB
100
AcDbCircle
 10
109.8340882373495
 20
1888.166280263837
 30
0.0
 40
2.550000000006548
  0
CIRCLE
  5
1FC01
330
2
100
AcDbEntity
  8
VLB
100
AcDbCircle
 10
109.8340882373495
 20
1888.166280263837
 30
0.0
 40
5.000000000001818
  0
LINE
  5
1FC02
330
2
100
AcDbEntity
  8
VLB
100
AcDbLine
 10
64.59202301906862
 20
1899.090539512936
 30
0.0
 11
64.59202301906862
 21
1900.59053951294
 31
0.0
  0
LINE
  5
1FC03
330
2
100
AcDbEntity
  8
VLB
100
AcDbLine
 10
64.59202301906862
 20
1899.090539512936
 30
0.0
 11
117.5920230190686
 21
1899.090539512936
 31
0.0
  0
ARC
  5
1FC04
330
2
100
AcDbEntity
  8
VLB
100
AcDbCircle
 10
107.592023019185
 20
1859.419352672045
 30
0.0
 40
12.9999999998802
100
AcDbArc
 50
15.94236860555772
 51
22.61986494814461
  0
LINE
  5
1FC05
330
2
100
AcDbEntity
  8
VLB
100
AcDbLine
 10
119.5920230190667
 20
1864.419352672017
 30
0.0
 11
118.5920230190686
 21
1864.419352672015
 31
0.0
  0
LINE
  5
1FC06
330
2
100
AcDbEntity
  8
SPS
100
AcDbLine
 10
78.59393499627277
 20
1888.166280263837
 30
0.0
 11
65.25324885163081
 21
1888.166280263837
 31
0.0
  0
LINE
  5
1FC07
330
2
100
AcDbEntity
  8
SPS
100
AcDbLine
 10
116.1454447944243
 20
1888.166280263837
 30
0.0
 11
102.8047586497823
 21
1888.166280263837
 31
0.0
  0
LINE
  5
1FC08
330
2
100
AcDbEntity
  8
SPS
100
AcDbLine
 10
109.7973185093424
 20
1859.419352672017
 30
0.0
 11
122.8365091153527
 21
1859.419352672017
 31
0.0
  0
ARC
  5
1FC09
330
2
100
AcDbEntity
  8
VLB
100
AcDbCircle
 10
107.5920230189467
 20
1859.41935267207
 30
0.0
 40
13.00000000013173
100
AcDbArc
 50
337.3801350519214
 51
344.0576313944422
  0
LINE
  5
1FC0A
330
2
100
AcDbEntity
  8
VLB
100
AcDbLine
 10
119.5920230190667
 20
1854.419352672017
 30
0.0
 11
118.5920230190686
 21
1854.419352672019
 31
0.0
  0
LINE
  5
1FC0B
330
2
100
AcDbEntity
  8
VLB
100
AcDbLine
 10
118.5920230190686
 20
1849.090539512936
 30
0.0
 11
117.5920230190686
 21
1849.090539512936
 31
0.0
  0
LINE
  5
1FC0C
330
2
100
AcDbEntity
  8
SPS
100
AcDbLine
 10
109.8340882373495
 20
1856.385244022662
 30
0.0
 11
109.8340882373495
 21
1843.346053416652
 31
0.0
  0
LINE
  5
1FC0D
330
2
100
AcDbEntity
  8
VLB
100
AcDbLine
 10
114.8340882373495
 20
1846.590539512938
 30
0.0
 11
114.8340882373458
 21
1847.590539512936
 31
0.0
  0
LINE
  5
1FC0E
330
2
100
AcDbEntity
  8
VLB
100
AcDbLine
 10
104.8340882373495
 20
1846.590539512938
 30
0.0
 11
104.8340882373495
 21
1847.590539512936
 31
0.0
  0
ARC
  5
1FC0F
330
2
100
AcDbEntity
  8
VLB
100
AcDbCircle
 10
109.8340882373495
 20
1858.590539512936
 30
0.0
 40
12.99999999999925
100
AcDbArc
 50
247.380135051969
 51
292.6198649480308
  0
LINE
  5
1FC12
330
2
100
AcDbEntity
  8
VLB
100
AcDbLine
 10
65.59202301906316
 20
1899.090539512936
 30
0.0
 11
65.59202301905497
 21
3349.590539512937
 31
0.0
  0
LINE
  5
1FC13
330
2
100
AcDbEntity
  8
VLB
100
AcDbLine
 10
118.5920230190713
 20
3402.590539512936
 30
0.0
 11
67.09202301907135
 21
3402.590539512936
 31
0.0
  0
LINE
  5
1FC14
330
2
100
AcDbEntity
  8
VLB
100
AcDbLine
 10
111.7632098599879
 20
3403.590539512936
 30
0.0
 11
101.7632098599915
 21
3403.590539512936
 31
0.0
  0
ARC
  5
1FC15
330
2
100
AcDbEntity
  8
VLB
100
AcDbCircle
 10
106.7632098599897
 20
3392.590539512936
 30
0.0
 40
12.99999999999925
100
AcDbArc
 50
74.05763139444217
 51
105.9423686055577
  0
LINE
  5
1FC16
330
2
100
AcDbEntity
  8
SPS
100
AcDbLine
 10
70.60803941420999
 20
3357.281094933066
 30
0.0
 11
86.50089149205269
 21
3357.281094933066
 31
0.0
  0
LINE
  5
1FC17
330
2
100
AcDbEntity
  8
SPS
100
AcDbLine
 10
70.60803941420999
 20
3394.832604731218
 30
0.0
 11
86.50089149205269
 21
3394.832604731218
 31
0.0
  0
CIRCLE
  5
1FC18
330
2
100
AcDbEntity
  8
VLB
100
AcDbCircle
 10
78.01628226817047
 20
3357.281094933066
 30
0.0
 40
5.000000000001818
  0
CIRCLE
  5
1FC19
330
2
100
AcDbEntity
  8
VLB
100
AcDbCircle
 10
78.01628226817047
 20
3357.281094933066
 30
0.0
 40
2.550000000006548
  0
CIRCLE
  5
1FC1A
330
2
100
AcDbEntity
  8
VLB
100
AcDbCircle
 10
78.01628226817047
 20
3394.832604731217
 30
0.0
 40
2.550000000006548
  0
CIRCLE
  5
1FC1B
330
2
100
AcDbEntity
  8
VLB
100
AcDbCircle
 10
78.01628226817047
 20
3394.832604731217
 30
0.0
 40
5.000000000001818
  0
LINE
  5
1FC1C
330
2
100
AcDbEntity
  8
VLB
100
AcDbLine
 10
67.09202301907135
 20
3349.590539512937
 30
0.0
 11
65.59202301906771
 21
3349.590539512937
 31
0.0
  0
LINE
  5
1FC1D
330
2
100
AcDbEntity
  8
VLB
100
AcDbLine
 10
67.09202301907135
 20
3349.590539512937
 30
0.0
 11
67.09202301907135
 21
3402.590539512936
 31
0.0
  0
ARC
  5
1FC1E
330
2
100
AcDbEntity
  8
VLB
100
AcDbCircle
 10
106.7632098599624
 20
3392.590539513053
 30
0.0
 40
12.9999999998802
100
AcDbArc
 50
105.9423686055577
 51
112.6198649481445
  0
LINE
  5
1FC1F
330
2
100
AcDbEntity
  8
VLB
100
AcDbLine
 10
101.7632098599897
 20
3404.590539512934
 30
0.0
 11
101.7632098599915
 21
3403.590539512936
 31
0.0
  0
LINE
  5
1FC20
330
2
100
AcDbEntity
  8
SPS
100
AcDbLine
 10
78.01628226817047
 20
3363.592451490141
 30
0.0
 11
78.01628226817047
 21
3350.251765345499
 31
0.0
  0
LINE
  5
1FC21
330
2
100
AcDbEntity
  8
SPS
100
AcDbLine
 10
78.01628226817047
 20
3401.143961288292
 30
0.0
 11
78.01628226817047
 21
3387.80327514365
 31
0.0
  0
LINE
  5
1FC22
330
2
100
AcDbEntity
  8
SPS
100
AcDbLine
 10
106.7632098599897
 20
3394.79583500321
 30
0.0
 11
106.7632098599897
 21
3407.83502560922
 31
0.0
  0
ARC
  5
1FC23
330
2
100
AcDbEntity
  8
VLB
100
AcDbCircle
 10
106.7632098599369
 20
3392.590539512814
 30
0.0
 40
13.00000000013173
100
AcDbArc
 50
67.38013505192142
 51
74.05763139444217
  0
LINE
  5
1FC24
330
2
100
AcDbEntity
  8
VLB
100
AcDbLine
 10
111.7632098599897
 20
3404.590539512934
 30
0.0
 11
111.7632098599879
 21
3403.590539512936
 31
0.0
  0
LINE
  5
1FC25
330
2
100
AcDbEntity
  8
VLB
100
AcDbLine
 10
117.0920230190713
 20
3403.590539512936
 30
0.0
 11
117.0920230190713
 21
3402.590539512936
 31
0.0
  0
LINE
  5
1FC26
330
2
100
AcDbEntity
  8
SPS
100
AcDbLine
 10
109.7973185093451
 20
3394.832604731218
 30
0.0
 11
122.8365091153555
 21
3394.832604731218
 31
0.0
  0
LINE
  5
1FC27
330
2
100
AcDbEntity
  8
VLB
100
AcDbLine
 10
119.5920230190695
 20
3399.832604731217
 30
0.0
 11
118.5920230190713
 21
3399.832604731214
 31
0.0
  0
LINE
  5
1FC28
330
2
100
AcDbEntity
  8
VLB
100
AcDbLine
 10
119.5920230190695
 20
3389.832604731217
 30
0.0
 11
118.5920230190713
 21
3389.832604731217
 31
0.0
  0
ARC
  5
1FC29
330
2
100
AcDbEntity
  8
VLB
100
AcDbCircle
 10
107.5920230190713
 20
3394.832604731217
 30
0.0
 40
12.99999999999925
100
AcDbArc
 50
337.380135051969
 51
22.61986494803084
  0
LINE
  5
1FC2C
330
2
100
AcDbEntity
  8
VLB
100
AcDbLine
 10
67.09202301907135
 20
3350.590539512931
 30
0.0
 11
-577.9079769809323
 21
3350.590539512927
 31
0.0
  0
ARC
  5
1FC2D
330
2
100
AcDbEntity
  8
VLB
100
AcDbCircle
 10
-1410.90797698093
 20
2625.590539512937
 30
0.0
 40
12.49999999999818
100
AcDbArc
 50
203.5781784781862
 51
336.4218215218136
  0
LINE
  5
1FC2E
330
2
100
AcDbEntity
  8
VLB
100
AcDbLine
 10
-1428.407976980932
 20
2630.590539512937
 30
0.0
 11
-1393.407976980932
 21
2630.590539512937
 31
0.0
  0
LINE
  5
1FC2F
330
2
100
AcDbEntity
  8
VLB
100
AcDbLine
 10
-1428.407976980932
 20
2620.590539512937
 30
0.0
 11
-1393.407976980932
 21
2620.590539512937
 31
0.0
  0
ARC
  5
1FC30
330
2
100
AcDbEntity
  8
VLB
100
AcDbCircle
 10
-1410.90797698093
 20
2625.590539512937
 30
0.0
 40
12.49999999999818
100
AcDbArc
 50
23.57817847818628
 51
156.4218215218137
  0
LINE
  5
1FC31
330
2
100
AcDbEntity
  8
SPS
100
AcDbLine
 10
-1436.407976980932
 20
2625.590539512937
 30
0.0
 11
-1385.407976980932
 21
2625.590539512937
 31
0.0
  0
LINE
  5
1FC32
330
2
100
AcDbEntity
  8
SPS
100
AcDbLine
 10
-1410.90797698093
 20
2641.090539512935
 30
0.0
 11
-1410.90797698093
 21
2610.090539512938
 31
0.0
  0
LINE
  5
1FC33
330
2
100
AcDbEntity
  8
SPS
100
AcDbLine
 10
-1428.407976980932
 20
2633.590539512937
 30
0.0
 11
-1428.407976980932
 21
2617.590539512937
 31
0.0
  0
ARC
  5
1FC34
330
2
100
AcDbEntity
  8
VLB
100
AcDbCircle
 10
-1428.407976980932
 20
2625.590539512937
 30
0.0
 40
5.0
100
AcDbArc
 50
90.0
 51
270.0
  0
LINE
  5
1FC35
330
2
100
AcDbEntity
  8
SPS
100
AcDbLine
 10
-1393.407976980932
 20
2633.590539512937
 30
0.0
 11
-1393.407976980932
 21
2617.590539512937
 31
0.0
  0
ARC
  5
1FC36
330
2
100
AcDbEntity
  8
VLB
100
AcDbCircle
 10
-1393.407976980932
 20
2625.590539512937
 30
0.0
 40
5.0
100
AcDbArc
 50
270.0
 51
90.0
  0
ARC
  5
1FC37
330
2
100
AcDbEntity
  8
VLB
100
AcDbCircle
 10
74.59202301906771
 20
2625.590539512937
 30
0.0
 40
5.0
100
AcDbArc
 50
90.0
 51
270.0
  0
LINE
  5
1FC38
330
2
100
AcDbEntity
  8
SPS
100
AcDbLine
 10
74.59202301906771
 20
2633.590539512937
 30
0.0
 11
74.59202301906771
 21
2617.590539512937
 31
0.0
  0
ARC
  5
1FC39
330
2
100
AcDbEntity
  8
VLB
100
AcDbCircle
 10
109.5920230190677
 20
2625.590539512937
 30
0.0
 40
5.0
100
AcDbArc
 50
270.0
 51
90.0
  0
LINE
  5
1FC3A
330
2
100
AcDbEntity
  8
SPS
100
AcDbLine
 10
109.5920230190677
 20
2633.590539512937
 30
0.0
 11
109.5920230190677
 21
2617.590539512937
 31
0.0
  0
LINE
  5
1FC3B
330
2
100
AcDbEntity
  8
SPS
100
AcDbLine
 10
92.09202301906589
 20
2641.090539512935
 30
0.0
 11
92.09202301906589
 21
2610.090539512938
 31
0.0
  0
LINE
  5
1FC3C
330
2
100
AcDbEntity
  8
SPS
100
AcDbLine
 10
117.5920230190677
 20
2625.590539512937
 30
0.0
 11
66.59202301906771
 21
2625.590539512937
 31
0.0
  0
ARC
  5
1FC3D
330
2
100
AcDbEntity
  8
VLB
100
AcDbCircle
 10
92.09202301906589
 20
2625.590539512937
 30
0.0
 40
12.49999999999818
100
AcDbArc
 50
23.57817847818628
 51
156.4218215218137
  0
LINE
  5
1FC3E
330
2
100
AcDbEntity
  8
VLB
100
AcDbLine
 10
109.5920230190677
 20
2620.590539512937
 30
0.0
 11
74.59202301906771
 21
2620.590539512937
 31
0.0
  0
LINE
  5
1FC3F
330
2
100
AcDbEntity
  8
VLB
100
AcDbLine
 10
109.5920230190677
 20
2630.590539512937
 30
0.0
 11
74.59202301906771
 21
2630.590539512937
 31
0.0
  0
ARC
  5
1FC40
330
2
100
AcDbEntity
  8
VLB
100
AcDbCircle
 10
92.09202301906589
 20
2625.590539512937
 30
0.0
 40
12.49999999999818
100
AcDbArc
 50
203.5781784781863
 51
336.4218215218137
  0
LINE
  5
1FC42
330
2
100
AcDbEntity
  8
SPS
100
AcDbLine
 10
-1364.407976980925
 20
2754.96350745968
 30
0.0
 11
-1364.407976980925
 21
2720.070956241281
 31
0.0
  0
LINE
  5
1FC43
330
2
100
AcDbEntity
  8
SPS
100
AcDbLine
 10
-1347.469112112012
 20
2738.590539512923
 30
0.0
 11
-1375.851180559242
 21
2738.590539512923
 31
0.0
  0
LINE
  5
1FC44
330
2
100
AcDbEntity
  8
SPS
100
AcDbLine
 10
-1319.907976980925
 20
2662.96350745968
 30
0.0
 11
-1319.907976980925
 21
2628.070956241281
 31
0.0
  0
LINE
  5
1FC45
330
2
100
AcDbEntity
  8
SPS
100
AcDbLine
 10
-1313.469112112012
 20
2646.590539512923
 30
0.0
 11
-1336.351180559242
 21
2646.590539512923
 31
0.0
  0
LINE
  5
1FC46
330
2
100
AcDbEntity
  8
VLB
100
AcDbLine
 10
-1250.907976980932
 20
3216.090539512939
 30
0.0
 11
-1250.907976980932
 21
2035.090539512935
 31
0.0
  0
LINE
  5
1FC47
330
2
100
AcDbEntity
  8
VLB
100
AcDbLine
 10
-1249.907976980932
 20
2034.090539512936
 30
0.0
 11
-738.9079769809322
 21
2034.090539512936
 31
0.0
  0
LINE
  5
1FC48
330
2
100
AcDbEntity
  8
VLB
100
AcDbLine
 10
-67.90797698092865
 20
2035.090539512935
 30
0.0
 11
-67.90797698092865
 21
3216.090539512938
 31
0.0
  0
LINE
  5
1FC49
330
2
100
AcDbEntity
  8
VLB
100
AcDbLine
 10
-68.90797698092865
 20
3217.090539512937
 30
0.0
 11
-579.9079769809295
 21
3217.090539512938
 31
0.0
  0
CIRCLE
  5
1FC4A
330
2
100
AcDbEntity
  8
VLB
100
AcDbCircle
 10
-1364.407976980923
 20
2738.590539512923
 30
0.0
 40
6.5
  0
LINE
  5
1FC4B
330
2
100
AcDbEntity
  8
VLB
100
AcDbLine
 10
-1357.907976980923
 20
2734.837770012923
 30
0.0
 11
-1357.907976980923
 21
2742.343309012923
 31
0.0
  0
LINE
  5
1FC4C
330
2
100
AcDbEntity
  8
VLB
100
AcDbLine
 10
-1370.907976980923
 20
2742.343309012923
 30
0.0
 11
-1370.907976980923
 21
2734.837770012923
 31
0.0
  0
LINE
  5
1FC4D
330
2
100
AcDbEntity
  8
SPS
100
AcDbLine
 10
-1364.407976980923
 20
2738.590539512923
 30
0.0
 11
-1364.407976980923
 21
2747.090539512923
 31
0.0
  0
LINE
  5
1FC4E
330
2
100
AcDbEntity
  8
SPS
100
AcDbLine
 10
-1364.407976980923
 20
2738.590539512923
 30
0.0
 11
-1355.907976980923
 21
2738.590539512923
 31
0.0
  0
LINE
  5
1FC4F
330
2
100
AcDbEntity
  8
VLB
100
AcDbLine
 10
-1364.407976980923
 20
2731.085000612923
 30
0.0
 11
-1357.907976980923
 21
2734.837770012923
 31
0.0
  0
LINE
  5
1FC50
330
2
100
AcDbEntity
  8
SPS
100
AcDbLine
 10
-1364.407976980923
 20
2738.590539512923
 30
0.0
 11
-1364.407976980923
 21
2730.090539512923
 31
0.0
  0
LINE
  5
1FC51
330
2
100
AcDbEntity
  8
VLB
100
AcDbLine
 10
-1370.907976980923
 20
2734.837770012923
 30
0.0
 11
-1364.407976980923
 21
2731.085000612923
 31
0.0
  0
LINE
  5
1FC52
330
2
100
AcDbEntity
  8
SPS
100
AcDbLine
 10
-1364.407976980923
 20
2738.590539512923
 30
0.0
 11
-1372.907976980923
 21
2738.590539512923
 31
0.0
  0
LINE
  5
1FC53
330
2
100
AcDbEntity
  8
VLB
100
AcDbLine
 10
-1364.407976980923
 20
2746.096078412923
 30
0.0
 11
-1370.907976980923
 21
2742.343309012923
 31
0.0
  0
LINE
  5
1FC54
330
2
100
AcDbEntity
  8
VLB
100
AcDbLine
 10
-1357.907976980923
 20
2742.343309012923
 30
0.0
 11
-1364.407976980923
 21
2746.096078412923
 31
0.0
  0
LINE
  5
1FC55
330
2
100
AcDbEntity
  8
SPS
100
AcDbLine
 10
-1364.407976980923
 20
2754.963507459684
 30
0.0
 11
-1364.407976980923
 21
2720.070956241285
 31
0.0
  0
LINE
  5
1FC56
330
2
100
AcDbEntity
  8
SPS
100
AcDbLine
 10
-1386.346841849836
 20
2738.590539512923
 30
0.0
 11
-1347.964773402605
 21
2738.590539512923
 31
0.0
  0
CIRCLE
  5
1FC57
330
2
100
AcDbEntity
  8
VLB
100
AcDbCircle
 10
-1319.907976980923
 20
2646.590539512923
 30
0.0
 40
6.5
  0
LINE
  5
1FC58
330
2
100
AcDbEntity
  8
VLB
100
AcDbLine
 10
-1313.407976980923
 20
2642.837770012923
 30
0.0
 11
-1313.407976980923
 21
2650.343309012923
 31
0.0
  0
LINE
  5
1FC59
330
2
100
AcDbEntity
  8
VLB
100
AcDbLine
 10
-1326.407976980923
 20
2650.343309012923
 30
0.0
 11
-1326.407976980923
 21
2642.837770012923
 31
0.0
  0
LINE
  5
1FC5A
330
2
100
AcDbEntity
  8
SPS
100
AcDbLine
 10
-1319.907976980923
 20
2646.590539512923
 30
0.0
 11
-1319.907976980923
 21
2655.090539512923
 31
0.0
  0
LINE
  5
1FC5B
330
2
100
AcDbEntity
  8
SPS
100
AcDbLine
 10
-1319.907976980923
 20
2646.590539512923
 30
0.0
 11
-1311.407976980923
 21
2646.590539512923
 31
0.0
  0
LINE
  5
1FC5C
330
2
100
AcDbEntity
  8
VLB
100
AcDbLine
 10
-1319.907976980923
 20
2639.085000612923
 30
0.0
 11
-1313.407976980923
 21
2642.837770012923
 31
0.0
  0
LINE
  5
1FC5D
330
2
100
AcDbEntity
  8
SPS
100
AcDbLine
 10
-1319.907976980923
 20
2646.590539512923
 30
0.0
 11
-1319.907976980923
 21
2638.090539512923
 31
0.0
  0
LINE
  5
1FC5E
330
2
100
AcDbEntity
  8
VLB
100
AcDbLine
 10
-1326.407976980923
 20
2642.837770012923
 30
0.0
 11
-1319.907976980923
 21
2639.085000612923
 31
0.0
  0
LINE
  5
1FC5F
330
2
100
AcDbEntity
  8
SPS
100
AcDbLine
 10
-1319.907976980923
 20
2646.590539512923
 30
0.0
 11
-1328.407976980923
 21
2646.590539512923
 31
0.0
  0
LINE
  5
1FC60
330
2
100
AcDbEntity
  8
VLB
100
AcDbLine
 10
-1319.907976980923
 20
2654.096078412923
 30
0.0
 11
-1326.407976980923
 21
2650.343309012923
 31
0.0
  0
LINE
  5
1FC61
330
2
100
AcDbEntity
  8
VLB
100
AcDbLine
 10
-1313.407976980923
 20
2650.343309012923
 30
0.0
 11
-1319.907976980923
 21
2654.096078412923
 31
0.0
  0
LINE
  5
1FC62
330
2
100
AcDbEntity
  8
SPS
100
AcDbLine
 10
-1319.907976980923
 20
2662.963507459684
 30
0.0
 11
-1319.907976980923
 21
2628.070956241284
 31
0.0
  0
LINE
  5
1FC63
330
2
100
AcDbEntity
  8
SPS
100
AcDbLine
 10
-1341.846841849836
 20
2646.590539512923
 30
0.0
 11
-1303.464773402605
 21
2646.590539512923
 31
0.0
  0
LINE
  5
1FC64
330
2
100
AcDbEntity
  8
SPS
100
AcDbLine
 10
67.5308878879714
 20
2738.590539512923
 30
0.0
 11
29.14881944074113
 21
2738.590539512923
 31
0.0
  0
LINE
  5
1FC65
330
2
100
AcDbEntity
  8
SPS
100
AcDbLine
 10
45.59202301905862
 20
2754.963507459684
 30
0.0
 11
45.59202301905862
 21
2720.070956241285
 31
0.0
  0
LINE
  5
1FC66
330
2
100
AcDbEntity
  8
VLB
100
AcDbLine
 10
39.09202301905861
 20
2742.343309012923
 30
0.0
 11
45.59202301905862
 21
2746.096078412923
 31
0.0
  0
LINE
  5
1FC67
330
2
100
AcDbEntity
  8
VLB
100
AcDbLine
 10
45.59202301905862
 20
2746.096078412923
 30
0.0
 11
52.09202301905861
 21
2742.343309012923
 31
0.0
  0
LINE
  5
1FC68
330
2
100
AcDbEntity
  8
SPS
100
AcDbLine
 10
45.59202301905862
 20
2738.590539512923
 30
0.0
 11
54.09202301905861
 21
2738.590539512923
 31
0.0
  0
LINE
  5
1FC69
330
2
100
AcDbEntity
  8
VLB
100
AcDbLine
 10
52.09202301905861
 20
2734.837770012923
 30
0.0
 11
45.59202301905862
 21
2731.085000612923
 31
0.0
  0
LINE
  5
1FC6A
330
2
100
AcDbEntity
  8
SPS
100
AcDbLine
 10
45.59202301905862
 20
2738.590539512923
 30
0.0
 11
45.59202301905862
 21
2730.090539512923
 31
0.0
  0
LINE
  5
1FC6B
330
2
100
AcDbEntity
  8
VLB
100
AcDbLine
 10
45.59202301905862
 20
2731.085000612923
 30
0.0
 11
39.09202301905861
 21
2734.837770012923
 31
0.0
  0
LINE
  5
1FC6C
330
2
100
AcDbEntity
  8
SPS
100
AcDbLine
 10
45.59202301905862
 20
2738.590539512923
 30
0.0
 11
37.09202301905861
 21
2738.590539512923
 31
0.0
  0
LINE
  5
1FC6D
330
2
100
AcDbEntity
  8
SPS
100
AcDbLine
 10
45.59202301905862
 20
2738.590539512923
 30
0.0
 11
45.59202301905862
 21
2747.090539512923
 31
0.0
  0
LINE
  5
1FC6E
330
2
100
AcDbEntity
  8
VLB
100
AcDbLine
 10
39.09202301905861
 20
2734.837770012923
 30
0.0
 11
39.09202301905861
 21
2742.343309012923
 31
0.0
  0
CIRCLE
  5
1FC6F
330
2
100
AcDbEntity
  8
VLB
100
AcDbCircle
 10
45.59202301905862
 20
2738.590539512923
 30
0.0
 40
6.5
  0
LINE
  5
1FC70
330
2
100
AcDbEntity
  8
SPS
100
AcDbLine
 10
28.65315815014764
 20
2738.590539512923
 30
0.0
 11
57.03522659737791
 21
2738.590539512923
 31
0.0
  0
LINE
  5
1FC71
330
2
100
AcDbEntity
  8
SPS
100
AcDbLine
 10
45.59202301906043
 20
2754.96350745968
 30
0.0
 11
45.59202301906043
 21
2720.070956241281
 31
0.0
  0
LINE
  5
1FC72
330
2
100
AcDbEntity
  8
SPS
100
AcDbLine
 10
23.0308878879714
 20
2646.590539512923
 30
0.0
 11
-15.35118055925886
 21
2646.590539512923
 31
0.0
  0
LINE
  5
1FC73
330
2
100
AcDbEntity
  8
SPS
100
AcDbLine
 10
1.092023019058615
 20
2662.963507459684
 30
0.0
 11
1.092023019058615
 21
2628.070956241284
 31
0.0
  0
LINE
  5
1FC74
330
2
100
AcDbEntity
  8
VLB
100
AcDbLine
 10
-5.407976980941384
 20
2650.343309012923
 30
0.0
 11
1.092023019058615
 21
2654.096078412923
 31
0.0
  0
LINE
  5
1FC75
330
2
100
AcDbEntity
  8
VLB
100
AcDbLine
 10
1.092023019058615
 20
2654.096078412923
 30
0.0
 11
7.592023019058615
 21
2650.343309012923
 31
0.0
  0
LINE
  5
1FC76
330
2
100
AcDbEntity
  8
SPS
100
AcDbLine
 10
1.092023019058615
 20
2646.590539512923
 30
0.0
 11
9.592023019058615
 21
2646.590539512923
 31
0.0
  0
LINE
  5
1FC77
330
2
100
AcDbEntity
  8
VLB
100
AcDbLine
 10
7.592023019058615
 20
2642.837770012923
 30
0.0
 11
1.092023019058615
 21
2639.085000612923
 31
0.0
  0
LINE
  5
1FC78
330
2
100
AcDbEntity
  8
SPS
100
AcDbLine
 10
1.092023019058615
 20
2646.590539512923
 30
0.0
 11
1.092023019058615
 21
2638.090539512923
 31
0.0
  0
LINE
  5
1FC79
330
2
100
AcDbEntity
  8
VLB
100
AcDbLine
 10
1.092023019058615
 20
2639.085000612923
 30
0.0
 11
-5.407976980941384
 21
2642.837770012923
 31
0.0
  0
LINE
  5
1FC7A
330
2
100
AcDbEntity
  8
SPS
100
AcDbLine
 10
1.092023019058615
 20
2646.590539512923
 30
0.0
 11
-7.407976980941384
 21
2646.590539512923
 31
0.0
  0
LINE
  5
1FC7B
330
2
100
AcDbEntity
  8
SPS
100
AcDbLine
 10
1.092023019058615
 20
2646.590539512923
 30
0.0
 11
1.092023019058615
 21
2655.090539512923
 31
0.0
  0
LINE
  5
1FC7C
330
2
100
AcDbEntity
  8
VLB
100
AcDbLine
 10
7.592023019058615
 20
2650.343309012923
 30
0.0
 11
7.592023019058615
 21
2642.837770012923
 31
0.0
  0
LINE
  5
1FC7D
330
2
100
AcDbEntity
  8
VLB
100
AcDbLine
 10
-5.407976980941384
 20
2642.837770012923
 30
0.0
 11
-5.407976980941384
 21
2650.343309012923
 31
0.0
  0
CIRCLE
  5
1FC7E
330
2
100
AcDbEntity
  8
VLB
100
AcDbCircle
 10
1.092023019058615
 20
2646.590539512923
 30
0.0
 40
6.5
  0
LINE
  5
1FC7F
330
2
100
AcDbEntity
  8
SPS
100
AcDbLine
 10
-5.346841849852353
 20
2646.590539512923
 30
0.0
 11
17.53522659737791
 21
2646.590539512923
 31
0.0
  0
LINE
  5
1FC80
330
2
100
AcDbEntity
  8
SPS
100
AcDbLine
 10
1.092023019060434
 20
2662.96350745968
 30
0.0
 11
1.092023019060434
 21
2628.070956241281
 31
0.0
  0
LINE
  5
1FC81
330
2
100
AcDbEntity
  8
SPS
100
AcDbLine
 10
-1341.846841849836
 20
2604.590539512952
 30
0.0
 11
-1303.464773402605
 21
2604.590539512952
 31
0.0
  0
LINE
  5
1FC82
330
2
100
AcDbEntity
  8
SPS
100
AcDbLine
 10
-1319.907976980923
 20
2588.21757156619
 30
0.0
 11
-1319.907976980923
 21
2623.11012278459
 31
0.0
  0
LINE
  5
1FC83
330
2
100
AcDbEntity
  8
VLB
100
AcDbLine
 10
-1313.407976980923
 20
2600.837770012952
 30
0.0
 11
-1319.907976980923
 21
2597.085000612952
 31
0.0
  0
LINE
  5
1FC84
330
2
100
AcDbEntity
  8
VLB
100
AcDbLine
 10
-1319.907976980923
 20
2597.085000612952
 30
0.0
 11
-1326.407976980923
 21
2600.837770012952
 31
0.0
  0
LINE
  5
1FC85
330
2
100
AcDbEntity
  8
SPS
100
AcDbLine
 10
-1319.907976980923
 20
2604.590539512952
 30
0.0
 11
-1328.407976980923
 21
2604.590539512952
 31
0.0
  0
LINE
  5
1FC86
330
2
100
AcDbEntity
  8
VLB
100
AcDbLine
 10
-1326.407976980923
 20
2608.343309012952
 30
0.0
 11
-1319.907976980923
 21
2612.096078412952
 31
0.0
  0
LINE
  5
1FC87
330
2
100
AcDbEntity
  8
SPS
100
AcDbLine
 10
-1319.907976980923
 20
2604.590539512952
 30
0.0
 11
-1319.907976980923
 21
2613.090539512952
 31
0.0
  0
LINE
  5
1FC88
330
2
100
AcDbEntity
  8
VLB
100
AcDbLine
 10
-1319.907976980923
 20
2612.096078412952
 30
0.0
 11
-1313.407976980923
 21
2608.343309012952
 31
0.0
  0
LINE
  5
1FC89
330
2
100
AcDbEntity
  8
SPS
100
AcDbLine
 10
-1319.907976980923
 20
2604.590539512952
 30
0.0
 11
-1311.407976980923
 21
2604.590539512952
 31
0.0
  0
LINE
  5
1FC8A
330
2
100
AcDbEntity
  8
SPS
100
AcDbLine
 10
-1319.907976980923
 20
2604.590539512952
 30
0.0
 11
-1319.907976980923
 21
2596.090539512952
 31
0.0
  0
LINE
  5
1FC8B
330
2
100
AcDbEntity
  8
VLB
100
AcDbLine
 10
-1326.407976980923
 20
2600.837770012952
 30
0.0
 11
-1326.407976980923
 21
2608.343309012952
 31
0.0
  0
LINE
  5
1FC8C
330
2
100
AcDbEntity
  8
VLB
100
AcDbLine
 10
-1313.407976980923
 20
2608.343309012952
 30
0.0
 11
-1313.407976980923
 21
2600.837770012952
 31
0.0
  0
CIRCLE
  5
1FC8D
330
2
100
AcDbEntity
  8
VLB
100
AcDbCircle
 10
-1319.907976980923
 20
2604.590539512952
 30
0.0
 40
6.5
  0
LINE
  5
1FC8E
330
2
100
AcDbEntity
  8
SPS
100
AcDbLine
 10
-1313.469112112012
 20
2604.590539512952
 30
0.0
 11
-1336.351180559242
 21
2604.590539512952
 31
0.0
  0
LINE
  5
1FC8F
330
2
100
AcDbEntity
  8
SPS
100
AcDbLine
 10
-1319.907976980925
 20
2588.217571566194
 30
0.0
 11
-1319.907976980925
 21
2623.110122784594
 31
0.0
  0
LINE
  5
1FC90
330
2
100
AcDbEntity
  8
SPS
100
AcDbLine
 10
-1386.346841849836
 20
2512.590539512952
 30
0.0
 11
-1347.964773402605
 21
2512.590539512952
 31
0.0
  0
LINE
  5
1FC91
330
2
100
AcDbEntity
  8
SPS
100
AcDbLine
 10
-1364.407976980923
 20
2496.21757156619
 30
0.0
 11
-1364.407976980923
 21
2531.11012278459
 31
0.0
  0
LINE
  5
1FC92
330
2
100
AcDbEntity
  8
VLB
100
AcDbLine
 10
-1357.907976980923
 20
2508.837770012952
 30
0.0
 11
-1364.407976980923
 21
2505.085000612952
 31
0.0
  0
LINE
  5
1FC93
330
2
100
AcDbEntity
  8
VLB
100
AcDbLine
 10
-1364.407976980923
 20
2505.085000612952
 30
0.0
 11
-1370.907976980923
 21
2508.837770012952
 31
0.0
  0
LINE
  5
1FC94
330
2
100
AcDbEntity
  8
SPS
100
AcDbLine
 10
-1364.407976980923
 20
2512.590539512952
 30
0.0
 11
-1372.907976980923
 21
2512.590539512952
 31
0.0
  0
LINE
  5
1FC95
330
2
100
AcDbEntity
  8
VLB
100
AcDbLine
 10
-1370.907976980923
 20
2516.343309012952
 30
0.0
 11
-1364.407976980923
 21
2520.096078412952
 31
0.0
  0
LINE
  5
1FC96
330
2
100
AcDbEntity
  8
SPS
100
AcDbLine
 10
-1364.407976980923
 20
2512.590539512952
 30
0.0
 11
-1364.407976980923
 21
2521.090539512952
 31
0.0
  0
LINE
  5
1FC97
330
2
100
AcDbEntity
  8
VLB
100
AcDbLine
 10
-1364.407976980923
 20
2520.096078412952
 30
0.0
 11
-1357.907976980923
 21
2516.343309012952
 31
0.0
  0
LINE
  5
1FC98
330
2
100
AcDbEntity
  8
SPS
100
AcDbLine
 10
-1364.407976980923
 20
2512.590539512952
 30
0.0
 11
-1355.907976980923
 21
2512.590539512952
 31
0.0
  0
LINE
  5
1FC99
330
2
100
AcDbEntity
  8
SPS
100
AcDbLine
 10
-1364.407976980923
 20
2512.590539512952
 30
0.0
 11
-1364.407976980923
 21
2504.090539512952
 31
0.0
  0
LINE
  5
1FC9A
330
2
100
AcDbEntity
  8
VLB
100
AcDbLine
 10
-1370.907976980923
 20
2508.837770012952
 30
0.0
 11
-1370.907976980923
 21
2516.343309012952
 31
0.0
  0
LINE
  5
1FC9B
330
2
100
AcDbEntity
  8
VLB
100
AcDbLine
 10
-1357.907976980923
 20
2516.343309012952
 30
0.0
 11
-1357.907976980923
 21
2508.837770012952
 31
0.0
  0
CIRCLE
  5
1FC9C
330
2
100
AcDbEntity
  8
VLB
100
AcDbCircle
 10
-1364.407976980923
 20
2512.590539512952
 30
0.0
 40
6.5
  0
LINE
  5
1FC9D
330
2
100
AcDbEntity
  8
SPS
100
AcDbLine
 10
-1347.469112112012
 20
2512.590539512952
 30
0.0
 11
-1375.851180559242
 21
2512.590539512952
 31
0.0
  0
LINE
  5
1FC9E
330
2
100
AcDbEntity
  8
SPS
100
AcDbLine
 10
-1364.407976980925
 20
2496.217571566194
 30
0.0
 11
-1364.407976980925
 21
2531.110122784594
 31
0.0
  0
LINE
  5
1FC9F
330
2
100
AcDbEntity
  8
SPS
100
AcDbLine
 10
1.092023019060434
 20
2588.217571566194
 30
0.0
 11
1.092023019060434
 21
2623.110122784594
 31
0.0
  0
LINE
  5
1FCA0
330
2
100
AcDbEntity
  8
SPS
100
AcDbLine
 10
-5.346841849852353
 20
2604.590539512952
 30
0.0
 11
17.53522659737791
 21
2604.590539512952
 31
0.0
  0
CIRCLE
  5
1FCA1
330
2
100
AcDbEntity
  8
VLB
100
AcDbCircle
 10
1.092023019058615
 20
2604.590539512952
 30
0.0
 40
6.5
  0
LINE
  5
1FCA2
330
2
100
AcDbEntity
  8
VLB
100
AcDbLine
 10
-5.407976980941384
 20
2608.343309012952
 30
0.0
 11
-5.407976980941384
 21
2600.837770012952
 31
0.0
  0
LINE
  5
1FCA3
330
2
100
AcDbEntity
  8
VLB
100
AcDbLine
 10
7.592023019058615
 20
2600.837770012952
 30
0.0
 11
7.592023019058615
 21
2608.343309012952
 31
0.0
  0
LINE
  5
1FCA4
330
2
100
AcDbEntity
  8
SPS
100
AcDbLine
 10
1.092023019058615
 20
2604.590539512952
 30
0.0
 11
1.092023019058615
 21
2596.090539512952
 31
0.0
  0
LINE
  5
1FCA5
330
2
100
AcDbEntity
  8
SPS
100
AcDbLine
 10
1.092023019058615
 20
2604.590539512952
 30
0.0
 11
-7.407976980941384
 21
2604.590539512952
 31
0.0
  0
LINE
  5
1FCA6
330
2
100
AcDbEntity
  8
VLB
100
AcDbLine
 10
1.092023019058615
 20
2612.096078412952
 30
0.0
 11
-5.407976980941384
 21
2608.343309012952
 31
0.0
  0
LINE
  5
1FCA7
330
2
100
AcDbEntity
  8
SPS
100
AcDbLine
 10
1.092023019058615
 20
2604.590539512952
 30
0.0
 11
1.092023019058615
 21
2613.090539512952
 31
0.0
  0
LINE
  5
1FCA8
330
2
100
AcDbEntity
  8
VLB
100
AcDbLine
 10
7.592023019058615
 20
2608.343309012952
 30
0.0
 11
1.092023019058615
 21
2612.096078412952
 31
0.0
  0
LINE
  5
1FCA9
330
2
100
AcDbEntity
  8
SPS
100
AcDbLine
 10
1.092023019058615
 20
2604.590539512952
 30
0.0
 11
9.592023019058615
 21
2604.590539512952
 31
0.0
  0
LINE
  5
1FCAA
330
2
100
AcDbEntity
  8
VLB
100
AcDbLine
 10
1.092023019058615
 20
2597.085000612952
 30
0.0
 11
7.592023019058615
 21
2600.837770012952
 31
0.0
  0
LINE
  5
1FCAB
330
2
100
AcDbEntity
  8
VLB
100
AcDbLine
 10
-5.407976980941384
 20
2600.837770012952
 30
0.0
 11
1.092023019058615
 21
2597.085000612952
 31
0.0
  0
LINE
  5
1FCAC
330
2
100
AcDbEntity
  8
SPS
100
AcDbLine
 10
1.092023019058615
 20
2588.21757156619
 30
0.0
 11
1.092023019058615
 21
2623.11012278459
 31
0.0
  0
LINE
  5
1FCAD
330
2
100
AcDbEntity
  8
SPS
100
AcDbLine
 10
23.0308878879714
 20
2604.590539512952
 30
0.0
 11
-15.35118055925886
 21
2604.590539512952
 31
0.0
  0
LINE
  5
1FCAE
330
2
100
AcDbEntity
  8
SPS
100
AcDbLine
 10
45.59202301906043
 20
2496.217571566194
 30
0.0
 11
45.59202301906043
 21
2531.110122784594
 31
0.0
  0
LINE
  5
1FCAF
330
2
100
AcDbEntity
  8
SPS
100
AcDbLine
 10
28.65315815014764
 20
2512.590539512952
 30
0.0
 11
57.03522659737791
 21
2512.590539512952
 31
0.0
  0
CIRCLE
  5
1FCB0
330
2
100
AcDbEntity
  8
VLB
100
AcDbCircle
 10
45.59202301905862
 20
2512.590539512952
 30
0.0
 40
6.5
  0
LINE
  5
1FCB1
330
2
100
AcDbEntity
  8
VLB
100
AcDbLine
 10
39.09202301905861
 20
2516.343309012952
 30
0.0
 11
39.09202301905861
 21
2508.837770012952
 31
0.0
  0
LINE
  5
1FCB2
330
2
100
AcDbEntity
  8
SPS
100
AcDbLine
 10
45.59202301905862
 20
2512.590539512952
 30
0.0
 11
45.59202301905862
 21
2504.090539512952
 31
0.0
  0
LINE
  5
1FCB3
330
2
100
AcDbEntity
  8
SPS
100
AcDbLine
 10
45.59202301905862
 20
2512.590539512952
 30
0.0
 11
37.09202301905861
 21
2512.590539512952
 31
0.0
  0
LINE
  5
1FCB4
330
2
100
AcDbEntity
  8
VLB
100
AcDbLine
 10
45.59202301905862
 20
2520.096078412952
 30
0.0
 11
39.09202301905861
 21
2516.343309012952
 31
0.0
  0
LINE
  5
1FCB5
330
2
100
AcDbEntity
  8
SPS
100
AcDbLine
 10
45.59202301905862
 20
2512.590539512952
 30
0.0
 11
45.59202301905862
 21
2521.090539512952
 31
0.0
  0
LINE
  5
1FCB6
330
2
100
AcDbEntity
  8
VLB
100
AcDbLine
 10
52.09202301905861
 20
2516.343309012952
 30
0.0
 11
45.59202301905862
 21
2520.096078412952
 31
0.0
  0
LINE
  5
1FCB7
330
2
100
AcDbEntity
  8
SPS
100
AcDbLine
 10
45.59202301905862
 20
2512.590539512952
 30
0.0
 11
54.09202301905861
 21
2512.590539512952
 31
0.0
  0
LINE
  5
1FCB8
330
2
100
AcDbEntity
  8
VLB
100
AcDbLine
 10
45.59202301905862
 20
2505.085000612952
 30
0.0
 11
52.09202301905861
 21
2508.837770012952
 31
0.0
  0
LINE
  5
1FCB9
330
2
100
AcDbEntity
  8
VLB
100
AcDbLine
 10
39.09202301905861
 20
2508.837770012952
 30
0.0
 11
45.59202301905862
 21
2505.085000612952
 31
0.0
  0
LINE
  5
1FCBA
330
2
100
AcDbEntity
  8
SPS
100
AcDbLine
 10
45.59202301905862
 20
2496.21757156619
 30
0.0
 11
45.59202301905862
 21
2531.11012278459
 31
0.0
  0
LINE
  5
1FCBB
330
2
100
AcDbEntity
  8
SPS
100
AcDbLine
 10
67.5308878879714
 20
2512.590539512952
 30
0.0
 11
29.14881944074113
 21
2512.590539512952
 31
0.0
  0
LINE
  5
1FCBC
330
2
100
AcDbEntity
  8
VLB
100
AcDbLine
 10
-67.90797698092865
 20
3216.090539512938
 30
0.0
 11
-579.9079769809295
 21
3216.090539512938
 31
0.0
  0
LINE
  5
1FCBD
330
2
100
AcDbEntity
  8
VLB
100
AcDbLine
 10
-1249.907976980932
 20
3217.090539512939
 30
0.0
 11
-1249.907976980932
 21
2034.090539512936
 31
0.0
  0
LINE
  5
1FCBE
330
2
100
AcDbEntity
  8
VLB
100
AcDbLine
 10
-1250.907976980932
 20
2035.090539512935
 30
0.0
 11
-738.9079769809322
 21
2035.090539512935
 31
0.0
  0
LINE
  5
1FCBF
330
2
100
AcDbEntity
  8
VLB
100
AcDbLine
 10
-68.90797698092865
 20
2034.090539512935
 30
0.0
 11
-68.90797698092865
 21
3217.090539512938
 31
0.0
  0
LINE
  5
1FCC0
330
2
100
AcDbEntity
  8
VLS
100
AcDbLine
 10
-1249.907976980934
 20
3216.09053951294
 30
0.0
 11
-1235.771753425919
 21
3201.954315957926
 31
0.0
  0
LINE
  5
1FCC1
330
2
100
AcDbEntity
  8
VLB
100
AcDbLine
 10
-1233.153502057544
 20
3218.090539512935
 30
0.0
 11
-1233.153502057548
 21
3217.090539512937
 31
0.0
  0
ARC
  5
1FCC2
330
2
100
AcDbEntity
  8
VLB
100
AcDbCircle
 10
-1238.153502057597
 20
3206.090539512817
 30
0.0
 40
13.00000000013173
100
AcDbArc
 50
67.38013505192149
 51
74.0576313944422
  0
ARC
  5
1FCC3
330
2
100
AcDbEntity
  8
VLB
100
AcDbCircle
 10
-1238.153502057574
 20
3206.090539513054
 30
0.0
 40
12.9999999998802
100
AcDbArc
 50
105.9423686055577
 51
112.6198649481446
  0
ARC
  5
1FCC4
330
2
100
AcDbEntity
  8
VLB
100
AcDbCircle
 10
-1238.153502057544
 20
3206.090539512937
 30
0.0
 40
12.99999999999925
100
AcDbArc
 50
74.0576313944422
 51
105.9423686055577
  0
LINE
  5
1FCC5
330
2
100
AcDbEntity
  8
VLB
100
AcDbLine
 10
-1243.153502057544
 20
3218.090539512935
 30
0.0
 11
-1243.153502057544
 21
3217.090539512937
 31
0.0
  0
LINE
  5
1FCC6
330
2
100
AcDbEntity
  8
SPS
100
AcDbLine
 10
-1238.153502057544
 20
3208.295835003211
 30
0.0
 11
-1238.153502057544
 21
3221.335025609222
 31
0.0
  0
LINE
  5
1FCC7
330
2
100
AcDbEntity
  8
SPS
100
AcDbLine
 10
-1242.113272471206
 20
3206.884305814604
 30
0.0
 11
-1255.152463077216
 21
3206.884305814604
 31
0.0
  0
LINE
  5
1FCC8
330
2
100
AcDbEntity
  8
VLB
100
AcDbLine
 10
-1251.90797698093
 20
3201.884305814604
 30
0.0
 11
-1250.90797698093
 21
3201.884305814604
 31
0.0
  0
LINE
  5
1FCC9
330
2
100
AcDbEntity
  8
VLB
100
AcDbLine
 10
-1251.90797698093
 20
3211.884305814604
 30
0.0
 11
-1250.90797698093
 21
3211.8843058146
 31
0.0
  0
ARC
  5
1FCCA
330
2
100
AcDbEntity
  8
VLB
100
AcDbCircle
 10
-1239.90797698093
 20
3206.884305814604
 30
0.0
 40
12.99999999999925
100
AcDbArc
 50
157.380135051969
 51
202.6198649480308
  0
CIRCLE
  5
1FCCB
330
2
100
AcDbEntity
  8
VLB
100
AcDbCircle
 10
-1229.549325566384
 20
3195.731888098394
 30
0.0
 40
8.5
  0
LINE
  5
1FCCC
330
2
100
AcDbEntity
  8
VLB
100
AcDbLine
 10
-1234.456796266385
 20
3187.231888098394
 30
0.0
 11
-1224.641854866385
 21
3187.231888098394
 31
0.0
  0
LINE
  5
1FCCD
330
2
100
AcDbEntity
  8
SPS
100
AcDbLine
 10
-1229.549325566386
 20
3195.731888098394
 30
0.0
 11
-1219.049325566386
 21
3195.731888098394
 31
0.0
  0
LINE
  5
1FCCE
330
2
100
AcDbEntity
  8
VLB
100
AcDbLine
 10
-1224.641854866385
 20
3204.231888098394
 30
0.0
 11
-1234.456796266385
 21
3204.231888098394
 31
0.0
  0
LINE
  5
1FCCF
330
2
100
AcDbEntity
  8
VLB
100
AcDbLine
 10
-1219.734376566384
 20
3195.731888098394
 30
0.0
 11
-1224.641854866385
 21
3204.231888098394
 31
0.0
  0
LINE
  5
1FCD0
330
2
100
AcDbEntity
  8
VLB
100
AcDbLine
 10
-1224.641854866385
 20
3187.231888098394
 30
0.0
 11
-1219.734376566384
 21
3195.731888098394
 31
0.0
  0
LINE
  5
1FCD1
330
2
100
AcDbEntity
  8
SPS
100
AcDbLine
 10
-1229.549325566386
 20
3195.731888098394
 30
0.0
 11
-1229.549325566386
 21
3206.231888098393
 31
0.0
  0
LINE
  5
1FCD2
330
2
100
AcDbEntity
  8
VLB
100
AcDbLine
 10
-1234.456796266385
 20
3204.231888098394
 30
0.0
 11
-1239.364274566385
 21
3195.731888098394
 31
0.0
  0
LINE
  5
1FCD3
330
2
100
AcDbEntity
  8
SPS
100
AcDbLine
 10
-1229.549325566386
 20
3195.731888098394
 30
0.0
 11
-1240.049325566386
 21
3195.731888098394
 31
0.0
  0
LINE
  5
1FCD4
330
2
100
AcDbEntity
  8
SPS
100
AcDbLine
 10
-1229.549325566386
 20
3195.731888098394
 30
0.0
 11
-1229.549325566386
 21
3185.231888098394
 31
0.0
  0
LINE
  5
1FCD5
330
2
100
AcDbEntity
  8
VLB
100
AcDbLine
 10
-1239.364274566385
 20
3195.731888098394
 30
0.0
 11
-1234.456796266385
 21
3187.231888098394
 31
0.0
  0
LINE
  5
1FCD6
330
2
100
AcDbEntity
  8
VLS
100
AcDbLine
 10
-1223.326897706853
 20
3189.50946023886
 30
0.0
 11
-659.4079769809322
 21
2625.590539512938
 31
0.0
  0
LINE
  5
1FCD7
330
2
100
AcDbEntity
  8
VLS
100
AcDbLine
 10
-1223.326897706852
 20
2061.671618787014
 30
0.0
 11
-659.4079769809313
 21
2625.590539512935
 31
0.0
  0
LINE
  5
1FCD8
330
2
100
AcDbEntity
  8
VLB
100
AcDbLine
 10
-1229.549325566387
 20
2045.634241927482
 30
0.0
 11
-1221.049325566387
 21
2050.541720227482
 31
0.0
  0
LINE
  5
1FCD9
330
2
100
AcDbEntity
  8
SPS
100
AcDbLine
 10
-1229.549325566387
 20
2055.449190927482
 30
0.0
 11
-1219.049325566387
 21
2055.449190927482
 31
0.0
  0
LINE
  5
1FCDA
330
2
100
AcDbEntity
  8
SPS
100
AcDbLine
 10
-1229.549325566387
 20
2055.449190927482
 30
0.0
 11
-1229.549325566387
 21
2044.949190927482
 31
0.0
  0
LINE
  5
1FCDB
330
2
100
AcDbEntity
  8
VLB
100
AcDbLine
 10
-1238.049325566388
 20
2050.541720227482
 30
0.0
 11
-1229.549325566387
 21
2045.634241927482
 31
0.0
  0
LINE
  5
1FCDC
330
2
100
AcDbEntity
  8
SPS
100
AcDbLine
 10
-1229.549325566387
 20
2055.449190927482
 30
0.0
 11
-1240.049325566388
 21
2055.449190927482
 31
0.0
  0
LINE
  5
1FCDD
330
2
100
AcDbEntity
  8
VLB
100
AcDbLine
 10
-1221.049325566387
 20
2060.356661627482
 30
0.0
 11
-1229.549325566387
 21
2065.264139927483
 31
0.0
  0
LINE
  5
1FCDE
330
2
100
AcDbEntity
  8
VLB
100
AcDbLine
 10
-1229.549325566387
 20
2065.264139927483
 30
0.0
 11
-1238.049325566388
 21
2060.356661627482
 31
0.0
  0
LINE
  5
1FCDF
330
2
100
AcDbEntity
  8
VLB
100
AcDbLine
 10
-1238.049325566388
 20
2060.356661627482
 30
0.0
 11
-1238.049325566388
 21
2050.541720227482
 31
0.0
  0
LINE
  5
1FCE0
330
2
100
AcDbEntity
  8
SPS
100
AcDbLine
 10
-1229.549325566387
 20
2055.449190927482
 30
0.0
 11
-1229.549325566387
 21
2065.949190927482
 31
0.0
  0
LINE
  5
1FCE1
330
2
100
AcDbEntity
  8
VLB
100
AcDbLine
 10
-1221.049325566387
 20
2050.541720227482
 30
0.0
 11
-1221.049325566387
 21
2060.356661627482
 31
0.0
  0
CIRCLE
  5
1FCE2
330
2
100
AcDbEntity
  8
VLB
100
AcDbCircle
 10
-1229.549325566386
 20
2055.449190927484
 30
0.0
 40
8.5
  0
ARC
  5
1FCE3
330
2
100
AcDbEntity
  8
VLB
100
AcDbCircle
 10
-1240.701743282596
 20
2045.090539512937
 30
0.0
 40
12.99999999999925
100
AcDbArc
 50
247.380135051969
 51
292.6198649480308
  0
LINE
  5
1FCE4
330
2
100
AcDbEntity
  8
VLB
100
AcDbLine
 10
-1245.701743282597
 20
2033.090539512937
 30
0.0
 11
-1245.701743282594
 21
2034.090539512937
 31
0.0
  0
LINE
  5
1FCE5
330
2
100
AcDbEntity
  8
VLB
100
AcDbLine
 10
-1235.701743282597
 20
2033.090539512937
 30
0.0
 11
-1235.701743282597
 21
2034.090539512937
 31
0.0
  0
LINE
  5
1FCE6
330
2
100
AcDbEntity
  8
SPS
100
AcDbLine
 10
-1240.701743282597
 20
2042.885244022662
 30
0.0
 11
-1240.701743282597
 21
2029.846053416652
 31
0.0
  0
LINE
  5
1FCE7
330
2
100
AcDbEntity
  8
SPS
100
AcDbLine
 10
-1242.113272471204
 20
2046.845014436323
 30
0.0
 11
-1255.152463077214
 21
2046.845014436323
 31
0.0
  0
LINE
  5
1FCE8
330
2
100
AcDbEntity
  8
VLB
100
AcDbLine
 10
-1251.907976980928
 20
2041.845014436323
 30
0.0
 11
-1250.90797698093
 21
2041.845014436323
 31
0.0
  0
ARC
  5
1FCE9
330
2
100
AcDbEntity
  8
VLB
100
AcDbCircle
 10
-1239.90797698093
 20
2046.845014436323
 30
0.0
 40
12.99999999999925
100
AcDbArc
 50
164.0576313944421
 51
195.9423686055577
  0
ARC
  5
1FCEA
330
2
100
AcDbEntity
  8
VLB
100
AcDbCircle
 10
-1239.907976981047
 20
2046.845014436294
 30
0.0
 40
12.9999999998802
100
AcDbArc
 50
195.9423686055577
 51
202.6198649481446
  0
ARC
  5
1FCEB
330
2
100
AcDbEntity
  8
VLB
100
AcDbCircle
 10
-1239.90797698081
 20
2046.845014436271
 30
0.0
 40
13.00000000013173
100
AcDbArc
 50
157.3801350519214
 51
164.0576313944421
  0
LINE
  5
1FCEC
330
2
100
AcDbEntity
  8
VLB
100
AcDbLine
 10
-1251.907976980928
 20
2051.845014436323
 30
0.0
 11
-1250.90797698093
 21
2051.845014436319
 31
0.0
  0
LINE
  5
1FCED
330
2
100
AcDbEntity
  8
VLS
100
AcDbLine
 10
-1249.907976980934
 20
2035.090539512934
 30
0.0
 11
-1235.771753425919
 21
2049.226763067948
 31
0.0
  0
LINE
  5
1FCEE
330
2
100
AcDbEntity
  8
VLS
100
AcDbLine
 10
-95.48905625500811
 20
2061.671618787014
 30
0.0
 11
-659.4079769809286
 21
2625.590539512936
 31
0.0
  0
LINE
  5
1FCEF
330
2
100
AcDbEntity
  8
VLB
100
AcDbLine
 10
-79.45167939547537
 20
2055.44919092748
 30
0.0
 11
-84.359157695475
 21
2063.94919092748
 31
0.0
  0
LINE
  5
1FCF0
330
2
100
AcDbEntity
  8
SPS
100
AcDbLine
 10
-89.26662839547498
 20
2055.44919092748
 30
0.0
 11
-89.26662839547498
 21
2065.94919092748
 31
0.0
  0
LINE
  5
1FCF1
330
2
100
AcDbEntity
  8
SPS
100
AcDbLine
 10
-89.26662839547498
 20
2055.44919092748
 30
0.0
 11
-78.76662839547498
 21
2055.44919092748
 31
0.0
  0
LINE
  5
1FCF2
330
2
100
AcDbEntity
  8
VLB
100
AcDbLine
 10
-84.359157695475
 20
2046.949190927481
 30
0.0
 11
-79.45167939547537
 21
2055.44919092748
 31
0.0
  0
LINE
  5
1FCF3
330
2
100
AcDbEntity
  8
SPS
100
AcDbLine
 10
-89.26662839547498
 20
2055.44919092748
 30
0.0
 11
-89.26662839547498
 21
2044.94919092748
 31
0.0
  0
LINE
  5
1FCF4
330
2
100
AcDbEntity
  8
VLB
100
AcDbLine
 10
-94.17409909547496
 20
2063.94919092748
 30
0.0
 11
-99.08157739547641
 21
2055.44919092748
 31
0.0
  0
LINE
  5
1FCF5
330
2
100
AcDbEntity
  8
VLB
100
AcDbLine
 10
-99.08157739547641
 20
2055.44919092748
 30
0.0
 11
-94.17409909547496
 21
2046.949190927481
 31
0.0
  0
LINE
  5
1FCF6
330
2
100
AcDbEntity
  8
VLB
100
AcDbLine
 10
-94.17409909547496
 20
2046.949190927481
 30
0.0
 11
-84.359157695475
 21
2046.949190927481
 31
0.0
  0
LINE
  5
1FCF7
330
2
100
AcDbEntity
  8
SPS
100
AcDbLine
 10
-89.26662839547498
 20
2055.44919092748
 30
0.0
 11
-99.76662839547499
 21
2055.44919092748
 31
0.0
  0
LINE
  5
1FCF8
330
2
100
AcDbEntity
  8
VLB
100
AcDbLine
 10
-84.359157695475
 20
2063.94919092748
 30
0.0
 11
-94.17409909547496
 21
2063.94919092748
 31
0.0
  0
CIRCLE
  5
1FCF9
330
2
100
AcDbEntity
  8
VLB
100
AcDbCircle
 10
-89.26662839547679
 20
2055.44919092748
 30
0.0
 40
8.5
  0
ARC
  5
1FCFA
330
2
100
AcDbEntity
  8
VLB
100
AcDbCircle
 10
-78.90797698093047
 20
2044.29677321127
 30
0.0
 40
12.99999999999925
100
AcDbArc
 50
337.380135051969
 51
22.61986494803085
  0
LINE
  5
1FCFB
330
2
100
AcDbEntity
  8
VLB
100
AcDbLine
 10
-66.90797698093047
 20
2039.29677321127
 30
0.0
 11
-67.90797698093047
 21
2039.296773211274
 31
0.0
  0
LINE
  5
1FCFC
330
2
100
AcDbEntity
  8
VLB
100
AcDbLine
 10
-66.90797698093047
 20
2049.29677321127
 30
0.0
 11
-67.90797698093047
 21
2049.29677321127
 31
0.0
  0
LINE
  5
1FCFD
330
2
100
AcDbEntity
  8
SPS
100
AcDbLine
 10
-76.70268149065487
 20
2044.29677321127
 30
0.0
 11
-63.66349088464494
 21
2044.29677321127
 31
0.0
  0
LINE
  5
1FCFE
330
2
100
AcDbEntity
  8
SPS
100
AcDbLine
 10
-80.66245190431619
 20
2042.885244022663
 30
0.0
 11
-80.66245190431619
 21
2029.846053416652
 31
0.0
  0
LINE
  5
1FCFF
330
2
100
AcDbEntity
  8
VLB
100
AcDbLine
 10
-75.66245190431619
 20
2033.090539512938
 30
0.0
 11
-75.66245190431619
 21
2034.090539512937
 31
0.0
  0
ARC
  5
1FD00
330
2
100
AcDbEntity
  8
VLB
100
AcDbCircle
 10
-80.66245190431619
 20
2045.090539512937
 30
0.0
 40
12.99999999999925
100
AcDbArc
 50
254.0576313944421
 51
285.9423686055577
  0
ARC
  5
1FD01
330
2
100
AcDbEntity
  8
VLB
100
AcDbCircle
 10
-80.66245190428707
 20
2045.09053951282
 30
0.0
 40
12.9999999998802
100
AcDbArc
 50
285.9423686055577
 51
292.6198649481445
  0
ARC
  5
1FD02
330
2
100
AcDbEntity
  8
VLB
100
AcDbCircle
 10
-80.66245190426343
 20
2045.090539513057
 30
0.0
 40
13.00000000013173
100
AcDbArc
 50
247.3801350519214
 51
254.0576313944421
  0
LINE
  5
1FD03
330
2
100
AcDbEntity
  8
VLB
100
AcDbLine
 10
-85.66245190431619
 20
2033.090539512938
 30
0.0
 11
-85.66245190431255
 21
2034.090539512937
 31
0.0
  0
LINE
  5
1FD04
330
2
100
AcDbEntity
  8
VLS
100
AcDbLine
 10
-68.90797698092683
 20
2035.090539512934
 30
0.0
 11
-83.04420053594185
 21
2049.226763067948
 31
0.0
  0
LINE
  5
1FD05
330
2
100
AcDbEntity
  8
VLS
100
AcDbLine
 10
-95.48905625500811
 20
3189.50946023886
 30
0.0
 11
-659.4079769809296
 21
2625.590539512939
 31
0.0
  0
LINE
  5
1FD06
330
2
100
AcDbEntity
  8
VLB
100
AcDbLine
 10
-89.26662839547317
 20
3205.546837098391
 30
0.0
 11
-97.76662839547316
 21
3200.639358798392
 31
0.0
  0
LINE
  5
1FD07
330
2
100
AcDbEntity
  8
SPS
100
AcDbLine
 10
-89.26662839547317
 20
3195.731888098392
 30
0.0
 11
-99.76662839547316
 21
3195.731888098392
 31
0.0
  0
LINE
  5
1FD08
330
2
100
AcDbEntity
  8
SPS
100
AcDbLine
 10
-89.26662839547317
 20
3195.731888098392
 30
0.0
 11
-89.26662839547317
 21
3206.231888098392
 31
0.0
  0
LINE
  5
1FD09
330
2
100
AcDbEntity
  8
VLB
100
AcDbLine
 10
-80.76662839547315
 20
3200.639358798392
 30
0.0
 11
-89.26662839547317
 21
3205.546837098391
 31
0.0
  0
LINE
  5
1FD0A
330
2
100
AcDbEntity
  8
SPS
100
AcDbLine
 10
-89.26662839547317
 20
3195.731888098392
 30
0.0
 11
-78.76662839547316
 21
3195.731888098392
 31
0.0
  0
LINE
  5
1FD0B
330
2
100
AcDbEntity
  8
VLB
100
AcDbLine
 10
-97.76662839547316
 20
3190.824417398392
 30
0.0
 11
-89.26662839547317
 21
3185.91693909839
 31
0.0
  0
LINE
  5
1FD0C
330
2
100
AcDbEntity
  8
VLB
100
AcDbLine
 10
-89.26662839547317
 20
3185.91693909839
 30
0.0
 11
-80.76662839547315
 21
3190.824417398392
 31
0.0
  0
LINE
  5
1FD0D
330
2
100
AcDbEntity
  8
VLB
100
AcDbLine
 10
-80.76662839547315
 20
3190.824417398392
 30
0.0
 11
-80.76662839547315
 21
3200.639358798392
 31
0.0
  0
LINE
  5
1FD0E
330
2
100
AcDbEntity
  8
SPS
100
AcDbLine
 10
-89.26662839547317
 20
3195.731888098392
 30
0.0
 11
-89.26662839547317
 21
3185.231888098392
 31
0.0
  0
LINE
  5
1FD0F
330
2
100
AcDbEntity
  8
VLB
100
AcDbLine
 10
-97.76662839547316
 20
3200.639358798392
 30
0.0
 11
-97.76662839547316
 21
3190.824417398392
 31
0.0
  0
CIRCLE
  5
1FD10
330
2
100
AcDbEntity
  8
VLB
100
AcDbCircle
 10
-89.26662839547317
 20
3195.73188809839
 30
0.0
 40
8.5
  0
ARC
  5
1FD11
330
2
100
AcDbEntity
  8
VLB
100
AcDbCircle
 10
-78.11421067926312
 20
3206.090539512937
 30
0.0
 40
12.99999999999925
100
AcDbArc
 50
67.380135051969
 51
112.6198649480307
  0
LINE
  5
1FD12
330
2
100
AcDbEntity
  8
VLB
100
AcDbLine
 10
-73.11421067926312
 20
3218.090539512936
 30
0.0
 11
-73.11421067926676
 21
3217.090539512936
 31
0.0
  0
LINE
  5
1FD13
330
2
100
AcDbEntity
  8
VLB
100
AcDbLine
 10
-83.11421067926312
 20
3218.090539512936
 30
0.0
 11
-83.11421067926312
 21
3217.090539512936
 31
0.0
  0
LINE
  5
1FD14
330
2
100
AcDbEntity
  8
SPS
100
AcDbLine
 10
-78.11421067926312
 20
3208.295835003212
 30
0.0
 11
-78.11421067926312
 21
3221.335025609223
 31
0.0
  0
LINE
  5
1FD15
330
2
100
AcDbEntity
  8
SPS
100
AcDbLine
 10
-76.70268149065669
 20
3204.336064589551
 30
0.0
 11
-63.66349088464585
 21
3204.336064589551
 31
0.0
  0
LINE
  5
1FD16
330
2
100
AcDbEntity
  8
VLB
100
AcDbLine
 10
-66.90797698093138
 20
3209.336064589551
 30
0.0
 11
-67.90797698092956
 21
3209.336064589551
 31
0.0
  0
ARC
  5
1FD17
330
2
100
AcDbEntity
  8
VLB
100
AcDbCircle
 10
-78.90797698092956
 20
3204.336064589551
 30
0.0
 40
12.99999999999925
100
AcDbArc
 50
344.0576313944421
 51
15.9423686055577
  0
ARC
  5
1FD18
330
2
100
AcDbEntity
  8
VLB
100
AcDbCircle
 10
-78.90797698081314
 20
3204.33606458958
 30
0.0
 40
12.9999999998802
100
AcDbArc
 50
15.9423686055577
 51
22.61986494814455
  0
ARC
  5
1FD19
330
2
100
AcDbEntity
  8
VLB
100
AcDbCircle
 10
-78.90797698104961
 20
3204.336064589603
 30
0.0
 40
13.00000000013173
100
AcDbArc
 50
337.3801350519214
 51
344.0576313944421
  0
LINE
  5
1FD1A
330
2
100
AcDbEntity
  8
VLB
100
AcDbLine
 10
-66.90797698093229
 20
3199.336064589551
 30
0.0
 11
-67.90797698093047
 21
3199.336064589554
 31
0.0
  0
LINE
  5
1FD1B
330
2
100
AcDbEntity
  8
VLS
100
AcDbLine
 10
-68.90797698092683
 20
3216.09053951294
 30
0.0
 11
-83.04420053594185
 21
3201.954315957925
 31
0.0
  0
LINE
  5
1FD1E
330
2
100
AcDbEntity
  8
SPS
100
AcDbLine
 10
-1109.407976980937
 20
3381.622991356572
 30
0.0
 11
-1109.407976980937
 21
3416.702560017695
 31
0.0
  0
LINE
  5
1FD1F
330
2
100
AcDbEntity
  8
VLB
100
AcDbLine
 10
-1101.907977980934
 20
3403.590539512938
 30
0.0
 11
-1101.907977980934
 21
3404.390539512938
 31
0.0
1001
ACAD
1000
ASC_BOUNDS
1002
{
1070
    16
1002
}
  0
LINE
  5
1FD20
330
2
100
AcDbEntity
  8
VLB
100
AcDbLine
 10
-1103.474644980937
 20
3404.390539512938
 30
0.0
 11
-1103.474644980937
 21
3405.057206512937
 31
0.0
  0
LINE
  5
1FD21
330
2
100
AcDbEntity
  8
VLB
100
AcDbLine
 10
-1101.709974980936
 20
3405.057206512937
 30
0.0
 11
-1101.709974980936
 21
3409.128429512936
 31
0.0
  0
LINE
  5
1FD22
330
2
100
AcDbEntity
  8
VLB
100
AcDbLine
 10
-1105.558975980939
 20
3405.057206512937
 30
0.0
 11
-1105.558975980939
 21
3409.128429512936
 31
0.0
  0
ARC
  5
1FD23
330
2
100
AcDbEntity
  8
VLB
100
AcDbCircle
 10
-1103.645176980938
 20
3406.350600512937
 30
0.0
 40
3.373272
100
AcDbArc
 50
59.99999999997275
 51
124.5650930000802
  0
LINE
  5
1FD24
330
2
100
AcDbEntity
  8
VLB
100
AcDbLine
 10
-1108.407976980934
 20
3409.723872512936
 30
0.0
 11
-1102.741310980936
 21
3409.723872512936
 31
0.0
  0
ARC
  5
1FD25
330
2
100
AcDbEntity
  8
VLB
100
AcDbCircle
 10
-1109.407976980938
 20
3396.985983512938
 30
0.0
 40
12.737889
100
AcDbArc
 50
72.41204599994038
 51
85.49730800002157
  0
LINE
  5
1FD26
330
2
100
AcDbEntity
  8
VLB
100
AcDbLine
 10
-1107.326069980934
 20
3404.390539512938
 30
0.0
 11
-1103.474644980937
 21
3404.390539512938
 31
0.0
  0
LINE
  5
1FD27
330
2
100
AcDbEntity
  8
VLB
100
AcDbLine
 10
-1101.907977980934
 20
3404.390539512938
 30
0.0
 11
-1108.407976980934
 21
3404.390539512938
 31
0.0
  0
LINE
  5
1FD28
330
2
100
AcDbEntity
  8
VLB
100
AcDbLine
 10
-1108.407976980934
 20
3405.057206512937
 30
0.0
 11
-1101.709974980936
 21
3405.057206512937
 31
0.0
  0
LINE
  5
1FD29
330
2
100
AcDbEntity
  8
VLB
100
AcDbLine
 10
-1116.074642980938
 20
3409.723872512936
 30
0.0
 11
-1108.407976980934
 21
3409.723872512936
 31
0.0
  0
ARC
  5
1FD2A
330
2
100
AcDbEntity
  8
VLB
100
AcDbCircle
 10
-1109.407976980938
 20
3396.985983512938
 30
0.0
 40
12.737889
100
AcDbArc
 50
85.49730800002157
 51
107.5879540000596
  0
LINE
  5
1FD2B
330
2
100
AcDbEntity
  8
VLB
100
AcDbLine
 10
-1109.407976980937
 20
3404.390539512938
 30
0.0
 11
-1116.907976980937
 21
3404.390539512938
 31
0.0
  0
LINE
  5
1FD2C
330
2
100
AcDbEntity
  8
VLB
100
AcDbLine
 10
-1117.105979980939
 20
3405.057206512937
 30
0.0
 11
-1108.407976980934
 21
3405.057206512937
 31
0.0
  0
LINE
  5
1FD2D
330
2
100
AcDbEntity
  8
VLB
100
AcDbLine
 10
-1115.341309980935
 20
3404.390539512938
 30
0.0
 11
-1108.407976980934
 21
3404.390539512938
 31
0.0
  0
ARC
  5
1FD2E
330
2
100
AcDbEntity
  8
VLB
100
AcDbCircle
 10
-1115.170777980939
 20
3406.350600512937
 30
0.0
 40
3.373272
100
AcDbArc
 50
55.43490699991969
 51
120.0000000000272
  0
LINE
  5
1FD2F
330
2
100
AcDbEntity
  8
VLB
100
AcDbLine
 10
-1116.074642980938
 20
3409.723872512936
 30
0.0
 11
-1117.105979980939
 21
3409.128429512936
 31
0.0
  0
LINE
  5
1FD30
330
2
100
AcDbEntity
  8
VLB
100
AcDbLine
 10
-1115.341309980935
 20
3404.390539512938
 30
0.0
 11
-1115.341309980935
 21
3405.057206512937
 31
0.0
  0
LINE
  5
1FD31
330
2
100
AcDbEntity
  8
VLB
100
AcDbLine
 10
-1116.907976980937
 20
3403.590539512938
 30
0.0
 11
-1116.907976980937
 21
3404.390539512938
 31
0.0
1001
ACAD
1000
ASC_BOUNDS
1002
{
1070
    16
1002
}
  0
LINE
  5
1FD32
330
2
100
AcDbEntity
  8
VLB
100
AcDbLine
 10
-1116.907976980937
 20
3404.390539512938
 30
0.0
 11
-1116.907976980937
 21
3403.590539512938
 31
0.0
  0
LINE
  5
1FD33
330
2
100
AcDbEntity
  8
VLB
100
AcDbLine
 10
-1113.256978980936
 20
3405.057206512937
 30
0.0
 11
-1113.256978980936
 21
3409.128429512936
 31
0.0
  0
LINE
  5
1FD34
330
2
100
AcDbEntity
  8
VLB
100
AcDbLine
 10
-1117.105979980939
 20
3405.057206512937
 30
0.0
 11
-1117.105979980939
 21
3409.128429512936
 31
0.0
  0
LINE
  5
1FD35
330
2
100
AcDbEntity
  8
VLB
100
AcDbLine
 10
-1108.407976980934
 20
3404.390539512938
 30
0.0
 11
-1109.407976980937
 21
3404.390539512938
 31
0.0
  0
LINE
  5
1FD36
330
2
100
AcDbEntity
  8
VLB
100
AcDbLine
 10
-1102.741310980936
 20
3409.723872512936
 30
0.0
 11
-1101.709974980936
 21
3409.128429512936
 31
0.0
  0
LINE
  5
1FD37
330
2
100
AcDbEntity
  8
SPS
100
AcDbLine
 10
-211.4079769809377
 20
3381.62299135657
 30
0.0
 11
-211.4079769809377
 21
3416.702560017694
 31
0.0
  0
LINE
  5
1FD38
330
2
100
AcDbEntity
  8
VLB
100
AcDbLine
 10
-203.9079779809344
 20
3403.590539512936
 30
0.0
 11
-203.9079779809344
 21
3404.390539512935
 31
0.0
1001
ACAD
1000
ASC_BOUNDS
1002
{
1070
    16
1002
}
  0
LINE
  5
1FD39
330
2
100
AcDbEntity
  8
VLB
100
AcDbLine
 10
-205.4746449809372
 20
3404.390539512935
 30
0.0
 11
-205.4746449809372
 21
3405.057206512935
 31
0.0
  0
LINE
  5
1FD3A
330
2
100
AcDbEntity
  8
VLB
100
AcDbLine
 10
-203.7099749809367
 20
3405.057206512935
 30
0.0
 11
-203.7099749809367
 21
3409.128429512934
 31
0.0
  0
LINE
  5
1FD3B
330
2
100
AcDbEntity
  8
VLB
100
AcDbLine
 10
-207.558975980939
 20
3405.057206512935
 30
0.0
 11
-207.558975980939
 21
3409.128429512934
 31
0.0
  0
ARC
  5
1FD3C
330
2
100
AcDbEntity
  8
VLB
100
AcDbCircle
 10
-205.6451769809382
 20
3406.350600512935
 30
0.0
 40
3.373272
100
AcDbArc
 50
59.99999999997275
 51
124.5650930000802
  0
LINE
  5
1FD3D
330
2
100
AcDbEntity
  8
VLB
100
AcDbLine
 10
-210.4079769809341
 20
3409.723872512934
 30
0.0
 11
-204.7413109809367
 21
3409.723872512934
 31
0.0
  0
ARC
  5
1FD3E
330
2
100
AcDbEntity
  8
VLB
100
AcDbCircle
 10
-211.4079769809386
 20
3396.985983512936
 30
0.0
 40
12.737889
100
AcDbArc
 50
72.41204599994038
 51
85.49730800002157
  0
LINE
  5
1FD3F
330
2
100
AcDbEntity
  8
VLB
100
AcDbLine
 10
-209.3260699809343
 20
3404.390539512935
 30
0.0
 11
-205.4746449809372
 21
3404.390539512935
 31
0.0
  0
LINE
  5
1FD40
330
2
100
AcDbEntity
  8
VLB
100
AcDbLine
 10
-203.9079779809344
 20
3404.390539512935
 30
0.0
 11
-210.4079769809341
 21
3404.390539512935
 31
0.0
  0
LINE
  5
1FD41
330
2
100
AcDbEntity
  8
VLB
100
AcDbLine
 10
-210.4079769809341
 20
3405.057206512935
 30
0.0
 11
-203.7099749809367
 21
3405.057206512935
 31
0.0
  0
LINE
  5
1FD42
330
2
100
AcDbEntity
  8
VLB
100
AcDbLine
 10
-218.0746429809387
 20
3409.723872512934
 30
0.0
 11
-210.4079769809341
 21
3409.723872512934
 31
0.0
  0
ARC
  5
1FD43
330
2
100
AcDbEntity
  8
VLB
100
AcDbCircle
 10
-211.4079769809386
 20
3396.985983512936
 30
0.0
 40
12.737889
100
AcDbArc
 50
85.49730800002157
 51
107.5879540000596
  0
LINE
  5
1FD44
330
2
100
AcDbEntity
  8
VLB
100
AcDbLine
 10
-211.4079769809377
 20
3404.390539512935
 30
0.0
 11
-218.9079769809377
 21
3404.390539512935
 31
0.0
  0
LINE
  5
1FD45
330
2
100
AcDbEntity
  8
VLB
100
AcDbLine
 10
-219.105979980939
 20
3405.057206512935
 30
0.0
 11
-210.4079769809341
 21
3405.057206512935
 31
0.0
  0
LINE
  5
1FD46
330
2
100
AcDbEntity
  8
VLB
100
AcDbLine
 10
-217.3413099809349
 20
3404.390539512935
 30
0.0
 11
-210.4079769809341
 21
3404.390539512935
 31
0.0
  0
ARC
  5
1FD47
330
2
100
AcDbEntity
  8
VLB
100
AcDbCircle
 10
-217.1707779809394
 20
3406.350600512935
 30
0.0
 40
3.373272
100
AcDbArc
 50
55.43490699991969
 51
120.0000000000272
  0
LINE
  5
1FD48
330
2
100
AcDbEntity
  8
VLB
100
AcDbLine
 10
-218.0746429809387
 20
3409.723872512934
 30
0.0
 11
-219.105979980939
 21
3409.128429512934
 31
0.0
  0
LINE
  5
1FD49
330
2
100
AcDbEntity
  8
VLB
100
AcDbLine
 10
-217.3413099809349
 20
3404.390539512935
 30
0.0
 11
-217.3413099809349
 21
3405.057206512935
 31
0.0
  0
LINE
  5
1FD4A
330
2
100
AcDbEntity
  8
VLB
100
AcDbLine
 10
-218.9079769809377
 20
3403.590539512936
 30
0.0
 11
-218.9079769809377
 21
3404.390539512935
 31
0.0
1001
ACAD
1000
ASC_BOUNDS
1002
{
1070
    16
1002
}
  0
LINE
  5
1FD4B
330
2
100
AcDbEntity
  8
VLB
100
AcDbLine
 10
-218.9079769809377
 20
3404.390539512935
 30
0.0
 11
-218.9079769809377
 21
3403.590539512936
 31
0.0
  0
LINE
  5
1FD4C
330
2
100
AcDbEntity
  8
VLB
100
AcDbLine
 10
-215.2569789809367
 20
3405.057206512935
 30
0.0
 11
-215.2569789809367
 21
3409.128429512934
 31
0.0
  0
LINE
  5
1FD4D
330
2
100
AcDbEntity
  8
VLB
100
AcDbLine
 10
-219.105979980939
 20
3405.057206512935
 30
0.0
 11
-219.105979980939
 21
3409.128429512934
 31
0.0
  0
LINE
  5
1FD4E
330
2
100
AcDbEntity
  8
VLB
100
AcDbLine
 10
-210.4079769809341
 20
3404.390539512935
 30
0.0
 11
-211.4079769809377
 21
3404.390539512935
 31
0.0
  0
LINE
  5
1FD4F
330
2
100
AcDbEntity
  8
VLB
100
AcDbLine
 10
-204.7413109809367
 20
3409.723872512934
 30
0.0
 11
-203.7099749809367
 21
3409.128429512934
 31
0.0
  0
LINE
  5
1FD50
330
2
100
AcDbEntity
  8
SPS
100
AcDbLine
 10
-1415.440428824566
 20
2175.59053951293
 30
0.0
 11
-1450.519997485689
 21
2175.59053951293
 31
0.0
  0
LINE
  5
1FD51
330
2
100
AcDbEntity
  8
VLB
100
AcDbLine
 10
-1443.54130998093
 20
2182.257205512931
 30
0.0
 11
-1442.94586698093
 21
2183.288541512931
 31
0.0
  0
LINE
  5
1FD52
330
2
100
AcDbEntity
  8
VLB
100
AcDbLine
 10
-1438.207976980931
 20
2176.590539512934
 30
0.0
 11
-1438.207976980931
 21
2175.59053951293
 31
0.0
  0
LINE
  5
1FD53
330
2
100
AcDbEntity
  8
VLB
100
AcDbLine
 10
-1438.874643980931
 20
2167.892536512929
 30
0.0
 11
-1442.94586698093
 21
2167.892536512929
 31
0.0
  0
LINE
  5
1FD54
330
2
100
AcDbEntity
  8
VLB
100
AcDbLine
 10
-1438.874643980931
 20
2171.741537512931
 30
0.0
 11
-1442.94586698093
 21
2171.741537512931
 31
0.0
  0
LINE
  5
1FD55
330
2
100
AcDbEntity
  8
VLB
100
AcDbLine
 10
-1438.207976980931
 20
2168.090539512931
 30
0.0
 11
-1437.407976980932
 21
2168.090539512931
 31
0.0
  0
LINE
  5
1FD56
330
2
100
AcDbEntity
  8
VLB
100
AcDbLine
 10
-1437.407976980932
 20
2168.090539512931
 30
0.0
 11
-1438.207976980931
 21
2168.090539512931
 31
0.0
1001
ACAD
1000
ASC_BOUNDS
1002
{
1070
    16
1002
}
  0
LINE
  5
1FD57
330
2
100
AcDbEntity
  8
VLB
100
AcDbLine
 10
-1438.207976980931
 20
2169.657206512933
 30
0.0
 11
-1438.874643980931
 21
2169.657206512933
 31
0.0
  0
LINE
  5
1FD58
330
2
100
AcDbEntity
  8
VLB
100
AcDbLine
 10
-1443.54130998093
 20
2168.923873512929
 30
0.0
 11
-1442.94586698093
 21
2167.892536512929
 31
0.0
  0
ARC
  5
1FD59
330
2
100
AcDbEntity
  8
VLB
100
AcDbCircle
 10
-1440.16803798093
 20
2169.827738512928
 30
0.0
 40
3.373272
100
AcDbArc
 50
145.4349069999196
 51
210.0000000000272
  0
LINE
  5
1FD5A
330
2
100
AcDbEntity
  8
VLB
100
AcDbLine
 10
-1438.207976980931
 20
2169.657206512933
 30
0.0
 11
-1438.207976980931
 21
2176.590539512934
 31
0.0
  0
LINE
  5
1FD5B
330
2
100
AcDbEntity
  8
VLB
100
AcDbLine
 10
-1438.874643980931
 20
2167.892536512929
 30
0.0
 11
-1438.874643980931
 21
2176.590539512934
 31
0.0
  0
LINE
  5
1FD5C
330
2
100
AcDbEntity
  8
VLB
100
AcDbLine
 10
-1438.207976980931
 20
2175.59053951293
 30
0.0
 11
-1438.207976980931
 21
2168.090539512931
 31
0.0
  0
ARC
  5
1FD5D
330
2
100
AcDbEntity
  8
VLB
100
AcDbCircle
 10
-1430.803420980931
 20
2175.590539512929
 30
0.0
 40
12.737889
100
AcDbArc
 50
175.4973080000215
 51
197.5879540000595
  0
LINE
  5
1FD5E
330
2
100
AcDbEntity
  8
VLB
100
AcDbLine
 10
-1443.54130998093
 20
2168.923873512929
 30
0.0
 11
-1443.54130998093
 21
2176.590539512934
 31
0.0
  0
LINE
  5
1FD5F
330
2
100
AcDbEntity
  8
VLB
100
AcDbLine
 10
-1438.874643980931
 20
2176.590539512934
 30
0.0
 11
-1438.874643980931
 21
2183.288541512931
 31
0.0
  0
LINE
  5
1FD60
330
2
100
AcDbEntity
  8
VLB
100
AcDbLine
 10
-1438.207976980931
 20
2183.090538512934
 30
0.0
 11
-1438.207976980931
 21
2176.590539512934
 31
0.0
  0
LINE
  5
1FD61
330
2
100
AcDbEntity
  8
VLB
100
AcDbLine
 10
-1438.207976980931
 20
2177.672446512934
 30
0.0
 11
-1438.207976980931
 21
2181.523871512931
 31
0.0
  0
ARC
  5
1FD62
330
2
100
AcDbEntity
  8
VLB
100
AcDbCircle
 10
-1430.803420980931
 20
2175.590539512929
 30
0.0
 40
12.737889
100
AcDbArc
 50
162.4120459999403
 51
175.4973080000215
  0
LINE
  5
1FD63
330
2
100
AcDbEntity
  8
VLB
100
AcDbLine
 10
-1443.54130998093
 20
2176.590539512934
 30
0.0
 11
-1443.54130998093
 21
2182.257205512931
 31
0.0
  0
ARC
  5
1FD64
330
2
100
AcDbEntity
  8
VLB
100
AcDbCircle
 10
-1440.16803798093
 20
2181.353339512929
 30
0.0
 40
3.373272
100
AcDbArc
 50
149.9999999999727
 51
214.5650930000803
  0
LINE
  5
1FD65
330
2
100
AcDbEntity
  8
VLB
100
AcDbLine
 10
-1438.874643980931
 20
2179.439540512929
 30
0.0
 11
-1442.94586698093
 21
2179.439540512929
 31
0.0
  0
LINE
  5
1FD66
330
2
100
AcDbEntity
  8
VLB
100
AcDbLine
 10
-1438.874643980931
 20
2183.288541512931
 30
0.0
 11
-1442.94586698093
 21
2183.288541512931
 31
0.0
  0
LINE
  5
1FD67
330
2
100
AcDbEntity
  8
VLB
100
AcDbLine
 10
-1438.207976980931
 20
2181.523871512931
 30
0.0
 11
-1438.874643980931
 21
2181.523871512931
 31
0.0
  0
LINE
  5
1FD68
330
2
100
AcDbEntity
  8
VLB
100
AcDbLine
 10
-1437.407976980932
 20
2183.090538512934
 30
0.0
 11
-1438.207976980931
 21
2183.090538512934
 31
0.0
1001
ACAD
1000
ASC_BOUNDS
1002
{
1070
    16
1002
}
  0
LINE
  5
1FD69
330
2
100
AcDbEntity
  8
SPS
100
AcDbLine
 10
-1415.440428824563
 20
3073.59053951293
 30
0.0
 11
-1450.519997485686
 21
3073.59053951293
 31
0.0
  0
LINE
  5
1FD6A
330
2
100
AcDbEntity
  8
VLB
100
AcDbLine
 10
-1443.541309980927
 20
3080.257205512931
 30
0.0
 11
-1442.945866980927
 21
3081.288541512931
 31
0.0
  0
LINE
  5
1FD6B
330
2
100
AcDbEntity
  8
VLB
100
AcDbLine
 10
-1438.207976980929
 20
3074.590539512934
 30
0.0
 11
-1438.207976980929
 21
3073.59053951293
 31
0.0
  0
LINE
  5
1FD6C
330
2
100
AcDbEntity
  8
VLB
100
AcDbLine
 10
-1438.874643980928
 20
3065.892536512929
 30
0.0
 11
-1442.945866980927
 21
3065.892536512929
 31
0.0
  0
LINE
  5
1FD6D
330
2
100
AcDbEntity
  8
VLB
100
AcDbLine
 10
-1438.874643980928
 20
3069.741537512931
 30
0.0
 11
-1442.945866980927
 21
3069.741537512931
 31
0.0
  0
LINE
  5
1FD6E
330
2
100
AcDbEntity
  8
VLB
100
AcDbLine
 10
-1438.207976980929
 20
3066.09053951293
 30
0.0
 11
-1437.407976980929
 21
3066.09053951293
 31
0.0
  0
LINE
  5
1FD6F
330
2
100
AcDbEntity
  8
VLB
100
AcDbLine
 10
-1437.407976980929
 20
3066.09053951293
 30
0.0
 11
-1438.207976980929
 21
3066.09053951293
 31
0.0
1001
ACAD
1000
ASC_BOUNDS
1002
{
1070
    16
1002
}
  0
LINE
  5
1FD70
330
2
100
AcDbEntity
  8
VLB
100
AcDbLine
 10
-1438.207976980929
 20
3067.657206512933
 30
0.0
 11
-1438.874643980928
 21
3067.657206512933
 31
0.0
  0
LINE
  5
1FD71
330
2
100
AcDbEntity
  8
VLB
100
AcDbLine
 10
-1443.541309980927
 20
3066.923873512929
 30
0.0
 11
-1442.945866980927
 21
3065.892536512929
 31
0.0
  0
ARC
  5
1FD72
330
2
100
AcDbEntity
  8
VLB
100
AcDbCircle
 10
-1440.168037980928
 20
3067.827738512929
 30
0.0
 40
3.373272
100
AcDbArc
 50
145.4349069999196
 51
210.0000000000272
  0
LINE
  5
1FD73
330
2
100
AcDbEntity
  8
VLB
100
AcDbLine
 10
-1438.207976980929
 20
3067.657206512933
 30
0.0
 11
-1438.207976980929
 21
3074.590539512934
 31
0.0
  0
LINE
  5
1FD74
330
2
100
AcDbEntity
  8
VLB
100
AcDbLine
 10
-1438.874643980928
 20
3065.892536512929
 30
0.0
 11
-1438.874643980928
 21
3074.590539512934
 31
0.0
  0
LINE
  5
1FD75
330
2
100
AcDbEntity
  8
VLB
100
AcDbLine
 10
-1438.207976980929
 20
3073.59053951293
 30
0.0
 11
-1438.207976980929
 21
3066.09053951293
 31
0.0
  0
ARC
  5
1FD76
330
2
100
AcDbEntity
  8
VLB
100
AcDbCircle
 10
-1430.803420980929
 20
3073.590539512929
 30
0.0
 40
12.737889
100
AcDbArc
 50
175.4973080000215
 51
197.5879540000595
  0
LINE
  5
1FD77
330
2
100
AcDbEntity
  8
VLB
100
AcDbLine
 10
-1443.541309980927
 20
3066.923873512929
 30
0.0
 11
-1443.541309980927
 21
3074.590539512934
 31
0.0
  0
LINE
  5
1FD78
330
2
100
AcDbEntity
  8
VLB
100
AcDbLine
 10
-1438.874643980928
 20
3074.590539512934
 30
0.0
 11
-1438.874643980928
 21
3081.288541512931
 31
0.0
  0
LINE
  5
1FD79
330
2
100
AcDbEntity
  8
VLB
100
AcDbLine
 10
-1438.207976980929
 20
3081.090538512933
 30
0.0
 11
-1438.207976980929
 21
3074.590539512934
 31
0.0
  0
LINE
  5
1FD7A
330
2
100
AcDbEntity
  8
VLB
100
AcDbLine
 10
-1438.207976980929
 20
3075.672446512934
 30
0.0
 11
-1438.207976980929
 21
3079.523871512931
 31
0.0
  0
ARC
  5
1FD7B
330
2
100
AcDbEntity
  8
VLB
100
AcDbCircle
 10
-1430.803420980929
 20
3073.590539512929
 30
0.0
 40
12.737889
100
AcDbArc
 50
162.4120459999403
 51
175.4973080000215
  0
LINE
  5
1FD7C
330
2
100
AcDbEntity
  8
VLB
100
AcDbLine
 10
-1443.541309980927
 20
3074.590539512934
 30
0.0
 11
-1443.541309980927
 21
3080.257205512931
 31
0.0
  0
ARC
  5
1FD7D
330
2
100
AcDbEntity
  8
VLB
100
AcDbCircle
 10
-1440.168037980928
 20
3079.35333951293
 30
0.0
 40
3.373272
100
AcDbArc
 50
149.9999999999727
 51
214.5650930000803
  0
LINE
  5
1FD7E
330
2
100
AcDbEntity
  8
VLB
100
AcDbLine
 10
-1438.874643980928
 20
3077.439540512929
 30
0.0
 11
-1442.945866980927
 21
3077.439540512929
 31
0.0
  0
LINE
  5
1FD7F
330
2
100
AcDbEntity
  8
VLB
100
AcDbLine
 10
-1438.874643980928
 20
3081.288541512931
 30
0.0
 11
-1442.945866980927
 21
3081.288541512931
 31
0.0
  0
LINE
  5
1FD80
330
2
100
AcDbEntity
  8
VLB
100
AcDbLine
 10
-1438.207976980929
 20
3079.523871512931
 30
0.0
 11
-1438.874643980928
 21
3079.523871512931
 31
0.0
  0
LINE
  5
1FD81
330
2
100
AcDbEntity
  8
VLB
100
AcDbLine
 10
-1437.407976980929
 20
3081.090538512933
 30
0.0
 11
-1438.207976980929
 21
3081.090538512933
 31
0.0
1001
ACAD
1000
ASC_BOUNDS
1002
{
1070
    16
1002
}
  0
LINE
  5
1FD82
330
2
100
AcDbEntity
  8
SPS
100
AcDbLine
 10
-209.4079769809241
 20
1869.558087669302
 30
0.0
 11
-209.4079769809241
 21
1834.478519008179
 31
0.0
  0
LINE
  5
1FD83
330
2
100
AcDbEntity
  8
VLB
100
AcDbLine
 10
-216.074642980925
 20
1841.457206512938
 30
0.0
 11
-217.105978980925
 21
1842.052649512938
 31
0.0
  0
LINE
  5
1FD84
330
2
100
AcDbEntity
  8
VLB
100
AcDbLine
 10
-210.4079769809277
 20
1846.790539512937
 30
0.0
 11
-209.4079769809241
 21
1846.790539512937
 31
0.0
  0
LINE
  5
1FD85
330
2
100
AcDbEntity
  8
VLB
100
AcDbLine
 10
-201.7099739809227
 20
1846.123872512937
 30
0.0
 11
-201.7099739809227
 21
1842.052649512938
 31
0.0
  0
LINE
  5
1FD86
330
2
100
AcDbEntity
  8
VLB
100
AcDbLine
 10
-205.5589749809251
 20
1846.123872512937
 30
0.0
 11
-205.5589749809251
 21
1842.052649512938
 31
0.0
  0
LINE
  5
1FD87
330
2
100
AcDbEntity
  8
VLB
100
AcDbLine
 10
-201.907976980924
 20
1846.790539512937
 30
0.0
 11
-201.907976980924
 21
1847.590539512936
 31
0.0
  0
LINE
  5
1FD88
330
2
100
AcDbEntity
  8
VLB
100
AcDbLine
 10
-201.907976980924
 20
1847.590539512936
 30
0.0
 11
-201.907976980924
 21
1846.790539512937
 31
0.0
1001
ACAD
1000
ASC_BOUNDS
1002
{
1070
    16
1002
}
  0
LINE
  5
1FD89
330
2
100
AcDbEntity
  8
VLB
100
AcDbLine
 10
-203.4746439809268
 20
1846.790539512937
 30
0.0
 11
-203.4746439809268
 21
1846.123872512937
 31
0.0
  0
LINE
  5
1FD8A
330
2
100
AcDbEntity
  8
VLB
100
AcDbLine
 10
-202.7413109809231
 20
1841.457206512938
 30
0.0
 11
-201.7099739809227
 21
1842.052649512938
 31
0.0
  0
ARC
  5
1FD8B
330
2
100
AcDbEntity
  8
VLB
100
AcDbCircle
 10
-203.6451759809224
 20
1844.830478512937
 30
0.0
 40
3.373272
100
AcDbArc
 50
235.4349069999196
 51
300.0000000000272
  0
LINE
  5
1FD8C
330
2
100
AcDbEntity
  8
VLB
100
AcDbLine
 10
-203.4746439809268
 20
1846.790539512937
 30
0.0
 11
-210.4079769809277
 21
1846.790539512937
 31
0.0
  0
LINE
  5
1FD8D
330
2
100
AcDbEntity
  8
VLB
100
AcDbLine
 10
-201.7099739809227
 20
1846.123872512937
 30
0.0
 11
-210.4079769809277
 21
1846.123872512937
 31
0.0
  0
LINE
  5
1FD8E
330
2
100
AcDbEntity
  8
VLB
100
AcDbLine
 10
-209.4079769809241
 20
1846.790539512937
 30
0.0
 11
-201.907976980924
 21
1846.790539512937
 31
0.0
  0
ARC
  5
1FD8F
330
2
100
AcDbEntity
  8
VLB
100
AcDbCircle
 10
-209.4079769809232
 20
1854.195095512936
 30
0.0
 40
12.737889
100
AcDbArc
 50
265.4973080000215
 51
287.5879540000595
  0
LINE
  5
1FD90
330
2
100
AcDbEntity
  8
VLB
100
AcDbLine
 10
-202.7413109809231
 20
1841.457206512938
 30
0.0
 11
-210.4079769809277
 21
1841.457206512938
 31
0.0
  0
LINE
  5
1FD91
330
2
100
AcDbEntity
  8
VLB
100
AcDbLine
 10
-210.4079769809277
 20
1846.123872512937
 30
0.0
 11
-217.105978980925
 21
1846.123872512937
 31
0.0
  0
LINE
  5
1FD92
330
2
100
AcDbEntity
  8
VLB
100
AcDbLine
 10
-216.9079759809274
 20
1846.790539512937
 30
0.0
 11
-210.4079769809277
 21
1846.790539512937
 31
0.0
  0
LINE
  5
1FD93
330
2
100
AcDbEntity
  8
VLB
100
AcDbLine
 10
-211.4898839809275
 20
1846.790539512937
 30
0.0
 11
-215.3413089809246
 21
1846.790539512937
 31
0.0
  0
ARC
  5
1FD94
330
2
100
AcDbEntity
  8
VLB
100
AcDbCircle
 10
-209.4079769809232
 20
1854.195095512936
 30
0.0
 40
12.737889
100
AcDbArc
 50
252.4120459999403
 51
265.4973080000215
  0
LINE
  5
1FD95
330
2
100
AcDbEntity
  8
VLB
100
AcDbLine
 10
-210.4079769809277
 20
1841.457206512938
 30
0.0
 11
-216.074642980925
 21
1841.457206512938
 31
0.0
  0
ARC
  5
1FD96
330
2
100
AcDbEntity
  8
VLB
100
AcDbCircle
 10
-215.1707769809236
 20
1844.830478512937
 30
0.0
 40
3.373272
100
AcDbArc
 50
239.9999999999727
 51
304.5650930000802
  0
LINE
  5
1FD97
330
2
100
AcDbEntity
  8
VLB
100
AcDbLine
 10
-213.2569779809228
 20
1846.123872512937
 30
0.0
 11
-213.2569779809228
 21
1842.052649512938
 31
0.0
  0
LINE
  5
1FD98
330
2
100
AcDbEntity
  8
VLB
100
AcDbLine
 10
-217.105978980925
 20
1846.123872512937
 30
0.0
 11
-217.105978980925
 21
1842.052649512938
 31
0.0
  0
LINE
  5
1FD99
330
2
100
AcDbEntity
  8
VLB
100
AcDbLine
 10
-215.3413089809246
 20
1846.790539512937
 30
0.0
 11
-215.3413089809246
 21
1846.123872512937
 31
0.0
  0
LINE
  5
1FD9A
330
2
100
AcDbEntity
  8
VLB
100
AcDbLine
 10
-216.9079759809274
 20
1847.590539512936
 30
0.0
 11
-216.9079759809274
 21
1846.790539512937
 31
0.0
1001
ACAD
1000
ASC_BOUNDS
1002
{
1070
    16
1002
}
  0
LINE
  5
1FD9B
330
2
100
AcDbEntity
  8
SPS
100
AcDbLine
 10
-1107.407976980924
 20
1869.558087669304
 30
0.0
 11
-1107.407976980924
 21
1834.478519008181
 31
0.0
  0
LINE
  5
1FD9C
330
2
100
AcDbEntity
  8
VLB
100
AcDbLine
 10
-1114.074642980925
 20
1841.45720651294
 30
0.0
 11
-1115.105978980925
 21
1842.052649512941
 31
0.0
  0
LINE
  5
1FD9D
330
2
100
AcDbEntity
  8
VLB
100
AcDbLine
 10
-1108.407976980927
 20
1846.790539512939
 30
0.0
 11
-1107.407976980924
 21
1846.790539512939
 31
0.0
  0
LINE
  5
1FD9E
330
2
100
AcDbEntity
  8
VLB
100
AcDbLine
 10
-1099.709973980922
 20
1846.123872512939
 30
0.0
 11
-1099.709973980922
 21
1842.052649512941
 31
0.0
  0
LINE
  5
1FD9F
330
2
100
AcDbEntity
  8
VLB
100
AcDbLine
 10
-1103.558974980925
 20
1846.123872512939
 30
0.0
 11
-1103.558974980925
 21
1842.052649512941
 31
0.0
  0
LINE
  5
1FDA0
330
2
100
AcDbEntity
  8
VLB
100
AcDbLine
 10
-1099.907976980924
 20
1846.790539512939
 30
0.0
 11
-1099.907976980924
 21
1847.590539512938
 31
0.0
  0
LINE
  5
1FDA1
330
2
100
AcDbEntity
  8
VLB
100
AcDbLine
 10
-1099.907976980924
 20
1847.590539512938
 30
0.0
 11
-1099.907976980924
 21
1846.790539512939
 31
0.0
1001
ACAD
1000
ASC_BOUNDS
1002
{
1070
    16
1002
}
  0
LINE
  5
1FDA2
330
2
100
AcDbEntity
  8
VLB
100
AcDbLine
 10
-1101.474643980926
 20
1846.790539512939
 30
0.0
 11
-1101.474643980926
 21
1846.123872512939
 31
0.0
  0
LINE
  5
1FDA3
330
2
100
AcDbEntity
  8
VLB
100
AcDbLine
 10
-1100.741310980923
 20
1841.45720651294
 30
0.0
 11
-1099.709973980922
 21
1842.052649512941
 31
0.0
  0
ARC
  5
1FDA4
330
2
100
AcDbEntity
  8
VLB
100
AcDbCircle
 10
-1101.645175980922
 20
1844.830478512939
 30
0.0
 40
3.373272
100
AcDbArc
 50
235.4349069999196
 51
300.0000000000272
  0
LINE
  5
1FDA5
330
2
100
AcDbEntity
  8
VLB
100
AcDbLine
 10
-1101.474643980926
 20
1846.790539512939
 30
0.0
 11
-1108.407976980927
 21
1846.790539512939
 31
0.0
  0
LINE
  5
1FDA6
330
2
100
AcDbEntity
  8
VLB
100
AcDbLine
 10
-1099.709973980922
 20
1846.123872512939
 30
0.0
 11
-1108.407976980927
 21
1846.123872512939
 31
0.0
  0
LINE
  5
1FDA7
330
2
100
AcDbEntity
  8
VLB
100
AcDbLine
 10
-1107.407976980924
 20
1846.790539512939
 30
0.0
 11
-1099.907976980924
 21
1846.790539512939
 31
0.0
  0
ARC
  5
1FDA8
330
2
100
AcDbEntity
  8
VLB
100
AcDbCircle
 10
-1107.407976980923
 20
1854.195095512938
 30
0.0
 40
12.737889
100
AcDbArc
 50
265.4973080000215
 51
287.5879540000595
  0
LINE
  5
1FDA9
330
2
100
AcDbEntity
  8
VLB
100
AcDbLine
 10
-1100.741310980923
 20
1841.45720651294
 30
0.0
 11
-1108.407976980927
 21
1841.45720651294
 31
0.0
  0
LINE
  5
1FDAA
330
2
100
AcDbEntity
  8
VLB
100
AcDbLine
 10
-1108.407976980927
 20
1846.123872512939
 30
0.0
 11
-1115.105978980925
 21
1846.123872512939
 31
0.0
  0
LINE
  5
1FDAB
330
2
100
AcDbEntity
  8
VLB
100
AcDbLine
 10
-1114.907975980927
 20
1846.790539512939
 30
0.0
 11
-1108.407976980927
 21
1846.790539512939
 31
0.0
  0
LINE
  5
1FDAC
330
2
100
AcDbEntity
  8
VLB
100
AcDbLine
 10
-1109.489883980927
 20
1846.790539512939
 30
0.0
 11
-1113.341308980924
 21
1846.790539512939
 31
0.0
  0
ARC
  5
1FDAD
330
2
100
AcDbEntity
  8
VLB
100
AcDbCircle
 10
-1107.407976980923
 20
1854.195095512938
 30
0.0
 40
12.737889
100
AcDbArc
 50
252.4120459999403
 51
265.4973080000215
  0
LINE
  5
1FDAE
330
2
100
AcDbEntity
  8
VLB
100
AcDbLine
 10
-1108.407976980927
 20
1841.45720651294
 30
0.0
 11
-1114.074642980925
 21
1841.45720651294
 31
0.0
  0
ARC
  5
1FDAF
330
2
100
AcDbEntity
  8
VLB
100
AcDbCircle
 10
-1113.170776980923
 20
1844.830478512939
 30
0.0
 40
3.373272
100
AcDbArc
 50
239.9999999999727
 51
304.5650930000802
  0
LINE
  5
1FDB0
330
2
100
AcDbEntity
  8
VLB
100
AcDbLine
 10
-1111.256977980922
 20
1846.123872512939
 30
0.0
 11
-1111.256977980922
 21
1842.052649512941
 31
0.0
  0
LINE
  5
1FDB1
330
2
100
AcDbEntity
  8
VLB
100
AcDbLine
 10
-1115.105978980925
 20
1846.123872512939
 30
0.0
 11
-1115.105978980925
 21
1842.052649512941
 31
0.0
  0
LINE
  5
1FDB2
330
2
100
AcDbEntity
  8
VLB
100
AcDbLine
 10
-1113.341308980924
 20
1846.790539512939
 30
0.0
 11
-1113.341308980924
 21
1846.123872512939
 31
0.0
  0
LINE
  5
1FDB3
330
2
100
AcDbEntity
  8
VLB
100
AcDbLine
 10
-1114.907975980927
 20
1847.590539512938
 30
0.0
 11
-1114.907975980927
 21
1846.790539512939
 31
0.0
1001
ACAD
1000
ASC_BOUNDS
1002
{
1070
    16
1002
}
  0
LINE
  5
1FDB4
330
2
100
AcDbEntity
  8
SPS
100
AcDbLine
 10
96.62447486270458
 20
3075.590539512944
 30
0.0
 11
131.7040435238282
 21
3075.590539512944
 31
0.0
  0
LINE
  5
1FDB5
330
2
100
AcDbEntity
  8
VLB
100
AcDbLine
 10
124.7253560190688
 20
3068.923873512943
 30
0.0
 11
124.1299130190686
 21
3067.892537512943
 31
0.0
  0
LINE
  5
1FDB6
330
2
100
AcDbEntity
  8
VLB
100
AcDbLine
 10
119.3920230190701
 20
3074.59053951294
 30
0.0
 11
119.3920230190701
 21
3075.590539512944
 31
0.0
  0
LINE
  5
1FDB7
330
2
100
AcDbEntity
  8
VLB
100
AcDbLine
 10
120.0586900190696
 20
3083.288542512945
 30
0.0
 11
124.1299130190686
 21
3083.288542512945
 31
0.0
  0
LINE
  5
1FDB8
330
2
100
AcDbEntity
  8
VLB
100
AcDbLine
 10
120.0586900190696
 20
3079.439541512943
 30
0.0
 11
124.1299130190686
 21
3079.439541512943
 31
0.0
  0
LINE
  5
1FDB9
330
2
100
AcDbEntity
  8
VLB
100
AcDbLine
 10
119.3920230190701
 20
3083.090539512943
 30
0.0
 11
118.5920230190709
 21
3083.090539512943
 31
0.0
  0
LINE
  5
1FDBA
330
2
100
AcDbEntity
  8
VLB
100
AcDbLine
 10
118.5920230190709
 20
3083.090539512943
 30
0.0
 11
119.3920230190701
 21
3083.090539512943
 31
0.0
1001
ACAD
1000
ASC_BOUNDS
1002
{
1070
    16
1002
}
  0
LINE
  5
1FDBB
330
2
100
AcDbEntity
  8
VLB
100
AcDbLine
 10
119.3920230190701
 20
3081.523872512941
 30
0.0
 11
120.0586900190696
 21
3081.523872512941
 31
0.0
  0
LINE
  5
1FDBC
330
2
100
AcDbEntity
  8
VLB
100
AcDbLine
 10
124.7253560190688
 20
3082.257205512945
 30
0.0
 11
124.1299130190686
 21
3083.288542512945
 31
0.0
  0
ARC
  5
1FDBD
330
2
100
AcDbEntity
  8
VLB
100
AcDbCircle
 10
121.3520840190703
 20
3081.353340512945
 30
0.0
 40
3.373272
100
AcDbArc
 50
325.4349069999196
 51
30.00000000002717
  0
LINE
  5
1FDBE
330
2
100
AcDbEntity
  8
VLB
100
AcDbLine
 10
119.3920230190701
 20
3081.523872512941
 30
0.0
 11
119.3920230190701
 21
3074.59053951294
 31
0.0
  0
LINE
  5
1FDBF
330
2
100
AcDbEntity
  8
VLB
100
AcDbLine
 10
120.0586900190696
 20
3083.288542512945
 30
0.0
 11
120.0586900190696
 21
3074.59053951294
 31
0.0
  0
LINE
  5
1FDC0
330
2
100
AcDbEntity
  8
VLB
100
AcDbLine
 10
119.3920230190701
 20
3075.590539512944
 30
0.0
 11
119.3920230190701
 21
3083.090539512943
 31
0.0
  0
ARC
  5
1FDC1
330
2
100
AcDbEntity
  8
VLB
100
AcDbCircle
 10
111.9874670190706
 20
3075.590539512944
 30
0.0
 40
12.737889
100
AcDbArc
 50
355.4973080000214
 51
17.58795400005952
  0
LINE
  5
1FDC2
330
2
100
AcDbEntity
  8
VLB
100
AcDbLine
 10
124.7253560190688
 20
3082.257205512945
 30
0.0
 11
124.7253560190688
 21
3074.59053951294
 31
0.0
  0
LINE
  5
1FDC3
330
2
100
AcDbEntity
  8
VLB
100
AcDbLine
 10
120.0586900190696
 20
3074.59053951294
 30
0.0
 11
120.0586900190696
 21
3067.892537512943
 31
0.0
  0
LINE
  5
1FDC4
330
2
100
AcDbEntity
  8
VLB
100
AcDbLine
 10
119.3920230190701
 20
3068.09054051294
 30
0.0
 11
119.3920230190701
 21
3074.59053951294
 31
0.0
  0
LINE
  5
1FDC5
330
2
100
AcDbEntity
  8
VLB
100
AcDbLine
 10
119.3920230190701
 20
3073.50863251294
 30
0.0
 11
119.3920230190701
 21
3069.657207512943
 31
0.0
  0
ARC
  5
1FDC6
330
2
100
AcDbEntity
  8
VLB
100
AcDbCircle
 10
111.9874670190706
 20
3075.590539512944
 30
0.0
 40
12.737889
100
AcDbArc
 50
342.4120459999402
 51
355.4973080000214
  0
LINE
  5
1FDC7
330
2
100
AcDbEntity
  8
VLB
100
AcDbLine
 10
124.7253560190688
 20
3074.59053951294
 30
0.0
 11
124.7253560190688
 21
3068.923873512943
 31
0.0
  0
ARC
  5
1FDC8
330
2
100
AcDbEntity
  8
VLB
100
AcDbCircle
 10
121.3520840190699
 20
3069.827739512944
 30
0.0
 40
3.373272
100
AcDbArc
 50
329.9999999999726
 51
34.56509300008024
  0
LINE
  5
1FDC9
330
2
100
AcDbEntity
  8
VLB
100
AcDbLine
 10
120.0586900190696
 20
3071.741538512945
 30
0.0
 11
124.1299130190686
 21
3071.741538512945
 31
0.0
  0
LINE
  5
1FDCA
330
2
100
AcDbEntity
  8
VLB
100
AcDbLine
 10
120.0586900190696
 20
3067.892537512943
 30
0.0
 11
124.1299130190686
 21
3067.892537512943
 31
0.0
  0
LINE
  5
1FDCB
330
2
100
AcDbEntity
  8
VLB
100
AcDbLine
 10
119.3920230190701
 20
3069.657207512943
 30
0.0
 11
120.0586900190696
 21
3069.657207512943
 31
0.0
  0
LINE
  5
1FDCC
330
2
100
AcDbEntity
  8
VLB
100
AcDbLine
 10
118.5920230190709
 20
3068.09054051294
 30
0.0
 11
119.3920230190701
 21
3068.09054051294
 31
0.0
1001
ACAD
1000
ASC_BOUNDS
1002
{
1070
    16
1002
}
  0
LINE
  5
1FDCD
330
2
100
AcDbEntity
  8
SPS
100
AcDbLine
 10
96.62447486270185
 20
2177.590539512944
 30
0.0
 11
131.7040435238254
 21
2177.590539512944
 31
0.0
  0
LINE
  5
1FDCE
330
2
100
AcDbEntity
  8
VLB
100
AcDbLine
 10
124.7253560190661
 20
2170.923873512943
 30
0.0
 11
124.1299130190659
 21
2169.892537512942
 31
0.0
  0
LINE
  5
1FDCF
330
2
100
AcDbEntity
  8
VLB
100
AcDbLine
 10
119.3920230190674
 20
2176.59053951294
 30
0.0
 11
119.3920230190674
 21
2177.590539512944
 31
0.0
  0
LINE
  5
1FDD0
330
2
100
AcDbEntity
  8
VLB
100
AcDbLine
 10
120.0586900190669
 20
2185.288542512945
 30
0.0
 11
124.1299130190659
 21
2185.288542512945
 31
0.0
  0
LINE
  5
1FDD1
330
2
100
AcDbEntity
  8
VLB
100
AcDbLine
 10
120.0586900190669
 20
2181.439541512943
 30
0.0
 11
124.1299130190659
 21
2181.439541512943
 31
0.0
  0
LINE
  5
1FDD2
330
2
100
AcDbEntity
  8
VLB
100
AcDbLine
 10
119.3920230190674
 20
2185.090539512944
 30
0.0
 11
118.5920230190681
 21
2185.090539512944
 31
0.0
  0
LINE
  5
1FDD3
330
2
100
AcDbEntity
  8
VLB
100
AcDbLine
 10
118.5920230190681
 20
2185.090539512944
 30
0.0
 11
119.3920230190674
 21
2185.090539512944
 31
0.0
1001
ACAD
1000
ASC_BOUNDS
1002
{
1070
    16
1002
}
  0
LINE
  5
1FDD4
330
2
100
AcDbEntity
  8
VLB
100
AcDbLine
 10
119.3920230190674
 20
2183.523872512941
 30
0.0
 11
120.0586900190669
 21
2183.523872512941
 31
0.0
  0
LINE
  5
1FDD5
330
2
100
AcDbEntity
  8
VLB
100
AcDbLine
 10
124.7253560190661
 20
2184.257205512944
 30
0.0
 11
124.1299130190659
 21
2185.288542512945
 31
0.0
  0
ARC
  5
1FDD6
330
2
100
AcDbEntity
  8
VLB
100
AcDbCircle
 10
121.3520840190672
 20
2183.353340512945
 30
0.0
 40
3.373272
100
AcDbArc
 50
325.4349069999196
 51
30.00000000002717
  0
LINE
  5
1FDD7
330
2
100
AcDbEntity
  8
VLB
100
AcDbLine
 10
119.3920230190674
 20
2183.523872512941
 30
0.0
 11
119.3920230190674
 21
2176.59053951294
 31
0.0
  0
LINE
  5
1FDD8
330
2
100
AcDbEntity
  8
VLB
100
AcDbLine
 10
120.0586900190669
 20
2185.288542512945
 30
0.0
 11
120.0586900190669
 21
2176.59053951294
 31
0.0
  0
LINE
  5
1FDD9
330
2
100
AcDbEntity
  8
VLB
100
AcDbLine
 10
119.3920230190674
 20
2177.590539512944
 30
0.0
 11
119.3920230190674
 21
2185.090539512944
 31
0.0
  0
ARC
  5
1FDDA
330
2
100
AcDbEntity
  8
VLB
100
AcDbCircle
 10
111.9874670190679
 20
2177.590539512944
 30
0.0
 40
12.737889
100
AcDbArc
 50
355.4973080000214
 51
17.58795400005952
  0
LINE
  5
1FDDB
330
2
100
AcDbEntity
  8
VLB
100
AcDbLine
 10
124.7253560190661
 20
2184.257205512944
 30
0.0
 11
124.7253560190661
 21
2176.59053951294
 31
0.0
  0
LINE
  5
1FDDC
330
2
100
AcDbEntity
  8
VLB
100
AcDbLine
 10
120.0586900190669
 20
2176.59053951294
 30
0.0
 11
120.0586900190669
 21
2169.892537512942
 31
0.0
  0
LINE
  5
1FDDD
330
2
100
AcDbEntity
  8
VLB
100
AcDbLine
 10
119.3920230190674
 20
2170.09054051294
 30
0.0
 11
119.3920230190674
 21
2176.59053951294
 31
0.0
  0
LINE
  5
1FDDE
330
2
100
AcDbEntity
  8
VLB
100
AcDbLine
 10
119.3920230190674
 20
2175.50863251294
 30
0.0
 11
119.3920230190674
 21
2171.657207512943
 31
0.0
  0
ARC
  5
1FDDF
330
2
100
AcDbEntity
  8
VLB
100
AcDbCircle
 10
111.9874670190679
 20
2177.590539512944
 30
0.0
 40
12.737889
100
AcDbArc
 50
342.4120459999402
 51
355.4973080000214
  0
LINE
  5
1FDE0
330
2
100
AcDbEntity
  8
VLB
100
AcDbLine
 10
124.7253560190661
 20
2176.59053951294
 30
0.0
 11
124.7253560190661
 21
2170.923873512943
 31
0.0
  0
ARC
  5
1FDE1
330
2
100
AcDbEntity
  8
VLB
100
AcDbCircle
 10
121.3520840190672
 20
2171.827739512944
 30
0.0
 40
3.373272
100
AcDbArc
 50
329.9999999999726
 51
34.56509300008024
  0
LINE
  5
1FDE2
330
2
100
AcDbEntity
  8
VLB
100
AcDbLine
 10
120.0586900190669
 20
2173.741538512945
 30
0.0
 11
124.1299130190659
 21
2173.741538512945
 31
0.0
  0
LINE
  5
1FDE3
330
2
100
AcDbEntity
  8
VLB
100
AcDbLine
 10
120.0586900190669
 20
2169.892537512942
 30
0.0
 11
124.1299130190659
 21
2169.892537512942
 31
0.0
  0
LINE
  5
1FDE4
330
2
100
AcDbEntity
  8
VLB
100
AcDbLine
 10
119.3920230190674
 20
2171.657207512943
 30
0.0
 11
120.0586900190669
 21
2171.657207512943
 31
0.0
  0
LINE
  5
1FDE5
330
2
100
AcDbEntity
  8
VLB
100
AcDbLine
 10
118.5920230190681
 20
2170.09054051294
 30
0.0
 11
119.3920230190674
 21
2170.09054051294
 31
0.0
1001
ACAD
1000
ASC_BOUNDS
1002
{
1070
    16
1002
}
  0
LINE
  5
1FDE9
330
2
100
AcDbEntity
  8
VLB
100
AcDbLine
 10
-577.9079769809323
 20
3407.090539512938
 30
0.0
 11
-577.9079769809323
 21
3217.090539512938
 31
0.0
  0
LINE
  5
1FDEA
330
2
100
AcDbEntity
  8
VLB
100
AcDbLine
 10
-579.4079769809322
 20
3407.090539512938
 30
0.0
 11
-579.4079769809322
 21
3217.090539512938
 31
0.0
  0
LINE
  5
1FDEB
330
2
100
AcDbEntity
  8
VLB
100
AcDbLine
 10
-740.9079769809323
 20
3217.090539512938
 30
0.0
 11
-740.9079769809323
 21
3407.090539512938
 31
0.0
  0
LINE
  5
1FDEC
330
2
100
AcDbEntity
  8
VLB
100
AcDbLine
 10
-739.4079769809323
 20
3217.090539512938
 30
0.0
 11
-739.4079769809323
 21
3407.090539512938
 31
0.0
  0
LINE
  5
1FDED
330
2
100
AcDbEntity
  8
VLB
100
AcDbLine
 10
-579.9079769809295
 20
3216.090539512939
 30
0.0
 11
-579.9079769809305
 21
3235.390539512938
 31
0.0
  0
LINE
  5
1FDEE
330
2
100
AcDbEntity
  8
SPS
100
AcDbLine
 10
-609.4079769809322
 20
3232.798782366901
 30
0.0
 11
-609.4079769809322
 21
3216.905930289058
 31
0.0
  0
LINE
  5
1FDEF
330
2
100
AcDbEntity
  8
SPS
100
AcDbLine
 10
-603.0966204238575
 20
3225.390539512939
 30
0.0
 11
-616.4373065684994
 21
3225.390539512939
 31
0.0
  0
CIRCLE
  5
1FDF0
330
2
100
AcDbEntity
  8
VLB
100
AcDbCircle
 10
-609.4079769809322
 20
3225.390539512939
 30
0.0
 40
2.550000000006548
  0
CIRCLE
  5
1FDF1
330
2
100
AcDbEntity
  8
VLB
100
AcDbCircle
 10
-609.4079769809322
 20
3225.390539512939
 30
0.0
 40
5.000000000001818
  0
LINE
  5
1FDF2
330
2
100
AcDbEntity
  8
VLB
100
AcDbLine
 10
-577.9079769809323
 20
3217.090539512938
 30
0.0
 11
-579.9079769809286
 21
3217.090539512938
 31
0.0
  0
LINE
  5
1FDF3
330
2
100
AcDbEntity
  8
VLB
100
AcDbLine
 10
-738.9079769809322
 20
3216.090539512938
 30
0.0
 11
-738.9079769809322
 21
3235.390539512938
 31
0.0
  0
LINE
  5
1FDF4
330
2
100
AcDbEntity
  8
SPS
100
AcDbLine
 10
-703.0966204238575
 20
3225.390539512939
 30
0.0
 11
-716.4373065684994
 21
3225.390539512939
 31
0.0
  0
CIRCLE
  5
1FDF5
330
2
100
AcDbEntity
  8
VLB
100
AcDbCircle
 10
-709.4079769809322
 20
3225.390539512939
 30
0.0
 40
5.000000000001818
  0
LINE
  5
1FDF6
330
2
100
AcDbEntity
  8
SPS
100
AcDbLine
 10
-709.4079769809322
 20
3232.798782366901
 30
0.0
 11
-709.4079769809322
 21
3216.905930289058
 31
0.0
  0
CIRCLE
  5
1FDF7
330
2
100
AcDbEntity
  8
VLB
100
AcDbCircle
 10
-709.4079769809322
 20
3225.390539512939
 30
0.0
 40
2.550000000006548
  0
LINE
  5
1FDF8
330
2
100
AcDbEntity
  8
VLB
100
AcDbLine
 10
-738.9079769809304
 20
3217.090539512938
 30
0.0
 11
-740.9079769809323
 21
3217.090539512938
 31
0.0
  0
LINE
  5
1FDF9
330
2
100
AcDbEntity
  8
VLB
100
AcDbLine
 10
-738.9079769809322
 20
3235.390539512938
 30
0.0
 11
-579.9079769809322
 21
3235.390539512938
 31
0.0
  0
LINE
  5
1FDFA
330
2
100
AcDbEntity
  8
VLB
100
AcDbLine
 10
-577.9079769809323
 20
3385.590539512937
 30
0.0
 11
-579.4079769809322
 21
3385.590539512939
 31
0.0
  0
LINE
  5
1FDFB
330
2
100
AcDbEntity
  8
VLB
100
AcDbLine
 10
-739.4079769809323
 20
3385.590539512939
 30
0.0
 11
-740.9079769809323
 21
3385.590539512939
 31
0.0
  0
LINE
  5
1FDFC
330
2
100
AcDbEntity
  8
VLB
100
AcDbLine
 10
-740.9079769809323
 20
3407.090539512938
 30
0.0
 11
-577.9079769809323
 21
3407.090539512938
 31
0.0
  0
LINE
  5
1FE11
330
2
100
AcDbEntity
  8
VLB
100
AcDbLine
 10
-740.9079769809323
 20
3350.590539512927
 30
0.0
 11
-1383.40797698093
 21
3350.590539512923
 31
0.0
  0
LINE
  5
1FE12
330
2
100
AcDbEntity
  8
VLB
100
AcDbLine
 10
-740.9079769809323
 20
3403.590539512939
 30
0.0
 11
-1436.40797698093
 21
3403.590539512939
 31
0.0
  0
LINE
  5
1FE13
330
2
100
AcDbEntity
  8
VLB
100
AcDbLine
 10
-738.9079769809322
 20
3217.090539512938
 30
0.0
 11
-1249.907976980932
 21
3217.090539512939
 31
0.0
  0
LINE
  5
1FE14
330
2
100
AcDbEntity
  8
VLB
100
AcDbLine
 10
-738.9079769809322
 20
3216.090539512938
 30
0.0
 11
-1250.907976980932
 21
3216.090539512939
 31
0.0
  0
LINE
  5
1FE15
330
2
100
AcDbEntity
  8
VLB
100
AcDbLine
 10
-577.9079769809323
 20
1844.090539512936
 30
0.0
 11
-577.9079769809323
 21
2034.090539512936
 31
0.0
  0
LINE
  5
1FE16
330
2
100
AcDbEntity
  8
VLB
100
AcDbLine
 10
-579.4079769809322
 20
1844.090539512936
 30
0.0
 11
-579.4079769809322
 21
2034.090539512936
 31
0.0
  0
LINE
  5
1FE17
330
2
100
AcDbEntity
  8
VLB
100
AcDbLine
 10
-740.9079769809323
 20
2034.090539512936
 30
0.0
 11
-740.9079769809323
 21
1844.090539512936
 31
0.0
  0
LINE
  5
1FE18
330
2
100
AcDbEntity
  8
VLB
100
AcDbLine
 10
-739.4079769809323
 20
2034.090539512936
 30
0.0
 11
-739.4079769809323
 21
1844.090539512936
 31
0.0
  0
LINE
  5
1FE19
330
2
100
AcDbEntity
  8
VLB
100
AcDbLine
 10
-738.9079769809322
 20
2035.090539512936
 30
0.0
 11
-738.9079769809322
 21
2015.790539512936
 31
0.0
  0
LINE
  5
1FE1A
330
2
100
AcDbEntity
  8
VLB
100
AcDbLine
 10
-579.9079769809295
 20
2035.090539512935
 30
0.0
 11
-579.9079769809305
 21
2015.790539512936
 31
0.0
  0
LINE
  5
1FE1B
330
2
100
AcDbEntity
  8
SPS
100
AcDbLine
 10
-609.4079769809322
 20
2018.382296658973
 30
0.0
 11
-609.4079769809322
 21
2034.275148736816
 31
0.0
  0
LINE
  5
1FE1C
330
2
100
AcDbEntity
  8
SPS
100
AcDbLine
 10
-603.0966204238575
 20
2025.790539512935
 30
0.0
 11
-616.4373065684994
 21
2025.790539512935
 31
0.0
  0
CIRCLE
  5
1FE1D
330
2
100
AcDbEntity
  8
VLB
100
AcDbCircle
 10
-609.4079769809322
 20
2025.790539512935
 30
0.0
 40
2.550000000006548
  0
CIRCLE
  5
1FE1E
330
2
100
AcDbEntity
  8
VLB
100
AcDbCircle
 10
-609.4079769809322
 20
2025.790539512935
 30
0.0
 40
5.000000000001818
  0
LINE
  5
1FE1F
330
2
100
AcDbEntity
  8
VLB
100
AcDbLine
 10
-577.9079769809323
 20
2034.090539512936
 30
0.0
 11
-579.9079769809286
 21
2034.090539512936
 31
0.0
  0
LINE
  5
1FE20
330
2
100
AcDbEntity
  8
SPS
100
AcDbLine
 10
-703.0966204238575
 20
2025.790539512935
 30
0.0
 11
-716.4373065684994
 21
2025.790539512935
 31
0.0
  0
CIRCLE
  5
1FE21
330
2
100
AcDbEntity
  8
VLB
100
AcDbCircle
 10
-709.4079769809322
 20
2025.790539512935
 30
0.0
 40
5.000000000001818
  0
LINE
  5
1FE22
330
2
100
AcDbEntity
  8
SPS
100
AcDbLine
 10
-709.4079769809322
 20
2018.382296658973
 30
0.0
 11
-709.4079769809322
 21
2034.275148736816
 31
0.0
  0
CIRCLE
  5
1FE23
330
2
100
AcDbEntity
  8
VLB
100
AcDbCircle
 10
-709.4079769809322
 20
2025.790539512935
 30
0.0
 40
2.550000000006548
  0
LINE
  5
1FE24
330
2
100
AcDbEntity
  8
VLB
100
AcDbLine
 10
-738.9079769809304
 20
2034.090539512936
 30
0.0
 11
-740.9079769809323
 21
2034.090539512936
 31
0.0
  0
LINE
  5
1FE25
330
2
100
AcDbEntity
  8
VLB
100
AcDbLine
 10
-738.9079769809322
 20
2015.790539512936
 30
0.0
 11
-579.9079769809322
 21
2015.790539512936
 31
0.0
  0
LINE
  5
1FE26
330
2
100
AcDbEntity
  8
VLB
100
AcDbLine
 10
-577.9079769809323
 20
1865.590539512938
 30
0.0
 11
-579.4079769809322
 21
1865.590539512936
 31
0.0
  0
LINE
  5
1FE27
330
2
100
AcDbEntity
  8
VLB
100
AcDbLine
 10
-739.4079769809323
 20
1865.590539512936
 30
0.0
 11
-740.9079769809323
 21
1865.590539512936
 31
0.0
  0
LINE
  5
1FE28
330
2
100
AcDbEntity
  8
VLB
100
AcDbLine
 10
-740.9079769809323
 20
1844.090539512936
 30
0.0
 11
-577.9079769809323
 21
1844.090539512936
 31
0.0
  0
LINE
  5
1FE29
330
2
100
AcDbEntity
  8
VLB
100
AcDbLine
 10
-579.9079769809295
 20
2034.090539512936
 30
0.0
 11
-68.90797698092865
 21
2034.090539512936
 31
0.0
  0
LINE
  5
1FE2A
330
2
100
AcDbEntity
  8
VLB
100
AcDbLine
 10
-579.9079769809295
 20
2035.090539512935
 30
0.0
 11
-67.90797698092865
 21
2035.090539512935
 31
0.0
  0
LINE
  5
1FE2B
330
2
100
AcDbEntity
  8
VLB
100
AcDbLine
 10
-577.9079769809323
 20
1900.590539512948
 30
0.0
 11
64.59202301906862
 21
1900.590539512952
 31
0.0
  0
LINE
  5
1FE2C
330
2
100
AcDbEntity
  8
VLB
100
AcDbLine
 10
-577.9079769809323
 20
1847.590539512935
 30
0.0
 11
117.592023019069
 21
1847.590539512935
 31
0.0
  0
LINE
  5
1FE32
330
2
100
AcDbEntity
  8
VLB
100
AcDbLine
 10
-1248.907976980932
 20
5720.209034781835
 30
0.0
 11
-1248.907976980932
 21
5643.709034781837
 31
0.0
  0
TEXT
  5
1FE37
330
2
100
AcDbEntity
  8
VLB
100
AcDbText
 10
519.6369349159631
 20
6266.188038735896
 30
0.0
 40
80.0
  1
FDA 31-71..-..
  7
ROMANS8
100
AcDbText
  0
VIEWPORT
  5
51E
330
7
100
AcDbEntity
 67
     1
  8
0
100
AcDbViewport
 10
222.9989965408922
 20
359.8485954918802
 30
0.0
 40
1687.01080625753
 41
963.3348615119601
 68
     1
 69
     1
1001
ACAD
1000
MVIEW
1002
{
1070
    16
1010
0.0
1020
0.0
1030
0.0
1010
0.0
1020
0.0
1030
1.0
1040
0.0
1040
963.3348615119601
1040
222.9989965408922
1040
359.8485954918802
1040
50.0
1040
0.0
1040
0.0
1070
     0
1070
   100
1070
     1
1070
     1
1070
     0
1070
     0
1070
     0
1070
     0
1040
0.0
1040
0.0
1040
0.0
1040
1.0
1040
1.0
1040
10.0
1040
10.0
1070
     0
1002
{
1002
}
1002
}
  0
ENDSEC
  0
SECTION
  2
OBJECTS
  0
DICTIONARY
  5
1A
330
0
100
AcDbDictionary
  3
ACAD_GROUP
350
18
  3
ACAD_LAYOUT
350
EDC7
  3
ACAD_MLINESTYLE
350
19
  3
ACAD_PLOTSETTINGS
350
EDC8
  3
ACAD_PLOTSTYLENAME
350
EDC5
  3
ACDBHEADERROUNDTRIPXREC
350
1FE46
  3
ACDBVARIABLEDICTIONARY
350
EDE7
  3
CONTENTDICTIONARY
350
81A
  0
DICTIONARY
  5
1FE67
330
2
100
AcDbDictionary
280
     1
  3
ACAD_LAYOUTSELFREF
360
1FE68
  0
DICTIONARY
  5
1FE69
330
7
100
AcDbDictionary
280
     1
  3
ACAD_LAYOUTSELFREF
360
1FE6A
  0
DICTIONARY
  5
18
102
{ACAD_REACTORS
330
1A
102
}
330
1A
100
AcDbDictionary
  3
*A1
350
63B1
  3
*A10
350
1C0C
  3
*A100
350
6291
  3
*A1000
350
4833
  3
*A1001
350
4975
  3
*A1002
350
6313
  3
*A1003
350
6382
  3
*A1004
350
637D
  3
*A1005
350
4978
  3
*A1006
350
62D4
  3
*A1007
350
63B5
  3
*A1008
350
49D4
  3
*A1009
350
495D
  3
*A101
350
1BA2
  3
*A1010
350
63E6
  3
*A1011
350
625C
  3
*A1012
350
1C61
  3
*A1013
350
4858
  3
*A1014
350
63B3
  3
*A1015
350
1BE4
  3
*A1016
350
49BE
  3
*A1017
350
493F
  3
*A1018
350
4913
  3
*A1019
350
6245
  3
*A102
350
1B3B
  3
*A1020
350
48C6
  3
*A1021
350
62D8
  3
*A1022
350
37C1
  3
*A1023
350
1BEF
  3
*A1024
350
49F1
  3
*A1025
350
37BC
  3
*A1026
350
489D
  3
*A1027
350
630A
  3
*A1028
350
1B7B
  3
*A1029
350
1457
  3
*A103
350
1B7E
  3
*A1030
350
1B19
  3
*A1031
350
6282
  3
*A1032
350
4898
  3
*A1033
350
6333
  3
*A1034
350
1C28
  3
*A1035
350
63BA
  3
*A1036
350
6398
  3
*A104
350
49AD
  3
*A105
350
48A5
  3
*A106
350
62C1
  3
*A107
350
6292
  3
*A108
350
492A
  3
*A109
350
1B60
  3
*A11
350
1AEF
  3
*A110
350
489B
  3
*A111
350
63FF
  3
*A112
350
4817
  3
*A113
350
4871
  3
*A114
350
49E2
  3
*A115
350
1465
  3
*A116
350
629F
  3
*A117
350
1BEE
  3
*A118
350
63EC
  3
*A119
350
1BEB
  3
*A12
350
4815
  3
*A120
350
4998
  3
*A121
350
480B
  3
*A122
350
625A
  3
*A123
350
493A
  3
*A124
350
1B42
  3
*A125
350
63B0
  3
*A126
350
48AF
  3
*A127
350
49D6
  3
*A128
350
62A3
  3
*A129
350
634B
  3
*A13
350
62A8
  3
*A130
350
490A
  3
*A131
350
4943
  3
*A132
350
6281
  3
*A133
350
62DC
  3
*A134
350
48B0
  3
*A135
350
379D
  3
*A136
350
6385
  3
*A137
350
1AFC
  3
*A138
350
6271
  3
*A139
350
4959
  3
*A14
350
6239
  3
*A140
350
49D9
  3
*A141
350
1C32
  3
*A142
350
491E
  3
*A143
350
1AE9
  3
*A144
350
1B2C
  3
*A145
350
1C36
  3
*A146
350
49C2
  3
*A147
350
6396
  3
*A148
350
6425
  3
*A149
350
49ED
  3
*A15
350
626D
  3
*A150
350
4843
  3
*A151
350
4A11
  3
*A152
350
494A
  3
*A153
350
62FF
  3
*A154
350
6352
  3
*A155
350
1BAE
  3
*A156
350
1AEB
  3
*A157
350
63CF
  3
*A158
350
622C
  3
*A159
350
1C1A
  3
*A16
350
63DE
  3
*A160
350
1B6C
  3
*A161
350
1469
  3
*A162
350
1B6F
  3
*A163
350
1BB5
  3
*A164
350
62DF
  3
*A165
350
6294
  3
*A166
350
62CD
  3
*A167
350
4A15
  3
*A168
350
628C
  3
*A169
350
49B3
  3
*A17
350
62AC
  3
*A170
350
1AFA
  3
*A171
350
48A9
  3
*A172
350
496A
  3
*A173
350
4891
  3
*A174
350
4A06
  3
*A175
350
37B3
  3
*A176
350
483D
  3
*A177
350
37B2
  3
*A178
350
1AD8
  3
*A179
350
37AB
  3
*A18
350
63E2
  3
*A180
350
495C
  3
*A181
350
62C4
  3
*A182
350
4834
  3
*A183
350
6365
  3
*A184
350
488D
  3
*A185
350
635F
  3
*A186
350
48B1
  3
*A187
350
1B1D
  3
*A188
350
1C5A
  3
*A189
350
63B2
  3
*A19
350
496B
  3
*A190
350
1B82
  3
*A191
350
48A2
  3
*A192
350
1B0A
  3
*A193
350
6229
  3
*A194
350
1C59
  3
*A195
350
1B88
  3
*A196
350
625B
  3
*A197
350
1B04
  3
*A198
350
487A
  3
*A199
350
1B2B
  3
*A2
350
6232
  3
*A20
350
487E
  3
*A200
350
63A2
  3
*A201
350
4844
  3
*A202
350
1B35
  3
*A203
350
6402
  3
*A204
350
63D6
  3
*A205
350
62A2
  3
*A206
350
6350
  3
*A207
350
6400
  3
*A208
350
6399
  3
*A209
350
1ACE
  3
*A21
350
1BA6
  3
*A210
350
1BB4
  3
*A211
350
1C03
  3
*A212
350
4995
  3
*A213
350
1C45
  3
*A214
350
49FC
  3
*A215
350
6283
  3
*A216
350
6284
  3
*A217
350
6341
  3
*A218
350
1BA8
  3
*A219
350
63F0
  3
*A22
350
482D
  3
*A220
350
49D8
  3
*A221
350
4990
  3
*A222
350
629B
  3
*A223
350
1C0E
  3
*A224
350
1460
  3
*A225
350
6381
  3
*A226
350
37B9
  3
*A227
350
1C51
  3
*A228
350
1AD1
  3
*A229
350
1AF3
  3
*A23
350
4886
  3
*A230
350
635B
  3
*A231
350
1BBD
  3
*A232
350
1B16
  3
*A233
350
1B62
  3
*A234
350
494D
  3
*A235
350
1AFD
  3
*A236
350
37C2
  3
*A237
350
49D5
  3
*A238
350
6298
  3
*A239
350
4A0F
  3
*A24
350
1BC2
  3
*A240
350
6392
  3
*A241
350
1BED
  3
*A242
350
1BF5
  3
*A243
350
62E9
  3
*A244
350
48B3
  3
*A245
350
62C8
  3
*A246
350
638B
  3
*A247
350
48E3
  3
*A248
350
4929
  3
*A249
350
4909
  3
*A25
350
1BFC
  3
*A250
350
6316
  3
*A251
350
37BF
  3
*A252
350
1BBB
  3
*A253
350
6304
  3
*A254
350
1BE1
  3
*A255
350
49F0
  3
*A256
350
1AEC
  3
*A257
350
498C
  3
*A258
350
1B0C
  3
*A259
350
1BB6
  3
*A26
350
487F
  3
*A260
350
48CC
  3
*A261
350
1B2F
  3
*A262
350
488F
  3
*A263
350
625E
  3
*A264
350
4989
  3
*A265
350
4899
  3
*A266
350
1BBF
  3
*A267
350
63C9
  3
*A268
350
6375
  3
*A269
350
4911
  3
*A27
350
4968
  3
*A270
350
635C
  3
*A271
350
487D
  3
*A272
350
493C
  3
*A273
350
1B5D
  3
*A274
350
63BB
  3
*A275
350
637A
  3
*A276
350
6261
  3
*A277
350
49CF
  3
*A278
350
6262
  3
*A279
350
1C02
  3
*A28
350
49C3
  3
*A280
350
6394
  3
*A281
350
1BB1
  3
*A282
350
48E8
  3
*A283
350
62A6
  3
*A284
350
37A3
  3
*A285
350
49AA
  3
*A286
350
63BC
  3
*A287
350
62AF
  3
*A288
350
48E1
  3
*A289
350
6311
  3
*A29
350
49EF
  3
*A290
350
6369
  3
*A291
350
1C53
  3
*A292
350
499A
  3
*A293
350
4874
  3
*A294
350
1C39
  3
*A295
350
4896
  3
*A296
350
481F
  3
*A297
350
1459
  3
*A298
350
49F8
  3
*A299
350
4974
  3
*A3
350
4895
  3
*A30
350
6322
  3
*A300
350
497E
  3
*A301
350
1AD0
  3
*A302
350
639E
  3
*A303
350
6220
  3
*A304
350
63E1
  3
*A305
350
6300
  3
*A306
350
48B4
  3
*A307
350
4A17
  3
*A308
350
1B92
  3
*A309
350
1B2A
  3
*A31
350
4991
  3
*A310
350
48D2
  3
*A311
350
1C15
  3
*A312
350
1C58
  3
*A313
350
49BD
  3
*A314
350
1B8B
  3
*A315
350
1C1B
  3
*A316
350
634C
  3
*A317
350
495E
  3
*A318
350
1C20
  3
*A319
350
1C3A
  3
*A32
350
48C8
  3
*A320
350
49E8
  3
*A321
350
37A6
  3
*A322
350
635A
  3
*A323
350
1BD4
  3
*A324
350
62A0
  3
*A325
350
4997
  3
*A326
350
6317
  3
*A327
350
1C47
  3
*A328
350
1C21
  3
*A329
350
1AEE
  3
*A33
350
62B2
  3
*A330
350
6248
  3
*A331
350
1AED
  3
*A332
350
497F
  3
*A333
350
1C48
  3
*A334
350
1BD3
  3
*A335
350
48BB
  3
*A336
350
1C37
  3
*A337
350
1C44
  3
*A338
350
633C
  3
*A339
350
49F6
  3
*A34
350
62CA
  3
*A340
350
496F
  3
*A341
350
62AA
  3
*A342
350
49D3
  3
*A343
350
4955
  3
*A344
350
1BE9
  3
*A345
350
49C7
  3
*A346
350
48AC
  3
*A347
350
6327
  3
*A348
350
4973
  3
*A349
350
1B4A
  3
*A35
350
1B3E
  3
*A350
350
1C08
  3
*A351
350
62F1
  3
*A352
350
1BBA
  3
*A353
350
484C
  3
*A354
350
1462
  3
*A355
350
1B13
  3
*A356
350
62C2
  3
*A357
350
1C46
  3
*A358
350
63AC
  3
*A359
350
62F5
  3
*A36
350
633A
  3
*A360
350
628F
  3
*A361
350
1BF9
  3
*A362
350
1466
  3
*A363
350
1B69
  3
*A364
350
48F2
  3
*A365
350
49DD
  3
*A366
350
4894
  3
*A367
350
1B75
  3
*A368
350
48E6
  3
*A369
350
1C2B
  3
*A37
350
1C27
  3
*A370
350
629C
  3
*A371
350
4937
  3
*A372
350
1458
  3
*A373
350
1BC4
  3
*A374
350
63D2
  3
*A375
350
1C4D
  3
*A376
350
48F5
  3
*A377
350
4813
  3
*A378
350
63B6
  3
*A379
350
49EB
  3
*A38
350
486C
  3
*A380
350
37C0
  3
*A381
350
1BCC
  3
*A382
350
4A03
  3
*A383
350
6242
  3
*A384
350
48B7
  3
*A385
350
497D
  3
*A386
350
4912
  3
*A387
350
48FF
  3
*A388
350
630E
  3
*A389
350
6370
  3
*A39
350
1C56
  3
*A390
350
622D
  3
*A391
350
4988
  3
*A392
350
62BE
  3
*A393
350
6241
  3
*A394
350
48FC
  3
*A395
350
4958
  3
*A396
350
63EA
  3
*A397
350
1BDF
  3
*A398
350
6307
  3
*A399
350
4824
  3
*A4
350
63DD
  3
*A40
350
489E
  3
*A400
350
49C9
  3
*A401
350
499B
  3
*A402
350
37A5
  3
*A403
350
6236
  3
*A404
350
6264
  3
*A405
350
1B70
  3
*A406
350
37B5
  3
*A407
350
63C2
  3
*A408
350
4952
  3
*A409
350
49B1
  3
*A41
350
48BD
  3
*A410
350
49A5
  3
*A411
350
1BD1
  3
*A412
350
1B99
  3
*A413
350
4993
  3
*A414
350
4948
  3
*A415
350
63FC
  3
*A416
350
62F9
  3
*A417
350
4981
  3
*A418
350
4962
  3
*A419
350
4931
  3
*A42
350
1B22
  3
*A420
350
4932
  3
*A421
350
1C23
  3
*A422
350
1BF6
  3
*A423
350
63A8
  3
*A424
350
63A5
  3
*A425
350
379B
  3
*A426
350
62A5
  3
*A427
350
6227
  3
*A428
350
1B79
  3
*A429
350
4880
  3
*A43
350
1AE0
  3
*A430
350
1B8C
  3
*A431
350
49AB
  3
*A432
350
1B72
  3
*A433
350
621A
  3
*A434
350
1BDE
  3
*A435
350
48EC
  3
*A436
350
638A
  3
*A437
350
4890
  3
*A438
350
6309
  3
*A439
350
1BFB
  3
*A44
350
4864
  3
*A440
350
497B
  3
*A441
350
62D3
  3
*A442
350
6233
  3
*A443
350
1BB7
  3
*A444
350
1C01
  3
*A445
350
62AE
  3
*A446
350
48E0
  3
*A447
350
633E
  3
*A448
350
63D9
  3
*A449
350
6424
  3
*A45
350
492D
  3
*A450
350
48B5
  3
*A451
350
4964
  3
*A452
350
4884
  3
*A453
350
1B41
  3
*A454
350
1BB2
  3
*A455
350
49CB
  3
*A456
350
145B
  3
*A457
350
1AE5
  3
*A458
350
4950
  3
*A459
350
1B5F
  3
*A46
350
6308
  3
*A460
350
4845
  3
*A461
350
1C05
  3
*A462
350
1C4E
  3
*A463
350
49B9
  3
*A464
350
63E3
  3
*A465
350
1BF3
  3
*A466
350
1C35
  3
*A467
350
4946
  3
*A468
350
62C3
  3
*A469
350
6219
  3
*A47
350
63F7
  3
*A470
350
631E
  3
*A471
350
49AE
  3
*A472
350
4A01
  3
*A473
350
4847
  3
*A474
350
37A9
  3
*A475
350
6395
  3
*A476
350
1B24
  3
*A477
350
49EA
  3
*A478
350
497C
  3
*A479
350
63B7
  3
*A48
350
63CA
  3
*A480
350
1B12
  3
*A481
350
37B7
  3
*A482
350
63D1
  3
*A483
350
1C22
  3
*A484
350
638C
  3
*A485
350
6362
  3
*A486
350
62C0
  3
*A487
350
1C3F
  3
*A488
350
1B07
  3
*A489
350
636B
  3
*A49
350
1BD5
  3
*A490
350
1B51
  3
*A491
350
4967
  3
*A492
350
482C
  3
*A493
350
634D
  3
*A494
350
49E4
  3
*A495
350
49BC
  3
*A496
350
49A9
  3
*A497
350
6359
  3
*A498
350
4926
  3
*A499
350
1ACF
  3
*A5
350
1B7F
  3
*A50
350
4A18
  3
*A500
350
1B09
  3
*A501
350
634E
  3
*A502
350
4872
  3
*A503
350
6404
  3
*A504
350
1B6A
  3
*A505
350
63D4
  3
*A506
350
63FA
  3
*A507
350
63F8
  3
*A508
350
1B8D
  3
*A509
350
6357
  3
*A51
350
49B2
  3
*A510
350
1B03
  3
*A511
350
6224
  3
*A512
350
1C24
  3
*A513
350
1C07
  3
*A514
350
6417
  3
*A515
350
1B53
  3
*A516
350
63FE
  3
*A517
350
486F
  3
*A518
350
1BBE
  3
*A519
350
62ED
  3
*A52
350
1BC0
  3
*A520
350
62B9
  3
*A521
350
49E6
  3
*A522
350
632B
  3
*A523
350
6406
  3
*A524
350
6240
  3
*A525
350
482E
  3
*A526
350
48E4
  3
*A527
350
1B98
  3
*A528
350
4811
  3
*A529
350
1C18
  3
*A53
350
37AD
  3
*A530
350
623F
  3
*A531
350
49D2
  3
*A532
350
4903
  3
*A533
350
63CB
  3
*A534
350
1BD8
  3
*A535
350
6393
  3
*A536
350
6383
  3
*A537
350
63E5
  3
*A538
350
639D
  3
*A539
350
6277
  3
*A54
350
1BD6
  3
*A540
350
1BB8
  3
*A541
350
489F
  3
*A542
350
49CA
  3
*A543
350
1B58
  3
*A544
350
62EE
  3
*A545
350
63E7
  3
*A546
350
48D3
  3
*A547
350
4905
  3
*A548
350
6415
  3
*A549
350
49CE
  3
*A55
350
1C1C
  3
*A550
350
48DC
  3
*A551
350
379A
  3
*A552
350
49FA
  3
*A553
350
37AC
  3
*A554
350
49A6
  3
*A555
350
636F
  3
*A556
350
1B7D
  3
*A557
350
4882
  3
*A558
350
637C
  3
*A559
350
4957
  3
*A56
350
1B52
  3
*A560
350
484D
  3
*A561
350
49B7
  3
*A562
350
49BA
  3
*A563
350
1BCD
  3
*A564
350
6223
  3
*A565
350
4A08
  3
*A566
350
1BEC
  3
*A567
350
488B
  3
*A568
350
1ACD
  3
*A569
350
4999
  3
*A57
350
48DA
  3
*A570
350
629A
  3
*A571
350
1B45
  3
*A572
350
6222
  3
*A573
350
6218
  3
*A574
350
4915
  3
*A575
350
491A
  3
*A576
350
48FE
  3
*A577
350
1C29
  3
*A578
350
1BF8
  3
*A579
350
624F
  3
*A58
350
1B1A
  3
*A580
350
1AF2
  3
*A581
350
48B2
  3
*A582
350
37AE
  3
*A583
350
63D7
  3
*A584
350
6216
  3
*A585
350
1B37
  3
*A586
350
4986
  3
*A587
350
1B54
  3
*A588
350
4821
  3
*A589
350
37A1
  3
*A59
350
1B80
  3
*A590
350
6378
  3
*A591
350
1B34
  3
*A592
350
1B8E
  3
*A593
350
1B9F
  3
*A594
350
63D3
  3
*A595
350
1B49
  3
*A596
350
1B9D
  3
*A597
350
4893
  3
*A598
350
63BF
  3
*A599
350
6364
  3
*A6
350
62E0
  3
*A60
350
6348
  3
*A600
350
623D
  3
*A601
350
627C
  3
*A602
350
4839
  3
*A603
350
1B36
  3
*A604
350
62A9
  3
*A605
350
494C
  3
*A606
350
1454
  3
*A607
350
62BF
  3
*A608
350
4830
  3
*A609
350
63C7
  3
*A61
350
1B28
  3
*A610
350
4944
  3
*A611
350
6263
  3
*A612
350
1B65
  3
*A613
350
1BD7
  3
*A614
350
49FF
  3
*A615
350
49F3
  3
*A616
350
62F3
  3
*A617
350
1AF6
  3
*A618
350
1C0D
  3
*A619
350
480C
  3
*A62
350
484E
  3
*A620
350
49E5
  3
*A621
350
4825
  3
*A622
350
1C10
  3
*A623
350
1BDC
  3
*A624
350
37B4
  3
*A625
350
1B57
  3
*A626
350
4A09
  3
*A627
350
4970
  3
*A628
350
1C3E
  3
*A629
350
1C4F
  3
*A63
350
1B87
  3
*A630
350
62FB
  3
*A631
350
627E
  3
*A632
350
6237
  3
*A633
350
1C1F
  3
*A634
350
6320
  3
*A635
350
631F
  3
*A636
350
379C
  3
*A637
350
1B46
  3
*A638
350
37A0
  3
*A639
350
1C04
  3
*A64
350
1BE5
  3
*A640
350
63AB
  3
*A641
350
49C5
  3
*A642
350
1B6B
  3
*A643
350
495F
  3
*A644
350
1AFB
  3
*A645
350
1ADC
  3
*A646
350
1B97
  3
*A647
350
624B
  3
*A648
350
4A19
  3
*A649
350
1B85
  3
*A65
350
1ADE
  3
*A650
350
4818
  3
*A651
350
63A6
  3
*A652
350
4910
  3
*A653
350
6389
  3
*A654
350
145C
  3
*A655
350
1B44
  3
*A656
350
490E
  3
*A657
350
1C40
  3
*A658
350
1C33
  3
*A659
350
1C0F
  3
*A66
350
1B23
  3
*A660
350
635D
  3
*A661
350
48CD
  3
*A662
350
6358
  3
*A663
350
1C2C
  3
*A664
350
49BF
  3
*A665
350
1BC3
  3
*A666
350
4838
  3
*A667
350
1B17
  3
*A668
350
1B71
  3
*A669
350
145D
  3
*A67
350
62E7
  3
*A670
350
4820
  3
*A671
350
638E
  3
*A672
350
1C31
  3
*A673
350
6416
  3
*A674
350
62D6
  3
*A675
350
640E
  3
*A676
350
1B5A
  3
*A677
350
631B
  3
*A678
350
48F7
  3
*A679
350
1B40
  3
*A68
350
1B66
  3
*A680
350
1C2E
  3
*A681
350
4885
  3
*A682
350
1B1C
  3
*A683
350
62D5
  3
*A684
350
6344
  3
*A685
350
486A
  3
*A686
350
1B3F
  3
*A687
350
628B
  3
*A688
350
494E
  3
*A689
350
6312
  3
*A69
350
49A8
  3
*A690
350
48C7
  3
*A691
350
1BAC
  3
*A692
350
493B
  3
*A693
350
4A13
  3
*A694
350
62A1
  3
*A695
350
1B11
  3
*A696
350
633F
  3
*A697
350
1464
  3
*A698
350
48EE
  3
*A699
350
4877
  3
*A7
350
6407
  3
*A70
350
1BD2
  3
*A700
350
49D0
  3
*A701
350
1B61
  3
*A702
350
63B8
  3
*A703
350
48DE
  3
*A704
350
62D9
  3
*A705
350
6310
  3
*A706
350
492F
  3
*A707
350
145F
  3
*A708
350
63AA
  3
*A709
350
48E2
  3
*A71
350
48CA
  3
*A710
350
48A1
  3
*A711
350
499F
  3
*A712
350
6388
  3
*A713
350
4860
  3
*A714
350
1BF1
  3
*A715
350
1468
  3
*A716
350
62B6
  3
*A717
350
4828
  3
*A718
350
4938
  3
*A719
350
4940
  3
*A72
350
1BFD
  3
*A720
350
48D8
  3
*A721
350
63F1
  3
*A722
350
48ED
  3
*A723
350
1B15
  3
*A724
350
62BD
  3
*A725
350
1C2F
  3
*A726
350
1B7C
  3
*A727
350
3798
  3
*A728
350
1AE3
  3
*A729
350
636C
  3
*A73
350
37B1
  3
*A730
350
4889
  3
*A731
350
63C4
  3
*A732
350
1B33
  3
*A733
350
629E
  3
*A734
350
623C
  3
*A735
350
484B
  3
*A736
350
1B76
  3
*A737
350
1BA1
  3
*A738
350
1B63
  3
*A739
350
63DB
  3
*A74
350
4816
  3
*A740
350
4851
  3
*A741
350
62E2
  3
*A742
350
1AE4
  3
*A743
350
628D
  3
*A744
350
641E
  3
*A745
350
639B
  3
*A746
350
6259
  3
*A747
350
62BC
  3
*A748
350
4985
  3
*A749
350
481C
  3
*A75
350
63B4
  3
*A750
350
495A
  3
*A751
350
48F3
  3
*A752
350
622E
  3
*A753
350
1B90
  3
*A754
350
4A0A
  3
*A755
350
632A
  3
*A756
350
1C06
  3
*A757
350
62EB
  3
*A758
350
1B21
  3
*A759
350
1BA4
  3
*A76
350
640F
  3
*A760
350
62FA
  3
*A761
350
6366
  3
*A762
350
1C0B
  3
*A763
350
49A3
  3
*A764
350
1B0F
  3
*A765
350
1ADB
  3
*A766
350
494F
  3
*A767
350
6235
  3
*A768
350
48FD
  3
*A769
350
1B9B
  3
*A77
350
4906
  3
*A770
350
6380
  3
*A771
350
49A4
  3
*A772
350
486D
  3
*A773
350
482A
  3
*A774
350
4835
  3
*A775
350
1C11
  3
*A776
350
483B
  3
*A777
350
4965
  3
*A778
350
4904
  3
*A779
350
1AEA
  3
*A78
350
1C0A
  3
*A780
350
1AD3
  3
*A781
350
6296
  3
*A782
350
48CF
  3
*A783
350
6257
  3
*A784
350
1ACB
  3
*A785
350
1B05
  3
*A786
350
48B6
  3
*A787
350
498E
  3
*A788
350
4876
  3
*A789
350
62FC
  3
*A79
350
48C0
  3
*A790
350
484F
  3
*A791
350
4976
  3
*A792
350
1BA0
  3
*A793
350
63A0
  3
*A794
350
1BA9
  3
*A795
350
48A6
  3
*A796
350
6411
  3
*A797
350
6374
  3
*A798
350
1C55
  3
*A799
350
1B81
  3
*A8
350
498B
  3
*A80
350
627A
  3
*A800
350
1B29
  3
*A801
350
48FB
  3
*A802
350
63A7
  3
*A803
350
4854
  3
*A804
350
1AFE
  3
*A805
350
6265
  3
*A806
350
37C3
  3
*A807
350
480D
  3
*A808
350
49C6
  3
*A809
350
6254
  3
*A81
350
1C5F
  3
*A810
350
1BC5
  3
*A811
350
1455
  3
*A812
350
48CE
  3
*A813
350
6345
  3
*A814
350
6287
  3
*A815
350
63F3
  3
*A816
350
63E0
  3
*A817
350
37A2
  3
*A818
350
1B32
  3
*A819
350
6367
  3
*A82
350
62E4
  3
*A820
350
494B
  3
*A821
350
1C49
  3
*A822
350
1B30
  3
*A823
350
49DF
  3
*A824
350
629D
  3
*A825
350
6419
  3
*A826
350
49F7
  3
*A827
350
641C
  3
*A828
350
6355
  3
*A829
350
63C0
  3
*A83
350
63CC
  3
*A830
350
62DB
  3
*A831
350
4826
  3
*A832
350
6305
  3
*A833
350
6293
  3
*A834
350
1AE7
  3
*A835
350
6426
  3
*A836
350
6410
  3
*A837
350
1B4E
  3
*A838
350
1C16
  3
*A839
350
48D7
  3
*A84
350
1C26
  3
*A840
350
1BE7
  3
*A841
350
6376
  3
*A842
350
49F9
  3
*A843
350
37B8
  3
*A844
350
1AF9
  3
*A845
350
4994
  3
*A846
350
1BA7
  3
*A847
350
1B67
  3
*A848
350
37AF
  3
*A849
350
4941
  3
*A85
350
624A
  3
*A850
350
1B31
  3
*A851
350
6336
  3
*A852
350
1B4D
  3
*A853
350
1AF8
  3
*A854
350
63DF
  3
*A855
350
63D8
  3
*A856
350
6251
  3
*A857
350
482F
  3
*A858
350
488E
  3
*A859
350
1BC6
  3
*A86
350
1C2A
  3
*A860
350
1B96
  3
*A861
350
49A7
  3
*A862
350
489A
  3
*A863
350
6246
  3
*A864
350
496D
  3
*A865
350
62DA
  3
*A866
350
499E
  3
*A867
350
640D
  3
*A868
350
1BAF
  3
*A869
350
6349
  3
*A87
350
48A7
  3
*A870
350
1C30
  3
*A871
350
1B2D
  3
*A872
350
49D1
  3
*A873
350
4969
  3
*A874
350
48EA
  3
*A875
350
493E
  3
*A876
350
49F2
  3
*A877
350
62E8
  3
*A878
350
6225
  3
*A879
350
62D7
  3
*A88
350
62F0
  3
*A880
350
1B01
  3
*A881
350
1C38
  3
*A882
350
4939
  3
*A883
350
623E
  3
*A884
350
48DB
  3
*A885
350
63A4
  3
*A886
350
49AF
  3
*A887
350
623A
  3
*A888
350
6403
  3
*A889
350
62B3
  3
*A89
350
4987
  3
*A890
350
1B9C
  3
*A891
350
1AF1
  3
*A892
350
6250
  3
*A893
350
6372
  3
*A894
350
4963
  3
*A895
350
4832
  3
*A896
350
6351
  3
*A897
350
6243
  3
*A898
350
48EF
  3
*A899
350
62D0
  3
*A9
350
1AE6
  3
*A90
350
6409
  3
*A900
350
48D5
  3
*A901
350
6422
  3
*A902
350
63FD
  3
*A903
350
628A
  3
*A904
350
4A00
  3
*A905
350
6258
  3
*A906
350
1BC8
  3
*A907
350
491D
  3
*A908
350
37BA
  3
*A909
350
1BE6
  3
*A91
350
4934
  3
*A910
350
4875
  3
*A911
350
4831
  3
*A912
350
630B
  3
*A913
350
6353
  3
*A914
350
62A7
  3
*A915
350
1B0D
  3
*A916
350
1B39
  3
*A917
350
1AD5
  3
*A918
350
489C
  3
*A919
350
1AF7
  3
*A92
350
623B
  3
*A920
350
1B4C
  3
*A921
350
627F
  3
*A922
350
6252
  3
*A923
350
48C3
  3
*A924
350
1BFF
  3
*A925
350
63D0
  3
*A926
350
621E
  3
*A927
350
6371
  3
*A928
350
49CC
  3
*A929
350
63A1
  3
*A93
350
62AB
  3
*A930
350
481A
  3
*A931
350
1BDB
  3
*A932
350
1B6D
  3
*A933
350
63F2
  3
*A934
350
4855
  3
*A935
350
1ADD
  3
*A936
350
1C12
  3
*A937
350
1C57
  3
*A938
350
484A
  3
*A939
350
4908
  3
*A94
350
6231
  3
*A940
350
4836
  3
*A941
350
4856
  3
*A942
350
48CB
  3
*A943
350
483E
  3
*A944
350
4809
  3
*A945
350
1BD9
  3
*A946
350
62E5
  3
*A947
350
63F5
  3
*A948
350
1AD6
  3
*A949
350
6420
  3
*A95
350
499D
  3
*A950
350
62B4
  3
*A951
350
49DA
  3
*A952
350
63BE
  3
*A953
350
1C5B
  3
*A954
350
6315
  3
*A955
350
4892
  3
*A956
350
630C
  3
*A957
350
4901
  3
*A958
350
1C60
  3
*A959
350
6413
  3
*A96
350
63C6
  3
*A960
350
1BA5
  3
*A961
350
4829
  3
*A962
350
48A3
  3
*A963
350
62EF
  3
*A964
350
6377
  3
*A965
350
4857
  3
*A966
350
4945
  3
*A967
350
1B94
  3
*A968
350
49B5
  3
*A969
350
1BFE
  3
*A97
350
63EF
  3
*A970
350
1BF0
  3
*A971
350
6405
  3
*A972
350
1C1D
  3
*A973
350
1BCF
  3
*A974
350
48C9
  3
*A975
350
1B6E
  3
*A976
350
6279
  3
*A977
350
63DC
  3
*A978
350
4842
  3
*A979
350
4A02
  3
*A98
350
1BEA
  3
*A980
350
1C5D
  3
*A981
350
631D
  3
*A982
350
1C25
  3
*A983
350
1B77
  3
*A984
350
49E3
  3
*A985
350
6337
  3
*A986
350
1B50
  3
*A987
350
48F8
  3
*A988
350
4A04
  3
*A989
350
636A
  3
*A99
350
6346
  3
*A990
350
6347
  3
*A991
350
4A0C
  3
*A992
350
640C
  3
*A993
350
49C4
  3
*A994
350
4887
  3
*A995
350
62B0
  3
*A996
350
48FA
  3
*A997
350
49F5
  3
*A998
350
6302
  3
*A999
350
62F7
  0
DICTIONARY
  5
EDC7
102
{ACAD_REACTORS
330
1A
102
}
330
1A
100
AcDbDictionary
  0
DICTIONARY
  5
19
102
{ACAD_REACTORS
330
1A
102
}
330
1A
100
AcDbDictionary
  3
STANDARD
350
1D
  0
DICTIONARY
  5
EDC8
102
{ACAD_REACTORS
330
1A
102
}
330
1A
100
AcDbDictionary
  0
ACDBDICTIONARYWDFLT
  5
EDC5
102
{ACAD_REACTORS
330
1A
102
}
330
1A
100
AcDbDictionary
281
     1
  3
Normal
350
EDC6
100
AcDbDictionaryWithDefault
340
EDC6
  0
DICTIONARY
  5
1FE46
102
{ACAD_REACTORS
330
1A
102
}
330
1A
100
AcDbDictionary
  3
CEPSNTYPE
350
1FE50
  3
DIMSTYLEDATA
350
1FE54
  3
FINGERPRINTGUID
350
1FE51
  3
HYPERLINKBASE
350
1FE49
  3
INSUNITS
350
1FE4F
  3
LAYOUTDICT
350
1FE4B
  3
LWETCUNION
350
1FE4E
  3
PLOTSETDICT
350
1FE4C
  3
PLOTSTYLNAMDICT
350
1FE4D
  3
PSVPSCALE
350
1FE53
  3
PUCSBASE
350
1FE57
  3
PUCSORGBACK
350
1FE5D
  3
PUCSORGBOTTOM
350
1FE59
  3
PUCSORGFRONT
350
1FE5C
  3
PUCSORGLEFT
350
1FE5A
  3
PUCSORGRIGHT
350
1FE5B
  3
PUCSORGTOP
350
1FE58
  3
PUCSORTHOREF
350
1FE55
  3
PUCSORTHOVIEW
350
1FE56
  3
STYLESHEET
350
1FE4A
  3
TSTACKALIGN
350
1FE47
  3
TSTACKSIZE
350
1FE48
  3
UCSBASE
350
1FE60
  3
UCSORGBACK
350
1FE66
  3
UCSORGBOTTOM
350
1FE62
  3
UCSORGFRONT
350
1FE65
  3
UCSORGLEFT
350
1FE63
  3
UCSORGRIGHT
350
1FE64
  3
UCSORGTOP
350
1FE61
  3
UCSORTHOREF
350
1FE5E
  3
UCSORTHOVIEW
350
1FE5F
  3
VERSIONGUID
350
1FE52
  0
DICTIONARY
  5
EDE7
102
{ACAD_REACTORS
330
1A
102
}
330
1A
100
AcDbDictionary
  3
DIMASSOC
350
EDE8
  0
DICTIONARY
  5
81A
102
{ACAD_REACTORS
330
1A
102
}
330
1A
100
AcDbDictionary
  0
XRECORD
  5
1FE68
102
{ACAD_REACTORS
330
1FE67
102
}
330
1FE67
100
AcDbXrecord
340
2
  0
XRECORD
  5
1FE6A
102
{ACAD_REACTORS
330
1FE69
102
}
330
1FE69
100
AcDbXrecord
340
7
  0
GROUP
  5
63B1
102
{ACAD_REACTORS
330
18
102
}
330
18
100
AcDbGroup
300

 70
     3
 71
     0
  0
GROUP
  5
1C0C
102
{ACAD_REACTORS
330
18
102
}
330
18
100
AcDbGroup
300

 70
     3
 71
     0
  0
GROUP
  5
6291
102
{ACAD_REACTORS
330
18
102
}
330
18
100
AcDbGroup
300

 70
     3
 71
     0
  0
GROUP
  5
4833
102
{ACAD_REACTORS
330
18
102
}
330
18
100
AcDbGroup
300

 70
     3
 71
     0
  0
GROUP
  5
4975
102
{ACAD_REACTORS
330
18
102
}
330
18
100
AcDbGroup
300

 70
     3
 71
     0
  0
GROUP
  5
6313
102
{ACAD_REACTORS
330
18
102
}
330
18
100
AcDbGroup
300

 70
     3
 71
     0
  0
GROUP
  5
6382
102
{ACAD_REACTORS
330
18
102
}
330
18
100
AcDbGroup
300

 70
     3
 71
     0
  0
GROUP
  5
637D
102
{ACAD_REACTORS
330
18
102
}
330
18
100
AcDbGroup
300

 70
     3
 71
     0
  0
GROUP
  5
4978
102
{ACAD_REACTORS
330
18
102
}
330
18
100
AcDbGroup
300

 70
     3
 71
     0
  0
GROUP
  5
62D4
102
{ACAD_REACTORS
330
18
102
}
330
18
100
AcDbGroup
300

 70
     3
 71
     1
  0
GROUP
  5
63B5
102
{ACAD_REACTORS
330
18
102
}
330
18
100
AcDbGroup
300

 70
     3
 71
     0
  0
GROUP
  5
49D4
102
{ACAD_REACTORS
330
18
102
}
330
18
100
AcDbGroup
300

 70
     3
 71
     0
  0
GROUP
  5
495D
102
{ACAD_REACTORS
330
18
102
}
330
18
100
AcDbGroup
300

 70
     3
 71
     0
  0
GROUP
  5
1BA2
102
{ACAD_REACTORS
330
18
102
}
330
18
100
AcDbGroup
300

 70
     3
 71
     0
  0
GROUP
  5
63E6
102
{ACAD_REACTORS
330
18
102
}
330
18
100
AcDbGroup
300

 70
     3
 71
     0
  0
GROUP
  5
625C
102
{ACAD_REACTORS
330
18
102
}
330
18
100
AcDbGroup
300

 70
     3
 71
     0
  0
GROUP
  5
1C61
102
{ACAD_REACTORS
330
18
102
}
330
18
100
AcDbGroup
300

 70
     3
 71
     0
  0
GROUP
  5
4858
102
{ACAD_REACTORS
330
18
102
}
330
18
100
AcDbGroup
300

 70
     3
 71
     0
  0
GROUP
  5
63B3
102
{ACAD_REACTORS
330
18
102
}
330
18
100
AcDbGroup
300

 70
     3
 71
     0
  0
GROUP
  5
1BE4
102
{ACAD_REACTORS
330
18
102
}
330
18
100
AcDbGroup
300

 70
     3
 71
     0
  0
GROUP
  5
49BE
102
{ACAD_REACTORS
330
18
102
}
330
18
100
AcDbGroup
300

 70
     3
 71
     0
  0
GROUP
  5
493F
102
{ACAD_REACTORS
330
18
102
}
330
18
100
AcDbGroup
300

 70
     3
 71
     0
  0
GROUP
  5
4913
102
{ACAD_REACTORS
330
18
102
}
330
18
100
AcDbGroup
300

 70
     3
 71
     0
  0
GROUP
  5
6245
102
{ACAD_REACTORS
330
18
102
}
330
18
100
AcDbGroup
300

 70
     3
 71
     0
  0
GROUP
  5
1B3B
102
{ACAD_REACTORS
330
18
102
}
330
18
100
AcDbGroup
300

 70
     3
 71
     0
  0
GROUP
  5
48C6
102
{ACAD_REACTORS
330
18
102
}
330
18
100
AcDbGroup
300

 70
     3
 71
     1
  0
GROUP
  5
62D8
102
{ACAD_REACTORS
330
18
102
}
330
18
100
AcDbGroup
300

 70
     3
 71
     0
  0
GROUP
  5
37C1
102
{ACAD_REACTORS
330
18
102
}
330
18
100
AcDbGroup
300

 70
     3
 71
     0
  0
GROUP
  5
1BEF
102
{ACAD_REACTORS
330
18
102
}
330
18
100
AcDbGroup
300

 70
     3
 71
     0
  0
GROUP
  5
49F1
102
{ACAD_REACTORS
330
18
102
}
330
18
100
AcDbGroup
300

 70
     3
 71
     0
  0
GROUP
  5
37BC
102
{ACAD_REACTORS
330
18
102
}
330
18
100
AcDbGroup
300

 70
     3
 71
     0
  0
GROUP
  5
489D
102
{ACAD_REACTORS
330
18
102
}
330
18
100
AcDbGroup
300

 70
     3
 71
     0
  0
GROUP
  5
630A
102
{ACAD_REACTORS
330
18
102
}
330
18
100
AcDbGroup
300

 70
     3
 71
     0
  0
GROUP
  5
1B7B
102
{ACAD_REACTORS
330
18
102
}
330
18
100
AcDbGroup
300

 70
     3
 71
     0
  0
GROUP
  5
1457
102
{ACAD_REACTORS
330
18
102
}
330
18
100
AcDbGroup
300

 70
     3
 71
     0
  0
GROUP
  5
1B7E
102
{ACAD_REACTORS
330
18
102
}
330
18
100
AcDbGroup
300

 70
     3
 71
     0
  0
GROUP
  5
1B19
102
{ACAD_REACTORS
330
18
102
}
330
18
100
AcDbGroup
300

 70
     3
 71
     0
  0
GROUP
  5
6282
102
{ACAD_REACTORS
330
18
102
}
330
18
100
AcDbGroup
300

 70
     3
 71
     0
  0
GROUP
  5
4898
102
{ACAD_REACTORS
330
18
102
}
330
18
100
AcDbGroup
300

 70
     3
 71
     0
  0
GROUP
  5
6333
102
{ACAD_REACTORS
330
18
102
}
330
18
100
AcDbGroup
300

 70
     3
 71
     0
  0
GROUP
  5
1C28
102
{ACAD_REACTORS
330
18
102
}
330
18
100
AcDbGroup
300

 70
     3
 71
     0
  0
GROUP
  5
63BA
102
{ACAD_REACTORS
330
18
102
}
330
18
100
AcDbGroup
300

 70
     3
 71
     0
  0
GROUP
  5
6398
102
{ACAD_REACTORS
330
18
102
}
330
18
100
AcDbGroup
300

 70
     3
 71
     0
  0
GROUP
  5
49AD
102
{ACAD_REACTORS
330
18
102
}
330
18
100
AcDbGroup
300

 70
     3
 71
     0
  0
GROUP
  5
48A5
102
{ACAD_REACTORS
330
18
102
}
330
18
100
AcDbGroup
300

 70
     3
 71
     0
  0
GROUP
  5
62C1
102
{ACAD_REACTORS
330
18
102
}
330
18
100
AcDbGroup
300

 70
     3
 71
     0
  0
GROUP
  5
6292
102
{ACAD_REACTORS
330
18
102
}
330
18
100
AcDbGroup
300

 70
     3
 71
     0
  0
GROUP
  5
492A
102
{ACAD_REACTORS
330
18
102
}
330
18
100
AcDbGroup
300

 70
     3
 71
     0
  0
GROUP
  5
1B60
102
{ACAD_REACTORS
330
18
102
}
330
18
100
AcDbGroup
300

 70
     3
 71
     0
  0
GROUP
  5
1AEF
102
{ACAD_REACTORS
330
18
102
}
330
18
100
AcDbGroup
300

 70
     3
 71
     0
  0
GROUP
  5
489B
102
{ACAD_REACTORS
330
18
102
}
330
18
100
AcDbGroup
300

 70
     3
 71
     0
  0
GROUP
  5
63FF
102
{ACAD_REACTORS
330
18
102
}
330
18
100
AcDbGroup
300

 70
     3
 71
     0
  0
GROUP
  5
4817
102
{ACAD_REACTORS
330
18
102
}
330
18
100
AcDbGroup
300

 70
     3
 71
     0
  0
GROUP
  5
4871
102
{ACAD_REACTORS
330
18
102
}
330
18
100
AcDbGroup
300

 70
     3
 71
     0
  0
GROUP
  5
49E2
102
{ACAD_REACTORS
330
18
102
}
330
18
100
AcDbGroup
300

 70
     3
 71
     0
  0
GROUP
  5
1465
102
{ACAD_REACTORS
330
18
102
}
330
18
100
AcDbGroup
300

 70
     3
 71
     0
  0
GROUP
  5
629F
102
{ACAD_REACTORS
330
18
102
}
330
18
100
AcDbGroup
300

 70
     3
 71
     0
  0
GROUP
  5
1BEE
102
{ACAD_REACTORS
330
18
102
}
330
18
100
AcDbGroup
300

 70
     3
 71
     0
  0
GROUP
  5
63EC
102
{ACAD_REACTORS
330
18
102
}
330
18
100
AcDbGroup
300

 70
     3
 71
     0
  0
GROUP
  5
1BEB
102
{ACAD_REACTORS
330
18
102
}
330
18
100
AcDbGroup
300

 70
     3
 71
     0
  0
GROUP
  5
4815
102
{ACAD_REACTORS
330
18
102
}
330
18
100
AcDbGroup
300

 70
     3
 71
     0
  0
GROUP
  5
4998
102
{ACAD_REACTORS
330
18
102
}
330
18
100
AcDbGroup
300

 70
     3
 71
     0
  0
GROUP
  5
480B
102
{ACAD_REACTORS
330
18
102
}
330
18
100
AcDbGroup
300

 70
     3
 71
     0
  0
GROUP
  5
625A
102
{ACAD_REACTORS
330
18
102
}
330
18
100
AcDbGroup
300

 70
     3
 71
     0
  0
GROUP
  5
493A
102
{ACAD_REACTORS
330
18
102
}
330
18
100
AcDbGroup
300

 70
     3
 71
     0
  0
GROUP
  5
1B42
102
{ACAD_REACTORS
330
18
102
}
330
18
100
AcDbGroup
300

 70
     3
 71
     0
  0
GROUP
  5
63B0
102
{ACAD_REACTORS
330
18
102
}
330
18
100
AcDbGroup
300

 70
     3
 71
     0
  0
GROUP
  5
48AF
102
{ACAD_REACTORS
330
18
102
}
330
18
100
AcDbGroup
300

 70
     3
 71
     0
  0
GROUP
  5
49D6
102
{ACAD_REACTORS
330
18
102
}
330
18
100
AcDbGroup
300

 70
     3
 71
     0
  0
GROUP
  5
62A3
102
{ACAD_REACTORS
330
18
102
}
330
18
100
AcDbGroup
300

 70
     3
 71
     0
  0
GROUP
  5
634B
102
{ACAD_REACTORS
330
18
102
}
330
18
100
AcDbGroup
300

 70
     3
 71
     0
  0
GROUP
  5
62A8
102
{ACAD_REACTORS
330
18
102
}
330
18
100
AcDbGroup
300

 70
     3
 71
     0
  0
GROUP
  5
490A
102
{ACAD_REACTORS
330
18
102
}
330
18
100
AcDbGroup
300

 70
     3
 71
     0
  0
GROUP
  5
4943
102
{ACAD_REACTORS
330
18
102
}
330
18
100
AcDbGroup
300

 70
     3
 71
     0
  0
GROUP
  5
6281
102
{ACAD_REACTORS
330
18
102
}
330
18
100
AcDbGroup
300

 70
     3
 71
     0
  0
GROUP
  5
62DC
102
{ACAD_REACTORS
330
18
102
}
330
18
100
AcDbGroup
300

 70
     3
 71
     0
  0
GROUP
  5
48B0
102
{ACAD_REACTORS
330
18
102
}
330
18
100
AcDbGroup
300

 70
     3
 71
     0
  0
GROUP
  5
379D
102
{ACAD_REACTORS
330
18
102
}
330
18
100
AcDbGroup
300

 70
     3
 71
     0
  0
GROUP
  5
6385
102
{ACAD_REACTORS
330
18
102
}
330
18
100
AcDbGroup
300

 70
     3
 71
     0
  0
GROUP
  5
1AFC
102
{ACAD_REACTORS
330
18
102
}
330
18
100
AcDbGroup
300

 70
     3
 71
     0
  0
GROUP
  5
6271
102
{ACAD_REACTORS
330
18
102
}
330
18
100
AcDbGroup
300

 70
     3
 71
     0
  0
GROUP
  5
4959
102
{ACAD_REACTORS
330
18
102
}
330
18
100
AcDbGroup
300

 70
     3
 71
     0
  0
GROUP
  5
6239
102
{ACAD_REACTORS
330
18
102
}
330
18
100
AcDbGroup
300

 70
     3
 71
     0
  0
GROUP
  5
49D9
102
{ACAD_REACTORS
330
18
102
}
330
18
100
AcDbGroup
300

 70
     3
 71
     0
  0
GROUP
  5
1C32
102
{ACAD_REACTORS
330
18
102
}
330
18
100
AcDbGroup
300

 70
     3
 71
     0
  0
GROUP
  5
491E
102
{ACAD_REACTORS
330
18
102
}
330
18
100
AcDbGroup
300

 70
     3
 71
     0
  0
GROUP
  5
1AE9
102
{ACAD_REACTORS
330
18
102
}
330
18
100
AcDbGroup
300

 70
     3
 71
     0
  0
GROUP
  5
1B2C
102
{ACAD_REACTORS
330
18
102
}
330
18
100
AcDbGroup
300

 70
     3
 71
     0
  0
GROUP
  5
1C36
102
{ACAD_REACTORS
330
18
102
}
330
18
100
AcDbGroup
300

 70
     3
 71
     0
  0
GROUP
  5
49C2
102
{ACAD_REACTORS
330
18
102
}
330
18
100
AcDbGroup
300

 70
     3
 71
     0
  0
GROUP
  5
6396
102
{ACAD_REACTORS
330
18
102
}
330
18
100
AcDbGroup
300

 70
     3
 71
     0
  0
GROUP
  5
6425
102
{ACAD_REACTORS
330
18
102
}
330
18
100
AcDbGroup
300

 70
     3
 71
     0
  0
GROUP
  5
49ED
102
{ACAD_REACTORS
330
18
102
}
330
18
100
AcDbGroup
300

 70
     3
 71
     0
  0
GROUP
  5
626D
102
{ACAD_REACTORS
330
18
102
}
330
18
100
AcDbGroup
300

 70
     3
 71
     0
  0
GROUP
  5
4843
102
{ACAD_REACTORS
330
18
102
}
330
18
100
AcDbGroup
300

 70
     3
 71
     0
  0
GROUP
  5
4A11
102
{ACAD_REACTORS
330
18
102
}
330
18
100
AcDbGroup
300

 70
     3
 71
     0
  0
GROUP
  5
494A
102
{ACAD_REACTORS
330
18
102
}
330
18
100
AcDbGroup
300

 70
     3
 71
     0
  0
GROUP
  5
62FF
102
{ACAD_REACTORS
330
18
102
}
330
18
100
AcDbGroup
300

 70
     3
 71
     0
  0
GROUP
  5
6352
102
{ACAD_REACTORS
330
18
102
}
330
18
100
AcDbGroup
300

 70
     3
 71
     0
  0
GROUP
  5
1BAE
102
{ACAD_REACTORS
330
18
102
}
330
18
100
AcDbGroup
300

 70
     3
 71
     0
  0
GROUP
  5
1AEB
102
{ACAD_REACTORS
330
18
102
}
330
18
100
AcDbGroup
300

 70
     3
 71
     0
  0
GROUP
  5
63CF
102
{ACAD_REACTORS
330
18
102
}
330
18
100
AcDbGroup
300

 70
     3
 71
     0
  0
GROUP
  5
622C
102
{ACAD_REACTORS
330
18
102
}
330
18
100
AcDbGroup
300

 70
     3
 71
     0
  0
GROUP
  5
1C1A
102
{ACAD_REACTORS
330
18
102
}
330
18
100
AcDbGroup
300

 70
     3
 71
     0
  0
GROUP
  5
63DE
102
{ACAD_REACTORS
330
18
102
}
330
18
100
AcDbGroup
300

 70
     3
 71
     0
  0
GROUP
  5
1B6C
102
{ACAD_REACTORS
330
18
102
}
330
18
100
AcDbGroup
300

 70
     3
 71
     0
  0
GROUP
  5
1469
102
{ACAD_REACTORS
330
18
102
}
330
18
100
AcDbGroup
300

 70
     3
 71
     0
  0
GROUP
  5
1B6F
102
{ACAD_REACTORS
330
18
102
}
330
18
100
AcDbGroup
300

 70
     3
 71
     0
  0
GROUP
  5
1BB5
102
{ACAD_REACTORS
330
18
102
}
330
18
100
AcDbGroup
300

 70
     3
 71
     0
  0
GROUP
  5
62DF
102
{ACAD_REACTORS
330
18
102
}
330
18
100
AcDbGroup
300

 70
     3
 71
     0
  0
GROUP
  5
6294
102
{ACAD_REACTORS
330
18
102
}
330
18
100
AcDbGroup
300

 70
     3
 71
     0
  0
GROUP
  5
62CD
102
{ACAD_REACTORS
330
18
102
}
330
18
100
AcDbGroup
300

 70
     3
 71
     0
  0
GROUP
  5
4A15
102
{ACAD_REACTORS
330
18
102
}
330
18
100
AcDbGroup
300

 70
     3
 71
     0
  0
GROUP
  5
628C
102
{ACAD_REACTORS
330
18
102
}
330
18
100
AcDbGroup
300

 70
     3
 71
     0
  0
GROUP
  5
49B3
102
{ACAD_REACTORS
330
18
102
}
330
18
100
AcDbGroup
300

 70
     3
 71
     0
  0
GROUP
  5
62AC
102
{ACAD_REACTORS
330
18
102
}
330
18
100
AcDbGroup
300

 70
     3
 71
     0
  0
GROUP
  5
1AFA
102
{ACAD_REACTORS
330
18
102
}
330
18
100
AcDbGroup
300

 70
     3
 71
     0
  0
GROUP
  5
48A9
102
{ACAD_REACTORS
330
18
102
}
330
18
100
AcDbGroup
300

 70
     3
 71
     0
  0
GROUP
  5
496A
102
{ACAD_REACTORS
330
18
102
}
330
18
100
AcDbGroup
300

 70
     3
 71
     0
  0
GROUP
  5
4891
102
{ACAD_REACTORS
330
18
102
}
330
18
100
AcDbGroup
300

 70
     3
 71
     0
  0
GROUP
  5
4A06
102
{ACAD_REACTORS
330
18
102
}
330
18
100
AcDbGroup
300

 70
     3
 71
     0
  0
GROUP
  5
37B3
102
{ACAD_REACTORS
330
18
102
}
330
18
100
AcDbGroup
300

 70
     3
 71
     0
  0
GROUP
  5
483D
102
{ACAD_REACTORS
330
18
102
}
330
18
100
AcDbGroup
300

 70
     3
 71
     0
  0
GROUP
  5
37B2
102
{ACAD_REACTORS
330
18
102
}
330
18
100
AcDbGroup
300

 70
     3
 71
     0
  0
GROUP
  5
1AD8
102
{ACAD_REACTORS
330
18
102
}
330
18
100
AcDbGroup
300

 70
     3
 71
     0
  0
GROUP
  5
37AB
102
{ACAD_REACTORS
330
18
102
}
330
18
100
AcDbGroup
300

 70
     3
 71
     0
  0
GROUP
  5
63E2
102
{ACAD_REACTORS
330
18
102
}
330
18
100
AcDbGroup
300

 70
     3
 71
     0
  0
GROUP
  5
495C
102
{ACAD_REACTORS
330
18
102
}
330
18
100
AcDbGroup
300

 70
     3
 71
     0
  0
GROUP
  5
62C4
102
{ACAD_REACTORS
330
18
102
}
330
18
100
AcDbGroup
300

 70
     3
 71
     0
  0
GROUP
  5
4834
102
{ACAD_REACTORS
330
18
102
}
330
18
100
AcDbGroup
300

 70
     3
 71
     0
  0
GROUP
  5
6365
102
{ACAD_REACTORS
330
18
102
}
330
18
100
AcDbGroup
300

 70
     3
 71
     0
  0
GROUP
  5
488D
102
{ACAD_REACTORS
330
18
102
}
330
18
100
AcDbGroup
300

 70
     3
 71
     0
  0
GROUP
  5
635F
102
{ACAD_REACTORS
330
18
102
}
330
18
100
AcDbGroup
300

 70
     3
 71
     0
  0
GROUP
  5
48B1
102
{ACAD_REACTORS
330
18
102
}
330
18
100
AcDbGroup
300

 70
     3
 71
     0
  0
GROUP
  5
1B1D
102
{ACAD_REACTORS
330
18
102
}
330
18
100
AcDbGroup
300

 70
     3
 71
     0
  0
GROUP
  5
1C5A
102
{ACAD_REACTORS
330
18
102
}
330
18
100
AcDbGroup
300

 70
     3
 71
     0
  0
GROUP
  5
63B2
102
{ACAD_REACTORS
330
18
102
}
330
18
100
AcDbGroup
300

 70
     3
 71
     0
  0
GROUP
  5
496B
102
{ACAD_REACTORS
330
18
102
}
330
18
100
AcDbGroup
300

 70
     3
 71
     0
  0
GROUP
  5
1B82
102
{ACAD_REACTORS
330
18
102
}
330
18
100
AcDbGroup
300

 70
     3
 71
     0
  0
GROUP
  5
48A2
102
{ACAD_REACTORS
330
18
102
}
330
18
100
AcDbGroup
300

 70
     3
 71
     0
  0
GROUP
  5
1B0A
102
{ACAD_REACTORS
330
18
102
}
330
18
100
AcDbGroup
300

 70
     3
 71
     0
  0
GROUP
  5
6229
102
{ACAD_REACTORS
330
18
102
}
330
18
100
AcDbGroup
300

 70
     3
 71
     0
  0
GROUP
  5
1C59
102
{ACAD_REACTORS
330
18
102
}
330
18
100
AcDbGroup
300

 70
     3
 71
     0
  0
GROUP
  5
1B88
102
{ACAD_REACTORS
330
18
102
}
330
18
100
AcDbGroup
300

 70
     3
 71
     0
  0
GROUP
  5
625B
102
{ACAD_REACTORS
330
18
102
}
330
18
100
AcDbGroup
300

 70
     3
 71
     0
  0
GROUP
  5
1B04
102
{ACAD_REACTORS
330
18
102
}
330
18
100
AcDbGroup
300

 70
     3
 71
     0
  0
GROUP
  5
487A
102
{ACAD_REACTORS
330
18
102
}
330
18
100
AcDbGroup
300

 70
     3
 71
     0
  0
GROUP
  5
1B2B
102
{ACAD_REACTORS
330
18
102
}
330
18
100
AcDbGroup
300

 70
     3
 71
     0
  0
GROUP
  5
6232
102
{ACAD_REACTORS
330
18
102
}
330
18
100
AcDbGroup
300

 70
     3
 71
     0
  0
GROUP
  5
487E
102
{ACAD_REACTORS
330
18
102
}
330
18
100
AcDbGroup
300

 70
     3
 71
     0
  0
GROUP
  5
63A2
102
{ACAD_REACTORS
330
18
102
}
330
18
100
AcDbGroup
300

 70
     3
 71
     0
  0
GROUP
  5
4844
102
{ACAD_REACTORS
330
18
102
}
330
18
100
AcDbGroup
300

 70
     3
 71
     0
  0
GROUP
  5
1B35
102
{ACAD_REACTORS
330
18
102
}
330
18
100
AcDbGroup
300

 70
     3
 71
     0
  0
GROUP
  5
6402
102
{ACAD_REACTORS
330
18
102
}
330
18
100
AcDbGroup
300

 70
     3
 71
     0
  0
GROUP
  5
63D6
102
{ACAD_REACTORS
330
18
102
}
330
18
100
AcDbGroup
300

 70
     3
 71
     0
  0
GROUP
  5
62A2
102
{ACAD_REACTORS
330
18
102
}
330
18
100
AcDbGroup
300

 70
     3
 71
     0
  0
GROUP
  5
6350
102
{ACAD_REACTORS
330
18
102
}
330
18
100
AcDbGroup
300

 70
     3
 71
     0
  0
GROUP
  5
6400
102
{ACAD_REACTORS
330
18
102
}
330
18
100
AcDbGroup
300

 70
     3
 71
     0
  0
GROUP
  5
6399
102
{ACAD_REACTORS
330
18
102
}
330
18
100
AcDbGroup
300

 70
     3
 71
     0
  0
GROUP
  5
1ACE
102
{ACAD_REACTORS
330
18
102
}
330
18
100
AcDbGroup
300

 70
     3
 71
     0
  0
GROUP
  5
1BA6
102
{ACAD_REACTORS
330
18
102
}
330
18
100
AcDbGroup
300

 70
     3
 71
     0
  0
GROUP
  5
1BB4
102
{ACAD_REACTORS
330
18
102
}
330
18
100
AcDbGroup
300

 70
     3
 71
     0
  0
GROUP
  5
1C03
102
{ACAD_REACTORS
330
18
102
}
330
18
100
AcDbGroup
300

 70
     3
 71
     0
  0
GROUP
  5
4995
102
{ACAD_REACTORS
330
18
102
}
330
18
100
AcDbGroup
300

 70
     3
 71
     0
  0
GROUP
  5
1C45
102
{ACAD_REACTORS
330
18
102
}
330
18
100
AcDbGroup
300

 70
     3
 71
     0
  0
GROUP
  5
49FC
102
{ACAD_REACTORS
330
18
102
}
330
18
100
AcDbGroup
300

 70
     3
 71
     0
  0
GROUP
  5
6283
102
{ACAD_REACTORS
330
18
102
}
330
18
100
AcDbGroup
300

 70
     3
 71
     0
  0
GROUP
  5
6284
102
{ACAD_REACTORS
330
18
102
}
330
18
100
AcDbGroup
300

 70
     3
 71
     0
  0
GROUP
  5
6341
102
{ACAD_REACTORS
330
18
102
}
330
18
100
AcDbGroup
300

 70
     3
 71
     0
  0
GROUP
  5
1BA8
102
{ACAD_REACTORS
330
18
102
}
330
18
100
AcDbGroup
300

 70
     3
 71
     0
  0
GROUP
  5
63F0
102
{ACAD_REACTORS
330
18
102
}
330
18
100
AcDbGroup
300

 70
     3
 71
     0
  0
GROUP
  5
482D
102
{ACAD_REACTORS
330
18
102
}
330
18
100
AcDbGroup
300

 70
     3
 71
     0
  0
GROUP
  5
49D8
102
{ACAD_REACTORS
330
18
102
}
330
18
100
AcDbGroup
300

 70
     3
 71
     0
  0
GROUP
  5
4990
102
{ACAD_REACTORS
330
18
102
}
330
18
100
AcDbGroup
300

 70
     3
 71
     0
  0
GROUP
  5
629B
102
{ACAD_REACTORS
330
18
102
}
330
18
100
AcDbGroup
300

 70
     3
 71
     0
  0
GROUP
  5
1C0E
102
{ACAD_REACTORS
330
18
102
}
330
18
100
AcDbGroup
300

 70
     3
 71
     0
  0
GROUP
  5
1460
102
{ACAD_REACTORS
330
18
102
}
330
18
100
AcDbGroup
300

 70
     3
 71
     0
  0
GROUP
  5
6381
102
{ACAD_REACTORS
330
18
102
}
330
18
100
AcDbGroup
300

 70
     3
 71
     0
  0
GROUP
  5
37B9
102
{ACAD_REACTORS
330
18
102
}
330
18
100
AcDbGroup
300

 70
     3
 71
     0
  0
GROUP
  5
1C51
102
{ACAD_REACTORS
330
18
102
}
330
18
100
AcDbGroup
300

 70
     3
 71
     0
  0
GROUP
  5
1AD1
102
{ACAD_REACTORS
330
18
102
}
330
18
100
AcDbGroup
300

 70
     3
 71
     0
  0
GROUP
  5
1AF3
102
{ACAD_REACTORS
330
18
102
}
330
18
100
AcDbGroup
300

 70
     3
 71
     0
  0
GROUP
  5
4886
102
{ACAD_REACTORS
330
18
102
}
330
18
100
AcDbGroup
300

 70
     3
 71
     0
  0
GROUP
  5
635B
102
{ACAD_REACTORS
330
18
102
}
330
18
100
AcDbGroup
300

 70
     3
 71
     0
  0
GROUP
  5
1BBD
102
{ACAD_REACTORS
330
18
102
}
330
18
100
AcDbGroup
300

 70
     3
 71
     0
  0
GROUP
  5
1B16
102
{ACAD_REACTORS
330
18
102
}
330
18
100
AcDbGroup
300

 70
     3
 71
     0
  0
GROUP
  5
1B62
102
{ACAD_REACTORS
330
18
102
}
330
18
100
AcDbGroup
300

 70
     3
 71
     0
  0
GROUP
  5
494D
102
{ACAD_REACTORS
330
18
102
}
330
18
100
AcDbGroup
300

 70
     3
 71
     0
  0
GROUP
  5
1AFD
102
{ACAD_REACTORS
330
18
102
}
330
18
100
AcDbGroup
300

 70
     3
 71
     0
  0
GROUP
  5
37C2
102
{ACAD_REACTORS
330
18
102
}
330
18
100
AcDbGroup
300

 70
     3
 71
     0
  0
GROUP
  5
49D5
102
{ACAD_REACTORS
330
18
102
}
330
18
100
AcDbGroup
300

 70
     3
 71
     0
  0
GROUP
  5
6298
102
{ACAD_REACTORS
330
18
102
}
330
18
100
AcDbGroup
300

 70
     3
 71
     0
  0
GROUP
  5
4A0F
102
{ACAD_REACTORS
330
18
102
}
330
18
100
AcDbGroup
300

 70
     3
 71
     0
  0
GROUP
  5
1BC2
102
{ACAD_REACTORS
330
18
102
}
330
18
100
AcDbGroup
300

 70
     3
 71
     0
  0
GROUP
  5
6392
102
{ACAD_REACTORS
330
18
102
}
330
18
100
AcDbGroup
300

 70
     3
 71
     0
  0
GROUP
  5
1BED
102
{ACAD_REACTORS
330
18
102
}
330
18
100
AcDbGroup
300

 70
     3
 71
     0
  0
GROUP
  5
1BF5
102
{ACAD_REACTORS
330
18
102
}
330
18
100
AcDbGroup
300

 70
     3
 71
     0
  0
GROUP
  5
62E9
102
{ACAD_REACTORS
330
18
102
}
330
18
100
AcDbGroup
300

 70
     3
 71
     0
  0
GROUP
  5
48B3
102
{ACAD_REACTORS
330
18
102
}
330
18
100
AcDbGroup
300

 70
     3
 71
     0
  0
GROUP
  5
62C8
102
{ACAD_REACTORS
330
18
102
}
330
18
100
AcDbGroup
300

 70
     3
 71
     0
  0
GROUP
  5
638B
102
{ACAD_REACTORS
330
18
102
}
330
18
100
AcDbGroup
300

 70
     3
 71
     0
  0
GROUP
  5
48E3
102
{ACAD_REACTORS
330
18
102
}
330
18
100
AcDbGroup
300

 70
     3
 71
     0
  0
GROUP
  5
4929
102
{ACAD_REACTORS
330
18
102
}
330
18
100
AcDbGroup
300

 70
     3
 71
     0
  0
GROUP
  5
4909
102
{ACAD_REACTORS
330
18
102
}
330
18
100
AcDbGroup
300

 70
     3
 71
     0
  0
GROUP
  5
1BFC
102
{ACAD_REACTORS
330
18
102
}
330
18
100
AcDbGroup
300

 70
     3
 71
     0
  0
GROUP
  5
6316
102
{ACAD_REACTORS
330
18
102
}
330
18
100
AcDbGroup
300

 70
     3
 71
     0
  0
GROUP
  5
37BF
102
{ACAD_REACTORS
330
18
102
}
330
18
100
AcDbGroup
300

 70
     3
 71
     0
  0
GROUP
  5
1BBB
102
{ACAD_REACTORS
330
18
102
}
330
18
100
AcDbGroup
300

 70
     3
 71
     0
  0
GROUP
  5
6304
102
{ACAD_REACTORS
330
18
102
}
330
18
100
AcDbGroup
300

 70
     3
 71
     0
  0
GROUP
  5
1BE1
102
{ACAD_REACTORS
330
18
102
}
330
18
100
AcDbGroup
300

 70
     3
 71
     0
  0
GROUP
  5
49F0
102
{ACAD_REACTORS
330
18
102
}
330
18
100
AcDbGroup
300

 70
     3
 71
     0
  0
GROUP
  5
1AEC
102
{ACAD_REACTORS
330
18
102
}
330
18
100
AcDbGroup
300

 70
     3
 71
     0
  0
GROUP
  5
498C
102
{ACAD_REACTORS
330
18
102
}
330
18
100
AcDbGroup
300

 70
     3
 71
     0
  0
GROUP
  5
1B0C
102
{ACAD_REACTORS
330
18
102
}
330
18
100
AcDbGroup
300

 70
     3
 71
     0
  0
GROUP
  5
1BB6
102
{ACAD_REACTORS
330
18
102
}
330
18
100
AcDbGroup
300

 70
     3
 71
     0
  0
GROUP
  5
487F
102
{ACAD_REACTORS
330
18
102
}
330
18
100
AcDbGroup
300

 70
     3
 71
     0
  0
GROUP
  5
48CC
102
{ACAD_REACTORS
330
18
102
}
330
18
100
AcDbGroup
300

 70
     3
 71
     0
  0
GROUP
  5
1B2F
102
{ACAD_REACTORS
330
18
102
}
330
18
100
AcDbGroup
300

 70
     3
 71
     0
  0
GROUP
  5
488F
102
{ACAD_REACTORS
330
18
102
}
330
18
100
AcDbGroup
300

 70
     3
 71
     0
  0
GROUP
  5
625E
102
{ACAD_REACTORS
330
18
102
}
330
18
100
AcDbGroup
300

 70
     3
 71
     0
  0
GROUP
  5
4989
102
{ACAD_REACTORS
330
18
102
}
330
18
100
AcDbGroup
300

 70
     3
 71
     0
  0
GROUP
  5
4899
102
{ACAD_REACTORS
330
18
102
}
330
18
100
AcDbGroup
300

 70
     3
 71
     0
  0
GROUP
  5
1BBF
102
{ACAD_REACTORS
330
18
102
}
330
18
100
AcDbGroup
300

 70
     3
 71
     0
  0
GROUP
  5
63C9
102
{ACAD_REACTORS
330
18
102
}
330
18
100
AcDbGroup
300

 70
     3
 71
     0
  0
GROUP
  5
6375
102
{ACAD_REACTORS
330
18
102
}
330
18
100
AcDbGroup
300

 70
     3
 71
     0
  0
GROUP
  5
4911
102
{ACAD_REACTORS
330
18
102
}
330
18
100
AcDbGroup
300

 70
     3
 71
     0
  0
GROUP
  5
4968
102
{ACAD_REACTORS
330
18
102
}
330
18
100
AcDbGroup
300

 70
     3
 71
     0
  0
GROUP
  5
635C
102
{ACAD_REACTORS
330
18
102
}
330
18
100
AcDbGroup
300

 70
     3
 71
     0
  0
GROUP
  5
487D
102
{ACAD_REACTORS
330
18
102
}
330
18
100
AcDbGroup
300

 70
     3
 71
     0
  0
GROUP
  5
493C
102
{ACAD_REACTORS
330
18
102
}
330
18
100
AcDbGroup
300

 70
     3
 71
     0
  0
GROUP
  5
1B5D
102
{ACAD_REACTORS
330
18
102
}
330
18
100
AcDbGroup
300

 70
     3
 71
     0
  0
GROUP
  5
63BB
102
{ACAD_REACTORS
330
18
102
}
330
18
100
AcDbGroup
300

 70
     3
 71
     0
  0
GROUP
  5
637A
102
{ACAD_REACTORS
330
18
102
}
330
18
100
AcDbGroup
300

 70
     3
 71
     0
  0
GROUP
  5
6261
102
{ACAD_REACTORS
330
18
102
}
330
18
100
AcDbGroup
300

 70
     3
 71
     0
  0
GROUP
  5
49CF
102
{ACAD_REACTORS
330
18
102
}
330
18
100
AcDbGroup
300

 70
     3
 71
     0
  0
GROUP
  5
6262
102
{ACAD_REACTORS
330
18
102
}
330
18
100
AcDbGroup
300

 70
     3
 71
     0
  0
GROUP
  5
1C02
102
{ACAD_REACTORS
330
18
102
}
330
18
100
AcDbGroup
300

 70
     3
 71
     0
  0
GROUP
  5
49C3
102
{ACAD_REACTORS
330
18
102
}
330
18
100
AcDbGroup
300

 70
     3
 71
     0
  0
GROUP
  5
6394
102
{ACAD_REACTORS
330
18
102
}
330
18
100
AcDbGroup
300

 70
     3
 71
     0
  0
GROUP
  5
1BB1
102
{ACAD_REACTORS
330
18
102
}
330
18
100
AcDbGroup
300

 70
     3
 71
     0
  0
GROUP
  5
48E8
102
{ACAD_REACTORS
330
18
102
}
330
18
100
AcDbGroup
300

 70
     3
 71
     0
  0
GROUP
  5
62A6
102
{ACAD_REACTORS
330
18
102
}
330
18
100
AcDbGroup
300

 70
     3
 71
     0
  0
GROUP
  5
37A3
102
{ACAD_REACTORS
330
18
102
}
330
18
100
AcDbGroup
300

 70
     3
 71
     0
  0
GROUP
  5
49AA
102
{ACAD_REACTORS
330
18
102
}
330
18
100
AcDbGroup
300

 70
     3
 71
     0
  0
GROUP
  5
63BC
102
{ACAD_REACTORS
330
18
102
}
330
18
100
AcDbGroup
300

 70
     3
 71
     0
  0
GROUP
  5
62AF
102
{ACAD_REACTORS
330
18
102
}
330
18
100
AcDbGroup
300

 70
     3
 71
     0
  0
GROUP
  5
48E1
102
{ACAD_REACTORS
330
18
102
}
330
18
100
AcDbGroup
300

 70
     3
 71
     0
  0
GROUP
  5
6311
102
{ACAD_REACTORS
330
18
102
}
330
18
100
AcDbGroup
300

 70
     3
 71
     0
  0
GROUP
  5
49EF
102
{ACAD_REACTORS
330
18
102
}
330
18
100
AcDbGroup
300

 70
     3
 71
     0
  0
GROUP
  5
6369
102
{ACAD_REACTORS
330
18
102
}
330
18
100
AcDbGroup
300

 70
     3
 71
     0
  0
GROUP
  5
1C53
102
{ACAD_REACTORS
330
18
102
}
330
18
100
AcDbGroup
300

 70
     3
 71
     0
  0
GROUP
  5
499A
102
{ACAD_REACTORS
330
18
102
}
330
18
100
AcDbGroup
300

 70
     3
 71
     0
  0
GROUP
  5
4874
102
{ACAD_REACTORS
330
18
102
}
330
18
100
AcDbGroup
300

 70
     3
 71
     0
  0
GROUP
  5
1C39
102
{ACAD_REACTORS
330
18
102
}
330
18
100
AcDbGroup
300

 70
     3
 71
     0
  0
GROUP
  5
4896
102
{ACAD_REACTORS
330
18
102
}
330
18
100
AcDbGroup
300

 70
     3
 71
     0
  0
GROUP
  5
481F
102
{ACAD_REACTORS
330
18
102
}
330
18
100
AcDbGroup
300

 70
     3
 71
     0
  0
GROUP
  5
1459
102
{ACAD_REACTORS
330
18
102
}
330
18
100
AcDbGroup
300

 70
     3
 71
     0
  0
GROUP
  5
49F8
102
{ACAD_REACTORS
330
18
102
}
330
18
100
AcDbGroup
300

 70
     3
 71
     0
  0
GROUP
  5
4974
102
{ACAD_REACTORS
330
18
102
}
330
18
100
AcDbGroup
300

 70
     3
 71
     0
  0
GROUP
  5
4895
102
{ACAD_REACTORS
330
18
102
}
330
18
100
AcDbGroup
300

 70
     3
 71
     0
  0
GROUP
  5
6322
102
{ACAD_REACTORS
330
18
102
}
330
18
100
AcDbGroup
300

 70
     3
 71
     0
  0
GROUP
  5
497E
102
{ACAD_REACTORS
330
18
102
}
330
18
100
AcDbGroup
300

 70
     3
 71
     0
  0
GROUP
  5
1AD0
102
{ACAD_REACTORS
330
18
102
}
330
18
100
AcDbGroup
300

 70
     3
 71
     0
  0
GROUP
  5
639E
102
{ACAD_REACTORS
330
18
102
}
330
18
100
AcDbGroup
300

 70
     3
 71
     0
  0
GROUP
  5
6220
102
{ACAD_REACTORS
330
18
102
}
330
18
100
AcDbGroup
300

 70
     3
 71
     0
  0
GROUP
  5
63E1
102
{ACAD_REACTORS
330
18
102
}
330
18
100
AcDbGroup
300

 70
     3
 71
     0
  0
GROUP
  5
6300
102
{ACAD_REACTORS
330
18
102
}
330
18
100
AcDbGroup
300

 70
     3
 71
     0
  0
GROUP
  5
48B4
102
{ACAD_REACTORS
330
18
102
}
330
18
100
AcDbGroup
300

 70
     3
 71
     0
  0
GROUP
  5
4A17
102
{ACAD_REACTORS
330
18
102
}
330
18
100
AcDbGroup
300

 70
     3
 71
     0
  0
GROUP
  5
1B92
102
{ACAD_REACTORS
330
18
102
}
330
18
100
AcDbGroup
300

 70
     3
 71
     0
  0
GROUP
  5
1B2A
102
{ACAD_REACTORS
330
18
102
}
330
18
100
AcDbGroup
300

 70
     3
 71
     0
  0
GROUP
  5
4991
102
{ACAD_REACTORS
330
18
102
}
330
18
100
AcDbGroup
300

 70
     3
 71
     0
  0
GROUP
  5
48D2
102
{ACAD_REACTORS
330
18
102
}
330
18
100
AcDbGroup
300

 70
     3
 71
     0
  0
GROUP
  5
1C15
102
{ACAD_REACTORS
330
18
102
}
330
18
100
AcDbGroup
300

 70
     3
 71
     0
  0
GROUP
  5
1C58
102
{ACAD_REACTORS
330
18
102
}
330
18
100
AcDbGroup
300

 70
     3
 71
     0
  0
GROUP
  5
49BD
102
{ACAD_REACTORS
330
18
102
}
330
18
100
AcDbGroup
300

 70
     3
 71
     0
  0
GROUP
  5
1B8B
102
{ACAD_REACTORS
330
18
102
}
330
18
100
AcDbGroup
300

 70
     3
 71
     0
  0
GROUP
  5
1C1B
102
{ACAD_REACTORS
330
18
102
}
330
18
100
AcDbGroup
300

 70
     3
 71
     0
  0
GROUP
  5
634C
102
{ACAD_REACTORS
330
18
102
}
330
18
100
AcDbGroup
300

 70
     3
 71
     0
  0
GROUP
  5
495E
102
{ACAD_REACTORS
330
18
102
}
330
18
100
AcDbGroup
300

 70
     3
 71
     0
  0
GROUP
  5
1C20
102
{ACAD_REACTORS
330
18
102
}
330
18
100
AcDbGroup
300

 70
     3
 71
     0
  0
GROUP
  5
1C3A
102
{ACAD_REACTORS
330
18
102
}
330
18
100
AcDbGroup
300

 70
     3
 71
     0
  0
GROUP
  5
48C8
102
{ACAD_REACTORS
330
18
102
}
330
18
100
AcDbGroup
300

 70
     3
 71
     0
  0
GROUP
  5
49E8
102
{ACAD_REACTORS
330
18
102
}
330
18
100
AcDbGroup
300

 70
     3
 71
     0
  0
GROUP
  5
37A6
102
{ACAD_REACTORS
330
18
102
}
330
18
100
AcDbGroup
300

 70
     3
 71
     0
  0
GROUP
  5
635A
102
{ACAD_REACTORS
330
18
102
}
330
18
100
AcDbGroup
300

 70
     3
 71
     0
  0
GROUP
  5
1BD4
102
{ACAD_REACTORS
330
18
102
}
330
18
100
AcDbGroup
300

 70
     3
 71
     0
  0
GROUP
  5
62A0
102
{ACAD_REACTORS
330
18
102
}
330
18
100
AcDbGroup
300

 70
     3
 71
     0
  0
GROUP
  5
4997
102
{ACAD_REACTORS
330
18
102
}
330
18
100
AcDbGroup
300

 70
     3
 71
     0
  0
GROUP
  5
6317
102
{ACAD_REACTORS
330
18
102
}
330
18
100
AcDbGroup
300

 70
     3
 71
     0
  0
GROUP
  5
1C47
102
{ACAD_REACTORS
330
18
102
}
330
18
100
AcDbGroup
300

 70
     3
 71
     0
  0
GROUP
  5
1C21
102
{ACAD_REACTORS
330
18
102
}
330
18
100
AcDbGroup
300

 70
     3
 71
     0
  0
GROUP
  5
1AEE
102
{ACAD_REACTORS
330
18
102
}
330
18
100
AcDbGroup
300

 70
     3
 71
     0
  0
GROUP
  5
62B2
102
{ACAD_REACTORS
330
18
102
}
330
18
100
AcDbGroup
300

 70
     3
 71
     0
  0
GROUP
  5
6248
102
{ACAD_REACTORS
330
18
102
}
330
18
100
AcDbGroup
300

 70
     3
 71
     0
  0
GROUP
  5
1AED
102
{ACAD_REACTORS
330
18
102
}
330
18
100
AcDbGroup
300

 70
     3
 71
     0
  0
GROUP
  5
497F
102
{ACAD_REACTORS
330
18
102
}
330
18
100
AcDbGroup
300

 70
     3
 71
     0
  0
GROUP
  5
1C48
102
{ACAD_REACTORS
330
18
102
}
330
18
100
AcDbGroup
300

 70
     3
 71
     0
  0
GROUP
  5
1BD3
102
{ACAD_REACTORS
330
18
102
}
330
18
100
AcDbGroup
300

 70
     3
 71
     0
  0
GROUP
  5
48BB
102
{ACAD_REACTORS
330
18
102
}
330
18
100
AcDbGroup
300

 70
     3
 71
     0
  0
GROUP
  5
1C37
102
{ACAD_REACTORS
330
18
102
}
330
18
100
AcDbGroup
300

 70
     3
 71
     0
  0
GROUP
  5
1C44
102
{ACAD_REACTORS
330
18
102
}
330
18
100
AcDbGroup
300

 70
     3
 71
     0
  0
GROUP
  5
633C
102
{ACAD_REACTORS
330
18
102
}
330
18
100
AcDbGroup
300

 70
     3
 71
     0
  0
GROUP
  5
49F6
102
{ACAD_REACTORS
330
18
102
}
330
18
100
AcDbGroup
300

 70
     3
 71
     0
  0
GROUP
  5
62CA
102
{ACAD_REACTORS
330
18
102
}
330
18
100
AcDbGroup
300

 70
     3
 71
     0
  0
GROUP
  5
496F
102
{ACAD_REACTORS
330
18
102
}
330
18
100
AcDbGroup
300

 70
     3
 71
     0
  0
GROUP
  5
62AA
102
{ACAD_REACTORS
330
18
102
}
330
18
100
AcDbGroup
300

 70
     3
 71
     0
  0
GROUP
  5
49D3
102
{ACAD_REACTORS
330
18
102
}
330
18
100
AcDbGroup
300

 70
     3
 71
     0
  0
GROUP
  5
4955
102
{ACAD_REACTORS
330
18
102
}
330
18
100
AcDbGroup
300

 70
     3
 71
     0
  0
GROUP
  5
1BE9
102
{ACAD_REACTORS
330
18
102
}
330
18
100
AcDbGroup
300

 70
     3
 71
     0
  0
GROUP
  5
49C7
102
{ACAD_REACTORS
330
18
102
}
330
18
100
AcDbGroup
300

 70
     3
 71
     0
  0
GROUP
  5
48AC
102
{ACAD_REACTORS
330
18
102
}
330
18
100
AcDbGroup
300

 70
     3
 71
     0
  0
GROUP
  5
6327
102
{ACAD_REACTORS
330
18
102
}
330
18
100
AcDbGroup
300

 70
     3
 71
     0
  0
GROUP
  5
4973
102
{ACAD_REACTORS
330
18
102
}
330
18
100
AcDbGroup
300

 70
     3
 71
     0
  0
GROUP
  5
1B4A
102
{ACAD_REACTORS
330
18
102
}
330
18
100
AcDbGroup
300

 70
     3
 71
     0
  0
GROUP
  5
1B3E
102
{ACAD_REACTORS
330
18
102
}
330
18
100
AcDbGroup
300

 70
     3
 71
     0
  0
GROUP
  5
1C08
102
{ACAD_REACTORS
330
18
102
}
330
18
100
AcDbGroup
300

 70
     3
 71
     0
  0
GROUP
  5
62F1
102
{ACAD_REACTORS
330
18
102
}
330
18
100
AcDbGroup
300

 70
     3
 71
     0
  0
GROUP
  5
1BBA
102
{ACAD_REACTORS
330
18
102
}
330
18
100
AcDbGroup
300

 70
     3
 71
     0
  0
GROUP
  5
484C
102
{ACAD_REACTORS
330
18
102
}
330
18
100
AcDbGroup
300

 70
     3
 71
     0
  0
GROUP
  5
1462
102
{ACAD_REACTORS
330
18
102
}
330
18
100
AcDbGroup
300

 70
     3
 71
     0
  0
GROUP
  5
1B13
102
{ACAD_REACTORS
330
18
102
}
330
18
100
AcDbGroup
300

 70
     3
 71
     0
  0
GROUP
  5
62C2
102
{ACAD_REACTORS
330
18
102
}
330
18
100
AcDbGroup
300

 70
     3
 71
     0
  0
GROUP
  5
1C46
102
{ACAD_REACTORS
330
18
102
}
330
18
100
AcDbGroup
300

 70
     3
 71
     0
  0
GROUP
  5
63AC
102
{ACAD_REACTORS
330
18
102
}
330
18
100
AcDbGroup
300

 70
     3
 71
     0
  0
GROUP
  5
62F5
102
{ACAD_REACTORS
330
18
102
}
330
18
100
AcDbGroup
300

 70
     3
 71
     0
  0
GROUP
  5
633A
102
{ACAD_REACTORS
330
18
102
}
330
18
100
AcDbGroup
300

 70
     3
 71
     0
  0
GROUP
  5
628F
102
{ACAD_REACTORS
330
18
102
}
330
18
100
AcDbGroup
300

 70
     3
 71
     0
  0
GROUP
  5
1BF9
102
{ACAD_REACTORS
330
18
102
}
330
18
100
AcDbGroup
300

 70
     3
 71
     0
  0
GROUP
  5
1466
102
{ACAD_REACTORS
330
18
102
}
330
18
100
AcDbGroup
300

 70
     3
 71
     0
  0
GROUP
  5
1B69
102
{ACAD_REACTORS
330
18
102
}
330
18
100
AcDbGroup
300

 70
     3
 71
     0
  0
GROUP
  5
48F2
102
{ACAD_REACTORS
330
18
102
}
330
18
100
AcDbGroup
300

 70
     3
 71
     0
  0
GROUP
  5
49DD
102
{ACAD_REACTORS
330
18
102
}
330
18
100
AcDbGroup
300

 70
     3
 71
     0
  0
GROUP
  5
4894
102
{ACAD_REACTORS
330
18
102
}
330
18
100
AcDbGroup
300

 70
     3
 71
     0
  0
GROUP
  5
1B75
102
{ACAD_REACTORS
330
18
102
}
330
18
100
AcDbGroup
300

 70
     3
 71
     0
  0
GROUP
  5
48E6
102
{ACAD_REACTORS
330
18
102
}
330
18
100
AcDbGroup
300

 70
     3
 71
     0
  0
GROUP
  5
1C2B
102
{ACAD_REACTORS
330
18
102
}
330
18
100
AcDbGroup
300

 70
     3
 71
     0
  0
GROUP
  5
1C27
102
{ACAD_REACTORS
330
18
102
}
330
18
100
AcDbGroup
300

 70
     3
 71
     0
  0
GROUP
  5
629C
102
{ACAD_REACTORS
330
18
102
}
330
18
100
AcDbGroup
300

 70
     3
 71
     0
  0
GROUP
  5
4937
102
{ACAD_REACTORS
330
18
102
}
330
18
100
AcDbGroup
300

 70
     3
 71
     0
  0
GROUP
  5
1458
102
{ACAD_REACTORS
330
18
102
}
330
18
100
AcDbGroup
300

 70
     3
 71
     0
  0
GROUP
  5
1BC4
102
{ACAD_REACTORS
330
18
102
}
330
18
100
AcDbGroup
300

 70
     3
 71
     0
  0
GROUP
  5
63D2
102
{ACAD_REACTORS
330
18
102
}
330
18
100
AcDbGroup
300

 70
     3
 71
     0
  0
GROUP
  5
1C4D
102
{ACAD_REACTORS
330
18
102
}
330
18
100
AcDbGroup
300

 70
     3
 71
     0
  0
GROUP
  5
48F5
102
{ACAD_REACTORS
330
18
102
}
330
18
100
AcDbGroup
300

 70
     3
 71
     0
  0
GROUP
  5
4813
102
{ACAD_REACTORS
330
18
102
}
330
18
100
AcDbGroup
300

 70
     3
 71
     0
  0
GROUP
  5
63B6
102
{ACAD_REACTORS
330
18
102
}
330
18
100
AcDbGroup
300

 70
     3
 71
     0
  0
GROUP
  5
49EB
102
{ACAD_REACTORS
330
18
102
}
330
18
100
AcDbGroup
300

 70
     3
 71
     0
  0
GROUP
  5
486C
102
{ACAD_REACTORS
330
18
102
}
330
18
100
AcDbGroup
300

 70
     3
 71
     0
  0
GROUP
  5
37C0
102
{ACAD_REACTORS
330
18
102
}
330
18
100
AcDbGroup
300

 70
     3
 71
     0
  0
GROUP
  5
1BCC
102
{ACAD_REACTORS
330
18
102
}
330
18
100
AcDbGroup
300

 70
     3
 71
     0
  0
GROUP
  5
4A03
102
{ACAD_REACTORS
330
18
102
}
330
18
100
AcDbGroup
300

 70
     3
 71
     0
  0
GROUP
  5
6242
102
{ACAD_REACTORS
330
18
102
}
330
18
100
AcDbGroup
300

 70
     3
 71
     0
  0
GROUP
  5
48B7
102
{ACAD_REACTORS
330
18
102
}
330
18
100
AcDbGroup
300

 70
     3
 71
     0
  0
GROUP
  5
497D
102
{ACAD_REACTORS
330
18
102
}
330
18
100
AcDbGroup
300

 70
     3
 71
     0
  0
GROUP
  5
4912
102
{ACAD_REACTORS
330
18
102
}
330
18
100
AcDbGroup
300

 70
     3
 71
     0
  0
GROUP
  5
48FF
102
{ACAD_REACTORS
330
18
102
}
330
18
100
AcDbGroup
300

 70
     3
 71
     0
  0
GROUP
  5
630E
102
{ACAD_REACTORS
330
18
102
}
330
18
100
AcDbGroup
300

 70
     3
 71
     0
  0
GROUP
  5
6370
102
{ACAD_REACTORS
330
18
102
}
330
18
100
AcDbGroup
300

 70
     3
 71
     0
  0
GROUP
  5
1C56
102
{ACAD_REACTORS
330
18
102
}
330
18
100
AcDbGroup
300

 70
     3
 71
     0
  0
GROUP
  5
622D
102
{ACAD_REACTORS
330
18
102
}
330
18
100
AcDbGroup
300

 70
     3
 71
     0
  0
GROUP
  5
4988
102
{ACAD_REACTORS
330
18
102
}
330
18
100
AcDbGroup
300

 70
     3
 71
     0
  0
GROUP
  5
62BE
102
{ACAD_REACTORS
330
18
102
}
330
18
100
AcDbGroup
300

 70
     3
 71
     0
  0
GROUP
  5
6241
102
{ACAD_REACTORS
330
18
102
}
330
18
100
AcDbGroup
300

 70
     3
 71
     0
  0
GROUP
  5
48FC
102
{ACAD_REACTORS
330
18
102
}
330
18
100
AcDbGroup
300

 70
     3
 71
     0
  0
GROUP
  5
4958
102
{ACAD_REACTORS
330
18
102
}
330
18
100
AcDbGroup
300

 70
     3
 71
     0
  0
GROUP
  5
63EA
102
{ACAD_REACTORS
330
18
102
}
330
18
100
AcDbGroup
300

 70
     3
 71
     0
  0
GROUP
  5
1BDF
102
{ACAD_REACTORS
330
18
102
}
330
18
100
AcDbGroup
300

 70
     3
 71
     0
  0
GROUP
  5
6307
102
{ACAD_REACTORS
330
18
102
}
330
18
100
AcDbGroup
300

 70
     3
 71
     0
  0
GROUP
  5
4824
102
{ACAD_REACTORS
330
18
102
}
330
18
100
AcDbGroup
300

 70
     3
 71
     0
  0
GROUP
  5
63DD
102
{ACAD_REACTORS
330
18
102
}
330
18
100
AcDbGroup
300

 70
     3
 71
     0
  0
GROUP
  5
489E
102
{ACAD_REACTORS
330
18
102
}
330
18
100
AcDbGroup
300

 70
     3
 71
     0
  0
GROUP
  5
49C9
102
{ACAD_REACTORS
330
18
102
}
330
18
100
AcDbGroup
300

 70
     3
 71
     0
  0
GROUP
  5
499B
102
{ACAD_REACTORS
330
18
102
}
330
18
100
AcDbGroup
300

 70
     3
 71
     0
  0
GROUP
  5
37A5
102
{ACAD_REACTORS
330
18
102
}
330
18
100
AcDbGroup
300

 70
     3
 71
     0
  0
GROUP
  5
6236
102
{ACAD_REACTORS
330
18
102
}
330
18
100
AcDbGroup
300

 70
     3
 71
     0
  0
GROUP
  5
6264
102
{ACAD_REACTORS
330
18
102
}
330
18
100
AcDbGroup
300

 70
     3
 71
     0
  0
GROUP
  5
1B70
102
{ACAD_REACTORS
330
18
102
}
330
18
100
AcDbGroup
300

 70
     3
 71
     0
  0
GROUP
  5
37B5
102
{ACAD_REACTORS
330
18
102
}
330
18
100
AcDbGroup
300

 70
     3
 71
     0
  0
GROUP
  5
63C2
102
{ACAD_REACTORS
330
18
102
}
330
18
100
AcDbGroup
300

 70
     3
 71
     0
  0
GROUP
  5
4952
102
{ACAD_REACTORS
330
18
102
}
330
18
100
AcDbGroup
300

 70
     3
 71
     0
  0
GROUP
  5
49B1
102
{ACAD_REACTORS
330
18
102
}
330
18
100
AcDbGroup
300

 70
     3
 71
     0
  0
GROUP
  5
48BD
102
{ACAD_REACTORS
330
18
102
}
330
18
100
AcDbGroup
300

 70
     3
 71
     0
  0
GROUP
  5
49A5
102
{ACAD_REACTORS
330
18
102
}
330
18
100
AcDbGroup
300

 70
     3
 71
     0
  0
GROUP
  5
1BD1
102
{ACAD_REACTORS
330
18
102
}
330
18
100
AcDbGroup
300

 70
     3
 71
     0
  0
GROUP
  5
1B99
102
{ACAD_REACTORS
330
18
102
}
330
18
100
AcDbGroup
300

 70
     3
 71
     0
  0
GROUP
  5
4993
102
{ACAD_REACTORS
330
18
102
}
330
18
100
AcDbGroup
300

 70
     3
 71
     0
  0
GROUP
  5
4948
102
{ACAD_REACTORS
330
18
102
}
330
18
100
AcDbGroup
300

 70
     3
 71
     0
  0
GROUP
  5
63FC
102
{ACAD_REACTORS
330
18
102
}
330
18
100
AcDbGroup
300

 70
     3
 71
     0
  0
GROUP
  5
62F9
102
{ACAD_REACTORS
330
18
102
}
330
18
100
AcDbGroup
300

 70
     3
 71
     0
  0
GROUP
  5
4981
102
{ACAD_REACTORS
330
18
102
}
330
18
100
AcDbGroup
300

 70
     3
 71
     0
  0
GROUP
  5
4962
102
{ACAD_REACTORS
330
18
102
}
330
18
100
AcDbGroup
300

 70
     3
 71
     0
  0
GROUP
  5
4931
102
{ACAD_REACTORS
330
18
102
}
330
18
100
AcDbGroup
300

 70
     3
 71
     0
  0
GROUP
  5
1B22
102
{ACAD_REACTORS
330
18
102
}
330
18
100
AcDbGroup
300

 70
     3
 71
     0
  0
GROUP
  5
4932
102
{ACAD_REACTORS
330
18
102
}
330
18
100
AcDbGroup
300

 70
     3
 71
     0
  0
GROUP
  5
1C23
102
{ACAD_REACTORS
330
18
102
}
330
18
100
AcDbGroup
300

 70
     3
 71
     0
  0
GROUP
  5
1BF6
102
{ACAD_REACTORS
330
18
102
}
330
18
100
AcDbGroup
300

 70
     3
 71
     0
  0
GROUP
  5
63A8
102
{ACAD_REACTORS
330
18
102
}
330
18
100
AcDbGroup
300

 70
     3
 71
     0
  0
GROUP
  5
63A5
102
{ACAD_REACTORS
330
18
102
}
330
18
100
AcDbGroup
300

 70
     3
 71
     0
  0
GROUP
  5
379B
102
{ACAD_REACTORS
330
18
102
}
330
18
100
AcDbGroup
300

 70
     3
 71
     0
  0
GROUP
  5
62A5
102
{ACAD_REACTORS
330
18
102
}
330
18
100
AcDbGroup
300

 70
     3
 71
     0
  0
GROUP
  5
6227
102
{ACAD_REACTORS
330
18
102
}
330
18
100
AcDbGroup
300

 70
     3
 71
     0
  0
GROUP
  5
1B79
102
{ACAD_REACTORS
330
18
102
}
330
18
100
AcDbGroup
300

 70
     3
 71
     0
  0
GROUP
  5
4880
102
{ACAD_REACTORS
330
18
102
}
330
18
100
AcDbGroup
300

 70
     3
 71
     0
  0
GROUP
  5
1AE0
102
{ACAD_REACTORS
330
18
102
}
330
18
100
AcDbGroup
300

 70
     3
 71
     0
  0
GROUP
  5
1B8C
102
{ACAD_REACTORS
330
18
102
}
330
18
100
AcDbGroup
300

 70
     3
 71
     0
  0
GROUP
  5
49AB
102
{ACAD_REACTORS
330
18
102
}
330
18
100
AcDbGroup
300

 70
     3
 71
     0
  0
GROUP
  5
1B72
102
{ACAD_REACTORS
330
18
102
}
330
18
100
AcDbGroup
300

 70
     3
 71
     0
  0
GROUP
  5
621A
102
{ACAD_REACTORS
330
18
102
}
330
18
100
AcDbGroup
300

 70
     3
 71
     0
  0
GROUP
  5
1BDE
102
{ACAD_REACTORS
330
18
102
}
330
18
100
AcDbGroup
300

 70
     3
 71
     0
  0
GROUP
  5
48EC
102
{ACAD_REACTORS
330
18
102
}
330
18
100
AcDbGroup
300

 70
     3
 71
     0
  0
GROUP
  5
638A
102
{ACAD_REACTORS
330
18
102
}
330
18
100
AcDbGroup
300

 70
     3
 71
     0
  0
GROUP
  5
4890
102
{ACAD_REACTORS
330
18
102
}
330
18
100
AcDbGroup
300

 70
     3
 71
     0
  0
GROUP
  5
6309
102
{ACAD_REACTORS
330
18
102
}
330
18
100
AcDbGroup
300

 70
     3
 71
     0
  0
GROUP
  5
1BFB
102
{ACAD_REACTORS
330
18
102
}
330
18
100
AcDbGroup
300

 70
     3
 71
     0
  0
GROUP
  5
4864
102
{ACAD_REACTORS
330
18
102
}
330
18
100
AcDbGroup
300

 70
     3
 71
     0
  0
GROUP
  5
497B
102
{ACAD_REACTORS
330
18
102
}
330
18
100
AcDbGroup
300

 70
     3
 71
     0
  0
GROUP
  5
62D3
102
{ACAD_REACTORS
330
18
102
}
330
18
100
AcDbGroup
300

 70
     3
 71
     1
  0
GROUP
  5
6233
102
{ACAD_REACTORS
330
18
102
}
330
18
100
AcDbGroup
300

 70
     3
 71
     0
  0
GROUP
  5
1BB7
102
{ACAD_REACTORS
330
18
102
}
330
18
100
AcDbGroup
300

 70
     3
 71
     0
  0
GROUP
  5
1C01
102
{ACAD_REACTORS
330
18
102
}
330
18
100
AcDbGroup
300

 70
     3
 71
     0
  0
GROUP
  5
62AE
102
{ACAD_REACTORS
330
18
102
}
330
18
100
AcDbGroup
300

 70
     3
 71
     0
  0
GROUP
  5
48E0
102
{ACAD_REACTORS
330
18
102
}
330
18
100
AcDbGroup
300

 70
     3
 71
     0
  0
GROUP
  5
633E
102
{ACAD_REACTORS
330
18
102
}
330
18
100
AcDbGroup
300

 70
     3
 71
     0
  0
GROUP
  5
63D9
102
{ACAD_REACTORS
330
18
102
}
330
18
100
AcDbGroup
300

 70
     3
 71
     0
  0
GROUP
  5
6424
102
{ACAD_REACTORS
330
18
102
}
330
18
100
AcDbGroup
300

 70
     3
 71
     0
  0
GROUP
  5
492D
102
{ACAD_REACTORS
330
18
102
}
330
18
100
AcDbGroup
300

 70
     3
 71
     0
  0
GROUP
  5
48B5
102
{ACAD_REACTORS
330
18
102
}
330
18
100
AcDbGroup
300

 70
     3
 71
     0
  0
GROUP
  5
4964
102
{ACAD_REACTORS
330
18
102
}
330
18
100
AcDbGroup
300

 70
     3
 71
     0
  0
GROUP
  5
4884
102
{ACAD_REACTORS
330
18
102
}
330
18
100
AcDbGroup
300

 70
     3
 71
     0
  0
GROUP
  5
1B41
102
{ACAD_REACTORS
330
18
102
}
330
18
100
AcDbGroup
300

 70
     3
 71
     0
  0
GROUP
  5
1BB2
102
{ACAD_REACTORS
330
18
102
}
330
18
100
AcDbGroup
300

 70
     3
 71
     0
  0
GROUP
  5
49CB
102
{ACAD_REACTORS
330
18
102
}
330
18
100
AcDbGroup
300

 70
     3
 71
     0
  0
GROUP
  5
145B
102
{ACAD_REACTORS
330
18
102
}
330
18
100
AcDbGroup
300

 70
     3
 71
     0
  0
GROUP
  5
1AE5
102
{ACAD_REACTORS
330
18
102
}
330
18
100
AcDbGroup
300

 70
     3
 71
     0
  0
GROUP
  5
4950
102
{ACAD_REACTORS
330
18
102
}
330
18
100
AcDbGroup
300

 70
     3
 71
     0
  0
GROUP
  5
1B5F
102
{ACAD_REACTORS
330
18
102
}
330
18
100
AcDbGroup
300

 70
     3
 71
     0
  0
GROUP
  5
6308
102
{ACAD_REACTORS
330
18
102
}
330
18
100
AcDbGroup
300

 70
     3
 71
     0
  0
GROUP
  5
4845
102
{ACAD_REACTORS
330
18
102
}
330
18
100
AcDbGroup
300

 70
     3
 71
     0
  0
GROUP
  5
1C05
102
{ACAD_REACTORS
330
18
102
}
330
18
100
AcDbGroup
300

 70
     3
 71
     0
  0
GROUP
  5
1C4E
102
{ACAD_REACTORS
330
18
102
}
330
18
100
AcDbGroup
300

 70
     3
 71
     0
  0
GROUP
  5
49B9
102
{ACAD_REACTORS
330
18
102
}
330
18
100
AcDbGroup
300

 70
     3
 71
     0
  0
GROUP
  5
63E3
102
{ACAD_REACTORS
330
18
102
}
330
18
100
AcDbGroup
300

 70
     3
 71
     0
  0
GROUP
  5
1BF3
102
{ACAD_REACTORS
330
18
102
}
330
18
100
AcDbGroup
300

 70
     3
 71
     0
  0
GROUP
  5
1C35
102
{ACAD_REACTORS
330
18
102
}
330
18
100
AcDbGroup
300

 70
     3
 71
     0
  0
GROUP
  5
4946
102
{ACAD_REACTORS
330
18
102
}
330
18
100
AcDbGroup
300

 70
     3
 71
     0
  0
GROUP
  5
62C3
102
{ACAD_REACTORS
330
18
102
}
330
18
100
AcDbGroup
300

 70
     3
 71
     0
  0
GROUP
  5
6219
102
{ACAD_REACTORS
330
18
102
}
330
18
100
AcDbGroup
300

 70
     3
 71
     0
  0
GROUP
  5
63F7
102
{ACAD_REACTORS
330
18
102
}
330
18
100
AcDbGroup
300

 70
     3
 71
     0
  0
GROUP
  5
631E
102
{ACAD_REACTORS
330
18
102
}
330
18
100
AcDbGroup
300

 70
     3
 71
     0
  0
GROUP
  5
49AE
102
{ACAD_REACTORS
330
18
102
}
330
18
100
AcDbGroup
300

 70
     3
 71
     0
  0
GROUP
  5
4A01
102
{ACAD_REACTORS
330
18
102
}
330
18
100
AcDbGroup
300

 70
     3
 71
     0
  0
GROUP
  5
4847
102
{ACAD_REACTORS
330
18
102
}
330
18
100
AcDbGroup
300

 70
     3
 71
     0
  0
GROUP
  5
37A9
102
{ACAD_REACTORS
330
18
102
}
330
18
100
AcDbGroup
300

 70
     3
 71
     0
  0
GROUP
  5
6395
102
{ACAD_REACTORS
330
18
102
}
330
18
100
AcDbGroup
300

 70
     3
 71
     0
  0
GROUP
  5
1B24
102
{ACAD_REACTORS
330
18
102
}
330
18
100
AcDbGroup
300

 70
     3
 71
     0
  0
GROUP
  5
49EA
102
{ACAD_REACTORS
330
18
102
}
330
18
100
AcDbGroup
300

 70
     3
 71
     0
  0
GROUP
  5
497C
102
{ACAD_REACTORS
330
18
102
}
330
18
100
AcDbGroup
300

 70
     3
 71
     0
  0
GROUP
  5
63B7
102
{ACAD_REACTORS
330
18
102
}
330
18
100
AcDbGroup
300

 70
     3
 71
     0
  0
GROUP
  5
63CA
102
{ACAD_REACTORS
330
18
102
}
330
18
100
AcDbGroup
300

 70
     3
 71
     0
  0
GROUP
  5
1B12
102
{ACAD_REACTORS
330
18
102
}
330
18
100
AcDbGroup
300

 70
     3
 71
     0
  0
GROUP
  5
37B7
102
{ACAD_REACTORS
330
18
102
}
330
18
100
AcDbGroup
300

 70
     3
 71
     0
  0
GROUP
  5
63D1
102
{ACAD_REACTORS
330
18
102
}
330
18
100
AcDbGroup
300

 70
     3
 71
     0
  0
GROUP
  5
1C22
102
{ACAD_REACTORS
330
18
102
}
330
18
100
AcDbGroup
300

 70
     3
 71
     0
  0
GROUP
  5
638C
102
{ACAD_REACTORS
330
18
102
}
330
18
100
AcDbGroup
300

 70
     3
 71
     0
  0
GROUP
  5
6362
102
{ACAD_REACTORS
330
18
102
}
330
18
100
AcDbGroup
300

 70
     3
 71
     0
  0
GROUP
  5
62C0
102
{ACAD_REACTORS
330
18
102
}
330
18
100
AcDbGroup
300

 70
     3
 71
     0
  0
GROUP
  5
1C3F
102
{ACAD_REACTORS
330
18
102
}
330
18
100
AcDbGroup
300

 70
     3
 71
     0
  0
GROUP
  5
1B07
102
{ACAD_REACTORS
330
18
102
}
330
18
100
AcDbGroup
300

 70
     3
 71
     0
  0
GROUP
  5
636B
102
{ACAD_REACTORS
330
18
102
}
330
18
100
AcDbGroup
300

 70
     3
 71
     0
  0
GROUP
  5
1BD5
102
{ACAD_REACTORS
330
18
102
}
330
18
100
AcDbGroup
300

 70
     3
 71
     0
  0
GROUP
  5
1B51
102
{ACAD_REACTORS
330
18
102
}
330
18
100
AcDbGroup
300

 70
     3
 71
     0
  0
GROUP
  5
4967
102
{ACAD_REACTORS
330
18
102
}
330
18
100
AcDbGroup
300

 70
     3
 71
     0
  0
GROUP
  5
482C
102
{ACAD_REACTORS
330
18
102
}
330
18
100
AcDbGroup
300

 70
     3
 71
     0
  0
GROUP
  5
634D
102
{ACAD_REACTORS
330
18
102
}
330
18
100
AcDbGroup
300

 70
     3
 71
     0
  0
GROUP
  5
49E4
102
{ACAD_REACTORS
330
18
102
}
330
18
100
AcDbGroup
300

 70
     3
 71
     0
  0
GROUP
  5
49BC
102
{ACAD_REACTORS
330
18
102
}
330
18
100
AcDbGroup
300

 70
     3
 71
     0
  0
GROUP
  5
49A9
102
{ACAD_REACTORS
330
18
102
}
330
18
100
AcDbGroup
300

 70
     3
 71
     0
  0
GROUP
  5
6359
102
{ACAD_REACTORS
330
18
102
}
330
18
100
AcDbGroup
300

 70
     3
 71
     0
  0
GROUP
  5
4926
102
{ACAD_REACTORS
330
18
102
}
330
18
100
AcDbGroup
300

 70
     3
 71
     0
  0
GROUP
  5
1ACF
102
{ACAD_REACTORS
330
18
102
}
330
18
100
AcDbGroup
300

 70
     3
 71
     0
  0
GROUP
  5
1B7F
102
{ACAD_REACTORS
330
18
102
}
330
18
100
AcDbGroup
300

 70
     3
 71
     0
  0
GROUP
  5
4A18
102
{ACAD_REACTORS
330
18
102
}
330
18
100
AcDbGroup
300

 70
     3
 71
     0
  0
GROUP
  5
1B09
102
{ACAD_REACTORS
330
18
102
}
330
18
100
AcDbGroup
300

 70
     3
 71
     0
  0
GROUP
  5
634E
102
{ACAD_REACTORS
330
18
102
}
330
18
100
AcDbGroup
300

 70
     3
 71
     0
  0
GROUP
  5
4872
102
{ACAD_REACTORS
330
18
102
}
330
18
100
AcDbGroup
300

 70
     3
 71
     0
  0
GROUP
  5
6404
102
{ACAD_REACTORS
330
18
102
}
330
18
100
AcDbGroup
300

 70
     3
 71
     0
  0
GROUP
  5
1B6A
102
{ACAD_REACTORS
330
18
102
}
330
18
100
AcDbGroup
300

 70
     3
 71
     0
  0
GROUP
  5
63D4
102
{ACAD_REACTORS
330
18
102
}
330
18
100
AcDbGroup
300

 70
     3
 71
     0
  0
GROUP
  5
63FA
102
{ACAD_REACTORS
330
18
102
}
330
18
100
AcDbGroup
300

 70
     3
 71
     0
  0
GROUP
  5
63F8
102
{ACAD_REACTORS
330
18
102
}
330
18
100
AcDbGroup
300

 70
     3
 71
     0
  0
GROUP
  5
1B8D
102
{ACAD_REACTORS
330
18
102
}
330
18
100
AcDbGroup
300

 70
     3
 71
     0
  0
GROUP
  5
6357
102
{ACAD_REACTORS
330
18
102
}
330
18
100
AcDbGroup
300

 70
     3
 71
     0
  0
GROUP
  5
49B2
102
{ACAD_REACTORS
330
18
102
}
330
18
100
AcDbGroup
300

 70
     3
 71
     0
  0
GROUP
  5
1B03
102
{ACAD_REACTORS
330
18
102
}
330
18
100
AcDbGroup
300

 70
     3
 71
     0
  0
GROUP
  5
6224
102
{ACAD_REACTORS
330
18
102
}
330
18
100
AcDbGroup
300

 70
     3
 71
     0
  0
GROUP
  5
1C24
102
{ACAD_REACTORS
330
18
102
}
330
18
100
AcDbGroup
300

 70
     3
 71
     0
  0
GROUP
  5
1C07
102
{ACAD_REACTORS
330
18
102
}
330
18
100
AcDbGroup
300

 70
     3
 71
     0
  0
GROUP
  5
6417
102
{ACAD_REACTORS
330
18
102
}
330
18
100
AcDbGroup
300

 70
     3
 71
     0
  0
GROUP
  5
1B53
102
{ACAD_REACTORS
330
18
102
}
330
18
100
AcDbGroup
300

 70
     3
 71
     0
  0
GROUP
  5
63FE
102
{ACAD_REACTORS
330
18
102
}
330
18
100
AcDbGroup
300

 70
     3
 71
     0
  0
GROUP
  5
486F
102
{ACAD_REACTORS
330
18
102
}
330
18
100
AcDbGroup
300

 70
     3
 71
     0
  0
GROUP
  5
1BBE
102
{ACAD_REACTORS
330
18
102
}
330
18
100
AcDbGroup
300

 70
     3
 71
     0
  0
GROUP
  5
62ED
102
{ACAD_REACTORS
330
18
102
}
330
18
100
AcDbGroup
300

 70
     3
 71
     0
  0
GROUP
  5
1BC0
102
{ACAD_REACTORS
330
18
102
}
330
18
100
AcDbGroup
300

 70
     3
 71
     0
  0
GROUP
  5
62B9
102
{ACAD_REACTORS
330
18
102
}
330
18
100
AcDbGroup
300

 70
     3
 71
     0
  0
GROUP
  5
49E6
102
{ACAD_REACTORS
330
18
102
}
330
18
100
AcDbGroup
300

 70
     3
 71
     0
  0
GROUP
  5
632B
102
{ACAD_REACTORS
330
18
102
}
330
18
100
AcDbGroup
300

 70
     3
 71
     0
  0
GROUP
  5
6406
102
{ACAD_REACTORS
330
18
102
}
330
18
100
AcDbGroup
300

 70
     3
 71
     0
  0
GROUP
  5
6240
102
{ACAD_REACTORS
330
18
102
}
330
18
100
AcDbGroup
300

 70
     3
 71
     0
  0
GROUP
  5
482E
102
{ACAD_REACTORS
330
18
102
}
330
18
100
AcDbGroup
300

 70
     3
 71
     0
  0
GROUP
  5
48E4
102
{ACAD_REACTORS
330
18
102
}
330
18
100
AcDbGroup
300

 70
     3
 71
     0
  0
GROUP
  5
1B98
102
{ACAD_REACTORS
330
18
102
}
330
18
100
AcDbGroup
300

 70
     3
 71
     0
  0
GROUP
  5
4811
102
{ACAD_REACTORS
330
18
102
}
330
18
100
AcDbGroup
300

 70
     3
 71
     0
  0
GROUP
  5
1C18
102
{ACAD_REACTORS
330
18
102
}
330
18
100
AcDbGroup
300

 70
     3
 71
     0
  0
GROUP
  5
37AD
102
{ACAD_REACTORS
330
18
102
}
330
18
100
AcDbGroup
300

 70
     3
 71
     0
  0
GROUP
  5
623F
102
{ACAD_REACTORS
330
18
102
}
330
18
100
AcDbGroup
300

 70
     3
 71
     0
  0
GROUP
  5
49D2
102
{ACAD_REACTORS
330
18
102
}
330
18
100
AcDbGroup
300

 70
     3
 71
     0
  0
GROUP
  5
4903
102
{ACAD_REACTORS
330
18
102
}
330
18
100
AcDbGroup
300

 70
     3
 71
     0
  0
GROUP
  5
63CB
102
{ACAD_REACTORS
330
18
102
}
330
18
100
AcDbGroup
300

 70
     3
 71
     0
  0
GROUP
  5
1BD8
102
{ACAD_REACTORS
330
18
102
}
330
18
100
AcDbGroup
300

 70
     3
 71
     0
  0
GROUP
  5
6393
102
{ACAD_REACTORS
330
18
102
}
330
18
100
AcDbGroup
300

 70
     3
 71
     0
  0
GROUP
  5
6383
102
{ACAD_REACTORS
330
18
102
}
330
18
100
AcDbGroup
300

 70
     3
 71
     0
  0
GROUP
  5
63E5
102
{ACAD_REACTORS
330
18
102
}
330
18
100
AcDbGroup
300

 70
     3
 71
     0
  0
GROUP
  5
639D
102
{ACAD_REACTORS
330
18
102
}
330
18
100
AcDbGroup
300

 70
     3
 71
     0
  0
GROUP
  5
6277
102
{ACAD_REACTORS
330
18
102
}
330
18
100
AcDbGroup
300

 70
     3
 71
     0
  0
GROUP
  5
1BD6
102
{ACAD_REACTORS
330
18
102
}
330
18
100
AcDbGroup
300

 70
     3
 71
     0
  0
GROUP
  5
1BB8
102
{ACAD_REACTORS
330
18
102
}
330
18
100
AcDbGroup
300

 70
     3
 71
     0
  0
GROUP
  5
489F
102
{ACAD_REACTORS
330
18
102
}
330
18
100
AcDbGroup
300

 70
     3
 71
     0
  0
GROUP
  5
49CA
102
{ACAD_REACTORS
330
18
102
}
330
18
100
AcDbGroup
300

 70
     3
 71
     0
  0
GROUP
  5
1B58
102
{ACAD_REACTORS
330
18
102
}
330
18
100
AcDbGroup
300

 70
     3
 71
     0
  0
GROUP
  5
62EE
102
{ACAD_REACTORS
330
18
102
}
330
18
100
AcDbGroup
300

 70
     3
 71
     0
  0
GROUP
  5
63E7
102
{ACAD_REACTORS
330
18
102
}
330
18
100
AcDbGroup
300

 70
     3
 71
     0
  0
GROUP
  5
48D3
102
{ACAD_REACTORS
330
18
102
}
330
18
100
AcDbGroup
300

 70
     3
 71
     0
  0
GROUP
  5
4905
102
{ACAD_REACTORS
330
18
102
}
330
18
100
AcDbGroup
300

 70
     3
 71
     0
  0
GROUP
  5
6415
102
{ACAD_REACTORS
330
18
102
}
330
18
100
AcDbGroup
300

 70
     3
 71
     0
  0
GROUP
  5
49CE
102
{ACAD_REACTORS
330
18
102
}
330
18
100
AcDbGroup
300

 70
     3
 71
     0
  0
GROUP
  5
1C1C
102
{ACAD_REACTORS
330
18
102
}
330
18
100
AcDbGroup
300

 70
     3
 71
     0
  0
GROUP
  5
48DC
102
{ACAD_REACTORS
330
18
102
}
330
18
100
AcDbGroup
300

 70
     3
 71
     0
  0
GROUP
  5
379A
102
{ACAD_REACTORS
330
18
102
}
330
18
100
AcDbGroup
300

 70
     3
 71
     0
  0
GROUP
  5
49FA
102
{ACAD_REACTORS
330
18
102
}
330
18
100
AcDbGroup
300

 70
     3
 71
     0
  0
GROUP
  5
37AC
102
{ACAD_REACTORS
330
18
102
}
330
18
100
AcDbGroup
300

 70
     3
 71
     0
  0
GROUP
  5
49A6
102
{ACAD_REACTORS
330
18
102
}
330
18
100
AcDbGroup
300

 70
     3
 71
     0
  0
GROUP
  5
636F
102
{ACAD_REACTORS
330
18
102
}
330
18
100
AcDbGroup
300

 70
     3
 71
     0
  0
GROUP
  5
1B7D
102
{ACAD_REACTORS
330
18
102
}
330
18
100
AcDbGroup
300

 70
     3
 71
     0
  0
GROUP
  5
4882
102
{ACAD_REACTORS
330
18
102
}
330
18
100
AcDbGroup
300

 70
     3
 71
     0
  0
GROUP
  5
637C
102
{ACAD_REACTORS
330
18
102
}
330
18
100
AcDbGroup
300

 70
     3
 71
     0
  0
GROUP
  5
4957
102
{ACAD_REACTORS
330
18
102
}
330
18
100
AcDbGroup
300

 70
     3
 71
     0
  0
GROUP
  5
1B52
102
{ACAD_REACTORS
330
18
102
}
330
18
100
AcDbGroup
300

 70
     3
 71
     0
  0
GROUP
  5
484D
102
{ACAD_REACTORS
330
18
102
}
330
18
100
AcDbGroup
300

 70
     3
 71
     0
  0
GROUP
  5
49B7
102
{ACAD_REACTORS
330
18
102
}
330
18
100
AcDbGroup
300

 70
     3
 71
     0
  0
GROUP
  5
49BA
102
{ACAD_REACTORS
330
18
102
}
330
18
100
AcDbGroup
300

 70
     3
 71
     0
  0
GROUP
  5
1BCD
102
{ACAD_REACTORS
330
18
102
}
330
18
100
AcDbGroup
300

 70
     3
 71
     0
  0
GROUP
  5
6223
102
{ACAD_REACTORS
330
18
102
}
330
18
100
AcDbGroup
300

 70
     3
 71
     0
  0
GROUP
  5
4A08
102
{ACAD_REACTORS
330
18
102
}
330
18
100
AcDbGroup
300

 70
     3
 71
     0
  0
GROUP
  5
1BEC
102
{ACAD_REACTORS
330
18
102
}
330
18
100
AcDbGroup
300

 70
     3
 71
     0
  0
GROUP
  5
488B
102
{ACAD_REACTORS
330
18
102
}
330
18
100
AcDbGroup
300

 70
     3
 71
     0
  0
GROUP
  5
1ACD
102
{ACAD_REACTORS
330
18
102
}
330
18
100
AcDbGroup
300

 70
     3
 71
     0
  0
GROUP
  5
4999
102
{ACAD_REACTORS
330
18
102
}
330
18
100
AcDbGroup
300

 70
     3
 71
     0
  0
GROUP
  5
48DA
102
{ACAD_REACTORS
330
18
102
}
330
18
100
AcDbGroup
300

 70
     3
 71
     0
  0
GROUP
  5
629A
102
{ACAD_REACTORS
330
18
102
}
330
18
100
AcDbGroup
300

 70
     3
 71
     0
  0
GROUP
  5
1B45
102
{ACAD_REACTORS
330
18
102
}
330
18
100
AcDbGroup
300

 70
     3
 71
     0
  0
GROUP
  5
6222
102
{ACAD_REACTORS
330
18
102
}
330
18
100
AcDbGroup
300

 70
     3
 71
     0
  0
GROUP
  5
6218
102
{ACAD_REACTORS
330
18
102
}
330
18
100
AcDbGroup
300

 70
     3
 71
     0
  0
GROUP
  5
4915
102
{ACAD_REACTORS
330
18
102
}
330
18
100
AcDbGroup
300

 70
     3
 71
     0
  0
GROUP
  5
491A
102
{ACAD_REACTORS
330
18
102
}
330
18
100
AcDbGroup
300

 70
     3
 71
     0
  0
GROUP
  5
48FE
102
{ACAD_REACTORS
330
18
102
}
330
18
100
AcDbGroup
300

 70
     3
 71
     0
  0
GROUP
  5
1C29
102
{ACAD_REACTORS
330
18
102
}
330
18
100
AcDbGroup
300

 70
     3
 71
     0
  0
GROUP
  5
1BF8
102
{ACAD_REACTORS
330
18
102
}
330
18
100
AcDbGroup
300

 70
     3
 71
     0
  0
GROUP
  5
624F
102
{ACAD_REACTORS
330
18
102
}
330
18
100
AcDbGroup
300

 70
     3
 71
     0
  0
GROUP
  5
1B1A
102
{ACAD_REACTORS
330
18
102
}
330
18
100
AcDbGroup
300

 70
     3
 71
     0
  0
GROUP
  5
1AF2
102
{ACAD_REACTORS
330
18
102
}
330
18
100
AcDbGroup
300

 70
     3
 71
     0
  0
GROUP
  5
48B2
102
{ACAD_REACTORS
330
18
102
}
330
18
100
AcDbGroup
300

 70
     3
 71
     0
  0
GROUP
  5
37AE
102
{ACAD_REACTORS
330
18
102
}
330
18
100
AcDbGroup
300

 70
     3
 71
     0
  0
GROUP
  5
63D7
102
{ACAD_REACTORS
330
18
102
}
330
18
100
AcDbGroup
300

 70
     3
 71
     0
  0
GROUP
  5
6216
102
{ACAD_REACTORS
330
18
102
}
330
18
100
AcDbGroup
300

 70
     3
 71
     0
  0
GROUP
  5
1B37
102
{ACAD_REACTORS
330
18
102
}
330
18
100
AcDbGroup
300

 70
     3
 71
     0
  0
GROUP
  5
4986
102
{ACAD_REACTORS
330
18
102
}
330
18
100
AcDbGroup
300

 70
     3
 71
     0
  0
GROUP
  5
1B54
102
{ACAD_REACTORS
330
18
102
}
330
18
100
AcDbGroup
300

 70
     3
 71
     0
  0
GROUP
  5
4821
102
{ACAD_REACTORS
330
18
102
}
330
18
100
AcDbGroup
300

 70
     3
 71
     0
  0
GROUP
  5
37A1
102
{ACAD_REACTORS
330
18
102
}
330
18
100
AcDbGroup
300

 70
     3
 71
     0
  0
GROUP
  5
1B80
102
{ACAD_REACTORS
330
18
102
}
330
18
100
AcDbGroup
300

 70
     3
 71
     0
  0
GROUP
  5
6378
102
{ACAD_REACTORS
330
18
102
}
330
18
100
AcDbGroup
300

 70
     3
 71
     0
  0
GROUP
  5
1B34
102
{ACAD_REACTORS
330
18
102
}
330
18
100
AcDbGroup
300

 70
     3
 71
     0
  0
GROUP
  5
1B8E
102
{ACAD_REACTORS
330
18
102
}
330
18
100
AcDbGroup
300

 70
     3
 71
     0
  0
GROUP
  5
1B9F
102
{ACAD_REACTORS
330
18
102
}
330
18
100
AcDbGroup
300

 70
     3
 71
     0
  0
GROUP
  5
63D3
102
{ACAD_REACTORS
330
18
102
}
330
18
100
AcDbGroup
300

 70
     3
 71
     0
  0
GROUP
  5
1B49
102
{ACAD_REACTORS
330
18
102
}
330
18
100
AcDbGroup
300

 70
     3
 71
     0
  0
GROUP
  5
1B9D
102
{ACAD_REACTORS
330
18
102
}
330
18
100
AcDbGroup
300

 70
     3
 71
     0
  0
GROUP
  5
4893
102
{ACAD_REACTORS
330
18
102
}
330
18
100
AcDbGroup
300

 70
     3
 71
     0
  0
GROUP
  5
63BF
102
{ACAD_REACTORS
330
18
102
}
330
18
100
AcDbGroup
300

 70
     3
 71
     0
  0
GROUP
  5
6364
102
{ACAD_REACTORS
330
18
102
}
330
18
100
AcDbGroup
300

 70
     3
 71
     0
  0
GROUP
  5
62E0
102
{ACAD_REACTORS
330
18
102
}
330
18
100
AcDbGroup
300

 70
     3
 71
     0
  0
GROUP
  5
6348
102
{ACAD_REACTORS
330
18
102
}
330
18
100
AcDbGroup
300

 70
     3
 71
     0
  0
GROUP
  5
623D
102
{ACAD_REACTORS
330
18
102
}
330
18
100
AcDbGroup
300

 70
     3
 71
     0
  0
GROUP
  5
627C
102
{ACAD_REACTORS
330
18
102
}
330
18
100
AcDbGroup
300

 70
     3
 71
     0
  0
GROUP
  5
4839
102
{ACAD_REACTORS
330
18
102
}
330
18
100
AcDbGroup
300

 70
     3
 71
     0
  0
GROUP
  5
1B36
102
{ACAD_REACTORS
330
18
102
}
330
18
100
AcDbGroup
300

 70
     3
 71
     0
  0
GROUP
  5
62A9
102
{ACAD_REACTORS
330
18
102
}
330
18
100
AcDbGroup
300

 70
     3
 71
     0
  0
GROUP
  5
494C
102
{ACAD_REACTORS
330
18
102
}
330
18
100
AcDbGroup
300

 70
     3
 71
     0
  0
GROUP
  5
1454
102
{ACAD_REACTORS
330
18
102
}
330
18
100
AcDbGroup
300

 70
     3
 71
     0
  0
GROUP
  5
62BF
102
{ACAD_REACTORS
330
18
102
}
330
18
100
AcDbGroup
300

 70
     3
 71
     0
  0
GROUP
  5
4830
102
{ACAD_REACTORS
330
18
102
}
330
18
100
AcDbGroup
300

 70
     3
 71
     0
  0
GROUP
  5
63C7
102
{ACAD_REACTORS
330
18
102
}
330
18
100
AcDbGroup
300

 70
     3
 71
     0
  0
GROUP
  5
1B28
102
{ACAD_REACTORS
330
18
102
}
330
18
100
AcDbGroup
300

 70
     3
 71
     0
  0
GROUP
  5
4944
102
{ACAD_REACTORS
330
18
102
}
330
18
100
AcDbGroup
300

 70
     3
 71
     0
  0
GROUP
  5
6263
102
{ACAD_REACTORS
330
18
102
}
330
18
100
AcDbGroup
300

 70
     3
 71
     0
  0
GROUP
  5
1B65
102
{ACAD_REACTORS
330
18
102
}
330
18
100
AcDbGroup
300

 70
     3
 71
     0
  0
GROUP
  5
1BD7
102
{ACAD_REACTORS
330
18
102
}
330
18
100
AcDbGroup
300

 70
     3
 71
     0
  0
GROUP
  5
49FF
102
{ACAD_REACTORS
330
18
102
}
330
18
100
AcDbGroup
300

 70
     3
 71
     0
  0
GROUP
  5
49F3
102
{ACAD_REACTORS
330
18
102
}
330
18
100
AcDbGroup
300

 70
     3
 71
     0
  0
GROUP
  5
62F3
102
{ACAD_REACTORS
330
18
102
}
330
18
100
AcDbGroup
300

 70
     3
 71
     0
  0
GROUP
  5
1AF6
102
{ACAD_REACTORS
330
18
102
}
330
18
100
AcDbGroup
300

 70
     3
 71
     0
  0
GROUP
  5
1C0D
102
{ACAD_REACTORS
330
18
102
}
330
18
100
AcDbGroup
300

 70
     3
 71
     0
  0
GROUP
  5
480C
102
{ACAD_REACTORS
330
18
102
}
330
18
100
AcDbGroup
300

 70
     3
 71
     0
  0
GROUP
  5
484E
102
{ACAD_REACTORS
330
18
102
}
330
18
100
AcDbGroup
300

 70
     3
 71
     0
  0
GROUP
  5
49E5
102
{ACAD_REACTORS
330
18
102
}
330
18
100
AcDbGroup
300

 70
     3
 71
     0
  0
GROUP
  5
4825
102
{ACAD_REACTORS
330
18
102
}
330
18
100
AcDbGroup
300

 70
     3
 71
     0
  0
GROUP
  5
1C10
102
{ACAD_REACTORS
330
18
102
}
330
18
100
AcDbGroup
300

 70
     3
 71
     0
  0
GROUP
  5
1BDC
102
{ACAD_REACTORS
330
18
102
}
330
18
100
AcDbGroup
300

 70
     3
 71
     0
  0
GROUP
  5
37B4
102
{ACAD_REACTORS
330
18
102
}
330
18
100
AcDbGroup
300

 70
     3
 71
     0
  0
GROUP
  5
1B57
102
{ACAD_REACTORS
330
18
102
}
330
18
100
AcDbGroup
300

 70
     3
 71
     0
  0
GROUP
  5
4A09
102
{ACAD_REACTORS
330
18
102
}
330
18
100
AcDbGroup
300

 70
     3
 71
     0
  0
GROUP
  5
4970
102
{ACAD_REACTORS
330
18
102
}
330
18
100
AcDbGroup
300

 70
     3
 71
     0
  0
GROUP
  5
1C3E
102
{ACAD_REACTORS
330
18
102
}
330
18
100
AcDbGroup
300

 70
     3
 71
     0
  0
GROUP
  5
1C4F
102
{ACAD_REACTORS
330
18
102
}
330
18
100
AcDbGroup
300

 70
     3
 71
     0
  0
GROUP
  5
1B87
102
{ACAD_REACTORS
330
18
102
}
330
18
100
AcDbGroup
300

 70
     3
 71
     0
  0
GROUP
  5
62FB
102
{ACAD_REACTORS
330
18
102
}
330
18
100
AcDbGroup
300

 70
     3
 71
     0
  0
GROUP
  5
627E
102
{ACAD_REACTORS
330
18
102
}
330
18
100
AcDbGroup
300

 70
     3
 71
     0
  0
GROUP
  5
6237
102
{ACAD_REACTORS
330
18
102
}
330
18
100
AcDbGroup
300

 70
     3
 71
     0
  0
GROUP
  5
1C1F
102
{ACAD_REACTORS
330
18
102
}
330
18
100
AcDbGroup
300

 70
     3
 71
     0
  0
GROUP
  5
6320
102
{ACAD_REACTORS
330
18
102
}
330
18
100
AcDbGroup
300

 70
     3
 71
     0
  0
GROUP
  5
631F
102
{ACAD_REACTORS
330
18
102
}
330
18
100
AcDbGroup
300

 70
     3
 71
     0
  0
GROUP
  5
379C
102
{ACAD_REACTORS
330
18
102
}
330
18
100
AcDbGroup
300

 70
     3
 71
     0
  0
GROUP
  5
1B46
102
{ACAD_REACTORS
330
18
102
}
330
18
100
AcDbGroup
300

 70
     3
 71
     0
  0
GROUP
  5
37A0
102
{ACAD_REACTORS
330
18
102
}
330
18
100
AcDbGroup
300

 70
     3
 71
     0
  0
GROUP
  5
1C04
102
{ACAD_REACTORS
330
18
102
}
330
18
100
AcDbGroup
300

 70
     3
 71
     0
  0
GROUP
  5
1BE5
102
{ACAD_REACTORS
330
18
102
}
330
18
100
AcDbGroup
300

 70
     3
 71
     0
  0
GROUP
  5
63AB
102
{ACAD_REACTORS
330
18
102
}
330
18
100
AcDbGroup
300

 70
     3
 71
     0
  0
GROUP
  5
49C5
102
{ACAD_REACTORS
330
18
102
}
330
18
100
AcDbGroup
300

 70
     3
 71
     0
  0
GROUP
  5
1B6B
102
{ACAD_REACTORS
330
18
102
}
330
18
100
AcDbGroup
300

 70
     3
 71
     0
  0
GROUP
  5
495F
102
{ACAD_REACTORS
330
18
102
}
330
18
100
AcDbGroup
300

 70
     3
 71
     0
  0
GROUP
  5
1AFB
102
{ACAD_REACTORS
330
18
102
}
330
18
100
AcDbGroup
300

 70
     3
 71
     0
  0
GROUP
  5
1ADC
102
{ACAD_REACTORS
330
18
102
}
330
18
100
AcDbGroup
300

 70
     3
 71
     0
  0
GROUP
  5
1B97
102
{ACAD_REACTORS
330
18
102
}
330
18
100
AcDbGroup
300

 70
     3
 71
     0
  0
GROUP
  5
624B
102
{ACAD_REACTORS
330
18
102
}
330
18
100
AcDbGroup
300

 70
     3
 71
     0
  0
GROUP
  5
4A19
102
{ACAD_REACTORS
330
18
102
}
330
18
100
AcDbGroup
300

 70
     3
 71
     0
  0
GROUP
  5
1B85
102
{ACAD_REACTORS
330
18
102
}
330
18
100
AcDbGroup
300

 70
     3
 71
     0
  0
GROUP
  5
1ADE
102
{ACAD_REACTORS
330
18
102
}
330
18
100
AcDbGroup
300

 70
     3
 71
     0
  0
GROUP
  5
4818
102
{ACAD_REACTORS
330
18
102
}
330
18
100
AcDbGroup
300

 70
     3
 71
     0
  0
GROUP
  5
63A6
102
{ACAD_REACTORS
330
18
102
}
330
18
100
AcDbGroup
300

 70
     3
 71
     0
  0
GROUP
  5
4910
102
{ACAD_REACTORS
330
18
102
}
330
18
100
AcDbGroup
300

 70
     3
 71
     0
  0
GROUP
  5
6389
102
{ACAD_REACTORS
330
18
102
}
330
18
100
AcDbGroup
300

 70
     3
 71
     0
  0
GROUP
  5
145C
102
{ACAD_REACTORS
330
18
102
}
330
18
100
AcDbGroup
300

 70
     3
 71
     0
  0
GROUP
  5
1B44
102
{ACAD_REACTORS
330
18
102
}
330
18
100
AcDbGroup
300

 70
     3
 71
     0
  0
GROUP
  5
490E
102
{ACAD_REACTORS
330
18
102
}
330
18
100
AcDbGroup
300

 70
     3
 71
     0
  0
GROUP
  5
1C40
102
{ACAD_REACTORS
330
18
102
}
330
18
100
AcDbGroup
300

 70
     3
 71
     0
  0
GROUP
  5
1C33
102
{ACAD_REACTORS
330
18
102
}
330
18
100
AcDbGroup
300

 70
     3
 71
     0
  0
GROUP
  5
1C0F
102
{ACAD_REACTORS
330
18
102
}
330
18
100
AcDbGroup
300

 70
     3
 71
     0
  0
GROUP
  5
1B23
102
{ACAD_REACTORS
330
18
102
}
330
18
100
AcDbGroup
300

 70
     3
 71
     0
  0
GROUP
  5
635D
102
{ACAD_REACTORS
330
18
102
}
330
18
100
AcDbGroup
300

 70
     3
 71
     0
  0
GROUP
  5
48CD
102
{ACAD_REACTORS
330
18
102
}
330
18
100
AcDbGroup
300

 70
     3
 71
     0
  0
GROUP
  5
6358
102
{ACAD_REACTORS
330
18
102
}
330
18
100
AcDbGroup
300

 70
     3
 71
     0
  0
GROUP
  5
1C2C
102
{ACAD_REACTORS
330
18
102
}
330
18
100
AcDbGroup
300

 70
     3
 71
     0
  0
GROUP
  5
49BF
102
{ACAD_REACTORS
330
18
102
}
330
18
100
AcDbGroup
300

 70
     3
 71
     0
  0
GROUP
  5
1BC3
102
{ACAD_REACTORS
330
18
102
}
330
18
100
AcDbGroup
300

 70
     3
 71
     0
  0
GROUP
  5
4838
102
{ACAD_REACTORS
330
18
102
}
330
18
100
AcDbGroup
300

 70
     3
 71
     0
  0
GROUP
  5
1B17
102
{ACAD_REACTORS
330
18
102
}
330
18
100
AcDbGroup
300

 70
     3
 71
     0
  0
GROUP
  5
1B71
102
{ACAD_REACTORS
330
18
102
}
330
18
100
AcDbGroup
300

 70
     3
 71
     0
  0
GROUP
  5
145D
102
{ACAD_REACTORS
330
18
102
}
330
18
100
AcDbGroup
300

 70
     3
 71
     0
  0
GROUP
  5
62E7
102
{ACAD_REACTORS
330
18
102
}
330
18
100
AcDbGroup
300

 70
     3
 71
     0
  0
GROUP
  5
4820
102
{ACAD_REACTORS
330
18
102
}
330
18
100
AcDbGroup
300

 70
     3
 71
     0
  0
GROUP
  5
638E
102
{ACAD_REACTORS
330
18
102
}
330
18
100
AcDbGroup
300

 70
     3
 71
     0
  0
GROUP
  5
1C31
102
{ACAD_REACTORS
330
18
102
}
330
18
100
AcDbGroup
300

 70
     3
 71
     0
  0
GROUP
  5
6416
102
{ACAD_REACTORS
330
18
102
}
330
18
100
AcDbGroup
300

 70
     3
 71
     0
  0
GROUP
  5
62D6
102
{ACAD_REACTORS
330
18
102
}
330
18
100
AcDbGroup
300

 70
     3
 71
     0
  0
GROUP
  5
640E
102
{ACAD_REACTORS
330
18
102
}
330
18
100
AcDbGroup
300

 70
     3
 71
     0
  0
GROUP
  5
1B5A
102
{ACAD_REACTORS
330
18
102
}
330
18
100
AcDbGroup
300

 70
     3
 71
     0
  0
GROUP
  5
631B
102
{ACAD_REACTORS
330
18
102
}
330
18
100
AcDbGroup
300

 70
     3
 71
     0
  0
GROUP
  5
48F7
102
{ACAD_REACTORS
330
18
102
}
330
18
100
AcDbGroup
300

 70
     3
 71
     0
  0
GROUP
  5
1B40
102
{ACAD_REACTORS
330
18
102
}
330
18
100
AcDbGroup
300

 70
     3
 71
     0
  0
GROUP
  5
1B66
102
{ACAD_REACTORS
330
18
102
}
330
18
100
AcDbGroup
300

 70
     3
 71
     0
  0
GROUP
  5
1C2E
102
{ACAD_REACTORS
330
18
102
}
330
18
100
AcDbGroup
300

 70
     3
 71
     0
  0
GROUP
  5
4885
102
{ACAD_REACTORS
330
18
102
}
330
18
100
AcDbGroup
300

 70
     3
 71
     0
  0
GROUP
  5
1B1C
102
{ACAD_REACTORS
330
18
102
}
330
18
100
AcDbGroup
300

 70
     3
 71
     0
  0
GROUP
  5
62D5
102
{ACAD_REACTORS
330
18
102
}
330
18
100
AcDbGroup
300

 70
     3
 71
     0
  0
GROUP
  5
6344
102
{ACAD_REACTORS
330
18
102
}
330
18
100
AcDbGroup
300

 70
     3
 71
     0
  0
GROUP
  5
486A
102
{ACAD_REACTORS
330
18
102
}
330
18
100
AcDbGroup
300

 70
     3
 71
     0
  0
GROUP
  5
1B3F
102
{ACAD_REACTORS
330
18
102
}
330
18
100
AcDbGroup
300

 70
     3
 71
     0
  0
GROUP
  5
628B
102
{ACAD_REACTORS
330
18
102
}
330
18
100
AcDbGroup
300

 70
     3
 71
     0
  0
GROUP
  5
494E
102
{ACAD_REACTORS
330
18
102
}
330
18
100
AcDbGroup
300

 70
     3
 71
     0
  0
GROUP
  5
6312
102
{ACAD_REACTORS
330
18
102
}
330
18
100
AcDbGroup
300

 70
     3
 71
     0
  0
GROUP
  5
49A8
102
{ACAD_REACTORS
330
18
102
}
330
18
100
AcDbGroup
300

 70
     3
 71
     0
  0
GROUP
  5
48C7
102
{ACAD_REACTORS
330
18
102
}
330
18
100
AcDbGroup
300

 70
     3
 71
     1
  0
GROUP
  5
1BAC
102
{ACAD_REACTORS
330
18
102
}
330
18
100
AcDbGroup
300

 70
     3
 71
     0
  0
GROUP
  5
493B
102
{ACAD_REACTORS
330
18
102
}
330
18
100
AcDbGroup
300

 70
     3
 71
     0
  0
GROUP
  5
4A13
102
{ACAD_REACTORS
330
18
102
}
330
18
100
AcDbGroup
300

 70
     3
 71
     0
  0
GROUP
  5
62A1
102
{ACAD_REACTORS
330
18
102
}
330
18
100
AcDbGroup
300

 70
     3
 71
     0
  0
GROUP
  5
1B11
102
{ACAD_REACTORS
330
18
102
}
330
18
100
AcDbGroup
300

 70
     3
 71
     0
  0
GROUP
  5
633F
102
{ACAD_REACTORS
330
18
102
}
330
18
100
AcDbGroup
300

 70
     3
 71
     0
  0
GROUP
  5
1464
102
{ACAD_REACTORS
330
18
102
}
330
18
100
AcDbGroup
300

 70
     3
 71
     0
  0
GROUP
  5
48EE
102
{ACAD_REACTORS
330
18
102
}
330
18
100
AcDbGroup
300

 70
     3
 71
     0
  0
GROUP
  5
4877
102
{ACAD_REACTORS
330
18
102
}
330
18
100
AcDbGroup
300

 70
     3
 71
     0
  0
GROUP
  5
6407
102
{ACAD_REACTORS
330
18
102
}
330
18
100
AcDbGroup
300

 70
     3
 71
     0
  0
GROUP
  5
1BD2
102
{ACAD_REACTORS
330
18
102
}
330
18
100
AcDbGroup
300

 70
     3
 71
     0
  0
GROUP
  5
49D0
102
{ACAD_REACTORS
330
18
102
}
330
18
100
AcDbGroup
300

 70
     3
 71
     0
  0
GROUP
  5
1B61
102
{ACAD_REACTORS
330
18
102
}
330
18
100
AcDbGroup
300

 70
     3
 71
     0
  0
GROUP
  5
63B8
102
{ACAD_REACTORS
330
18
102
}
330
18
100
AcDbGroup
300

 70
     3
 71
     0
  0
GROUP
  5
48DE
102
{ACAD_REACTORS
330
18
102
}
330
18
100
AcDbGroup
300

 70
     3
 71
     0
  0
GROUP
  5
62D9
102
{ACAD_REACTORS
330
18
102
}
330
18
100
AcDbGroup
300

 70
     3
 71
     0
  0
GROUP
  5
6310
102
{ACAD_REACTORS
330
18
102
}
330
18
100
AcDbGroup
300

 70
     3
 71
     0
  0
GROUP
  5
492F
102
{ACAD_REACTORS
330
18
102
}
330
18
100
AcDbGroup
300

 70
     3
 71
     0
  0
GROUP
  5
145F
102
{ACAD_REACTORS
330
18
102
}
330
18
100
AcDbGroup
300

 70
     3
 71
     0
  0
GROUP
  5
63AA
102
{ACAD_REACTORS
330
18
102
}
330
18
100
AcDbGroup
300

 70
     3
 71
     0
  0
GROUP
  5
48E2
102
{ACAD_REACTORS
330
18
102
}
330
18
100
AcDbGroup
300

 70
     3
 71
     0
  0
GROUP
  5
48CA
102
{ACAD_REACTORS
330
18
102
}
330
18
100
AcDbGroup
300

 70
     3
 71
     0
  0
GROUP
  5
48A1
102
{ACAD_REACTORS
330
18
102
}
330
18
100
AcDbGroup
300

 70
     3
 71
     0
  0
GROUP
  5
499F
102
{ACAD_REACTORS
330
18
102
}
330
18
100
AcDbGroup
300

 70
     3
 71
     0
  0
GROUP
  5
6388
102
{ACAD_REACTORS
330
18
102
}
330
18
100
AcDbGroup
300

 70
     3
 71
     0
  0
GROUP
  5
4860
102
{ACAD_REACTORS
330
18
102
}
330
18
100
AcDbGroup
300

 70
     3
 71
     0
  0
GROUP
  5
1BF1
102
{ACAD_REACTORS
330
18
102
}
330
18
100
AcDbGroup
300

 70
     3
 71
     0
  0
GROUP
  5
1468
102
{ACAD_REACTORS
330
18
102
}
330
18
100
AcDbGroup
300

 70
     3
 71
     0
  0
GROUP
  5
62B6
102
{ACAD_REACTORS
330
18
102
}
330
18
100
AcDbGroup
300

 70
     3
 71
     0
  0
GROUP
  5
4828
102
{ACAD_REACTORS
330
18
102
}
330
18
100
AcDbGroup
300

 70
     3
 71
     0
  0
GROUP
  5
4938
102
{ACAD_REACTORS
330
18
102
}
330
18
100
AcDbGroup
300

 70
     3
 71
     0
  0
GROUP
  5
4940
102
{ACAD_REACTORS
330
18
102
}
330
18
100
AcDbGroup
300

 70
     3
 71
     0
  0
GROUP
  5
1BFD
102
{ACAD_REACTORS
330
18
102
}
330
18
100
AcDbGroup
300

 70
     3
 71
     0
  0
GROUP
  5
48D8
102
{ACAD_REACTORS
330
18
102
}
330
18
100
AcDbGroup
300

 70
     3
 71
     0
  0
GROUP
  5
63F1
102
{ACAD_REACTORS
330
18
102
}
330
18
100
AcDbGroup
300

 70
     3
 71
     0
  0
GROUP
  5
48ED
102
{ACAD_REACTORS
330
18
102
}
330
18
100
AcDbGroup
300

 70
     3
 71
     0
  0
GROUP
  5
1B15
102
{ACAD_REACTORS
330
18
102
}
330
18
100
AcDbGroup
300

 70
     3
 71
     0
  0
GROUP
  5
62BD
102
{ACAD_REACTORS
330
18
102
}
330
18
100
AcDbGroup
300

 70
     3
 71
     0
  0
GROUP
  5
1C2F
102
{ACAD_REACTORS
330
18
102
}
330
18
100
AcDbGroup
300

 70
     3
 71
     0
  0
GROUP
  5
1B7C
102
{ACAD_REACTORS
330
18
102
}
330
18
100
AcDbGroup
300

 70
     3
 71
     0
  0
GROUP
  5
3798
102
{ACAD_REACTORS
330
18
102
}
330
18
100
AcDbGroup
300

 70
     3
 71
     0
  0
GROUP
  5
1AE3
102
{ACAD_REACTORS
330
18
102
}
330
18
100
AcDbGroup
300

 70
     3
 71
     0
  0
GROUP
  5
636C
102
{ACAD_REACTORS
330
18
102
}
330
18
100
AcDbGroup
300

 70
     3
 71
     0
  0
GROUP
  5
37B1
102
{ACAD_REACTORS
330
18
102
}
330
18
100
AcDbGroup
300

 70
     3
 71
     0
  0
GROUP
  5
4889
102
{ACAD_REACTORS
330
18
102
}
330
18
100
AcDbGroup
300

 70
     3
 71
     0
  0
GROUP
  5
63C4
102
{ACAD_REACTORS
330
18
102
}
330
18
100
AcDbGroup
300

 70
     3
 71
     0
  0
GROUP
  5
1B33
102
{ACAD_REACTORS
330
18
102
}
330
18
100
AcDbGroup
300

 70
     3
 71
     0
  0
GROUP
  5
629E
102
{ACAD_REACTORS
330
18
102
}
330
18
100
AcDbGroup
300

 70
     3
 71
     0
  0
GROUP
  5
623C
102
{ACAD_REACTORS
330
18
102
}
330
18
100
AcDbGroup
300

 70
     3
 71
     0
  0
GROUP
  5
484B
102
{ACAD_REACTORS
330
18
102
}
330
18
100
AcDbGroup
300

 70
     3
 71
     0
  0
GROUP
  5
1B76
102
{ACAD_REACTORS
330
18
102
}
330
18
100
AcDbGroup
300

 70
     3
 71
     0
  0
GROUP
  5
1BA1
102
{ACAD_REACTORS
330
18
102
}
330
18
100
AcDbGroup
300

 70
     3
 71
     0
  0
GROUP
  5
1B63
102
{ACAD_REACTORS
330
18
102
}
330
18
100
AcDbGroup
300

 70
     3
 71
     0
  0
GROUP
  5
63DB
102
{ACAD_REACTORS
330
18
102
}
330
18
100
AcDbGroup
300

 70
     3
 71
     0
  0
GROUP
  5
4816
102
{ACAD_REACTORS
330
18
102
}
330
18
100
AcDbGroup
300

 70
     3
 71
     0
  0
GROUP
  5
4851
102
{ACAD_REACTORS
330
18
102
}
330
18
100
AcDbGroup
300

 70
     3
 71
     0
  0
GROUP
  5
62E2
102
{ACAD_REACTORS
330
18
102
}
330
18
100
AcDbGroup
300

 70
     3
 71
     0
  0
GROUP
  5
1AE4
102
{ACAD_REACTORS
330
18
102
}
330
18
100
AcDbGroup
300

 70
     3
 71
     0
  0
GROUP
  5
628D
102
{ACAD_REACTORS
330
18
102
}
330
18
100
AcDbGroup
300

 70
     3
 71
     0
  0
GROUP
  5
641E
102
{ACAD_REACTORS
330
18
102
}
330
18
100
AcDbGroup
300

 70
     3
 71
     0
  0
GROUP
  5
639B
102
{ACAD_REACTORS
330
18
102
}
330
18
100
AcDbGroup
300

 70
     3
 71
     0
  0
GROUP
  5
6259
102
{ACAD_REACTORS
330
18
102
}
330
18
100
AcDbGroup
300

 70
     3
 71
     0
  0
GROUP
  5
62BC
102
{ACAD_REACTORS
330
18
102
}
330
18
100
AcDbGroup
300

 70
     3
 71
     0
  0
GROUP
  5
4985
102
{ACAD_REACTORS
330
18
102
}
330
18
100
AcDbGroup
300

 70
     3
 71
     0
  0
GROUP
  5
481C
102
{ACAD_REACTORS
330
18
102
}
330
18
100
AcDbGroup
300

 70
     3
 71
     0
  0
GROUP
  5
63B4
102
{ACAD_REACTORS
330
18
102
}
330
18
100
AcDbGroup
300

 70
     3
 71
     0
  0
GROUP
  5
495A
102
{ACAD_REACTORS
330
18
102
}
330
18
100
AcDbGroup
300

 70
     3
 71
     0
  0
GROUP
  5
48F3
102
{ACAD_REACTORS
330
18
102
}
330
18
100
AcDbGroup
300

 70
     3
 71
     0
  0
GROUP
  5
622E
102
{ACAD_REACTORS
330
18
102
}
330
18
100
AcDbGroup
300

 70
     3
 71
     0
  0
GROUP
  5
1B90
102
{ACAD_REACTORS
330
18
102
}
330
18
100
AcDbGroup
300

 70
     3
 71
     0
  0
GROUP
  5
4A0A
102
{ACAD_REACTORS
330
18
102
}
330
18
100
AcDbGroup
300

 70
     3
 71
     0
  0
GROUP
  5
632A
102
{ACAD_REACTORS
330
18
102
}
330
18
100
AcDbGroup
300

 70
     3
 71
     0
  0
GROUP
  5
1C06
102
{ACAD_REACTORS
330
18
102
}
330
18
100
AcDbGroup
300

 70
     3
 71
     0
  0
GROUP
  5
62EB
102
{ACAD_REACTORS
330
18
102
}
330
18
100
AcDbGroup
300

 70
     3
 71
     0
  0
GROUP
  5
1B21
102
{ACAD_REACTORS
330
18
102
}
330
18
100
AcDbGroup
300

 70
     3
 71
     0
  0
GROUP
  5
1BA4
102
{ACAD_REACTORS
330
18
102
}
330
18
100
AcDbGroup
300

 70
     3
 71
     0
  0
GROUP
  5
640F
102
{ACAD_REACTORS
330
18
102
}
330
18
100
AcDbGroup
300

 70
     3
 71
     0
  0
GROUP
  5
62FA
102
{ACAD_REACTORS
330
18
102
}
330
18
100
AcDbGroup
300

 70
     3
 71
     0
  0
GROUP
  5
6366
102
{ACAD_REACTORS
330
18
102
}
330
18
100
AcDbGroup
300

 70
     3
 71
     0
  0
GROUP
  5
1C0B
102
{ACAD_REACTORS
330
18
102
}
330
18
100
AcDbGroup
300

 70
     3
 71
     0
  0
GROUP
  5
49A3
102
{ACAD_REACTORS
330
18
102
}
330
18
100
AcDbGroup
300

 70
     3
 71
     0
  0
GROUP
  5
1B0F
102
{ACAD_REACTORS
330
18
102
}
330
18
100
AcDbGroup
300

 70
     3
 71
     0
  0
GROUP
  5
1ADB
102
{ACAD_REACTORS
330
18
102
}
330
18
100
AcDbGroup
300

 70
     3
 71
     0
  0
GROUP
  5
494F
102
{ACAD_REACTORS
330
18
102
}
330
18
100
AcDbGroup
300

 70
     3
 71
     0
  0
GROUP
  5
6235
102
{ACAD_REACTORS
330
18
102
}
330
18
100
AcDbGroup
300

 70
     3
 71
     0
  0
GROUP
  5
48FD
102
{ACAD_REACTORS
330
18
102
}
330
18
100
AcDbGroup
300

 70
     3
 71
     0
  0
GROUP
  5
1B9B
102
{ACAD_REACTORS
330
18
102
}
330
18
100
AcDbGroup
300

 70
     3
 71
     0
  0
GROUP
  5
4906
102
{ACAD_REACTORS
330
18
102
}
330
18
100
AcDbGroup
300

 70
     3
 71
     0
  0
GROUP
  5
6380
102
{ACAD_REACTORS
330
18
102
}
330
18
100
AcDbGroup
300

 70
     3
 71
     0
  0
GROUP
  5
49A4
102
{ACAD_REACTORS
330
18
102
}
330
18
100
AcDbGroup
300

 70
     3
 71
     0
  0
GROUP
  5
486D
102
{ACAD_REACTORS
330
18
102
}
330
18
100
AcDbGroup
300

 70
     3
 71
     0
  0
GROUP
  5
482A
102
{ACAD_REACTORS
330
18
102
}
330
18
100
AcDbGroup
300

 70
     3
 71
     0
  0
GROUP
  5
4835
102
{ACAD_REACTORS
330
18
102
}
330
18
100
AcDbGroup
300

 70
     3
 71
     0
  0
GROUP
  5
1C11
102
{ACAD_REACTORS
330
18
102
}
330
18
100
AcDbGroup
300

 70
     3
 71
     0
  0
GROUP
  5
483B
102
{ACAD_REACTORS
330
18
102
}
330
18
100
AcDbGroup
300

 70
     3
 71
     0
  0
GROUP
  5
4965
102
{ACAD_REACTORS
330
18
102
}
330
18
100
AcDbGroup
300

 70
     3
 71
     0
  0
GROUP
  5
4904
102
{ACAD_REACTORS
330
18
102
}
330
18
100
AcDbGroup
300

 70
     3
 71
     0
  0
GROUP
  5
1AEA
102
{ACAD_REACTORS
330
18
102
}
330
18
100
AcDbGroup
300

 70
     3
 71
     0
  0
GROUP
  5
1C0A
102
{ACAD_REACTORS
330
18
102
}
330
18
100
AcDbGroup
300

 70
     3
 71
     0
  0
GROUP
  5
1AD3
102
{ACAD_REACTORS
330
18
102
}
330
18
100
AcDbGroup
300

 70
     3
 71
     0
  0
GROUP
  5
6296
102
{ACAD_REACTORS
330
18
102
}
330
18
100
AcDbGroup
300

 70
     3
 71
     0
  0
GROUP
  5
48CF
102
{ACAD_REACTORS
330
18
102
}
330
18
100
AcDbGroup
300

 70
     3
 71
     0
  0
GROUP
  5
6257
102
{ACAD_REACTORS
330
18
102
}
330
18
100
AcDbGroup
300

 70
     3
 71
     0
  0
GROUP
  5
1ACB
102
{ACAD_REACTORS
330
18
102
}
330
18
100
AcDbGroup
300

 70
     3
 71
     0
  0
GROUP
  5
1B05
102
{ACAD_REACTORS
330
18
102
}
330
18
100
AcDbGroup
300

 70
     3
 71
     0
  0
GROUP
  5
48B6
102
{ACAD_REACTORS
330
18
102
}
330
18
100
AcDbGroup
300

 70
     3
 71
     0
  0
GROUP
  5
498E
102
{ACAD_REACTORS
330
18
102
}
330
18
100
AcDbGroup
300

 70
     3
 71
     0
  0
GROUP
  5
4876
102
{ACAD_REACTORS
330
18
102
}
330
18
100
AcDbGroup
300

 70
     3
 71
     0
  0
GROUP
  5
62FC
102
{ACAD_REACTORS
330
18
102
}
330
18
100
AcDbGroup
300

 70
     3
 71
     0
  0
GROUP
  5
48C0
102
{ACAD_REACTORS
330
18
102
}
330
18
100
AcDbGroup
300

 70
     3
 71
     0
  0
GROUP
  5
484F
102
{ACAD_REACTORS
330
18
102
}
330
18
100
AcDbGroup
300

 70
     3
 71
     0
  0
GROUP
  5
4976
102
{ACAD_REACTORS
330
18
102
}
330
18
100
AcDbGroup
300

 70
     3
 71
     0
  0
GROUP
  5
1BA0
102
{ACAD_REACTORS
330
18
102
}
330
18
100
AcDbGroup
300

 70
     3
 71
     0
  0
GROUP
  5
63A0
102
{ACAD_REACTORS
330
18
102
}
330
18
100
AcDbGroup
300

 70
     3
 71
     0
  0
GROUP
  5
1BA9
102
{ACAD_REACTORS
330
18
102
}
330
18
100
AcDbGroup
300

 70
     3
 71
     0
  0
GROUP
  5
48A6
102
{ACAD_REACTORS
330
18
102
}
330
18
100
AcDbGroup
300

 70
     3
 71
     0
  0
GROUP
  5
6411
102
{ACAD_REACTORS
330
18
102
}
330
18
100
AcDbGroup
300

 70
     3
 71
     0
  0
GROUP
  5
6374
102
{ACAD_REACTORS
330
18
102
}
330
18
100
AcDbGroup
300

 70
     3
 71
     0
  0
GROUP
  5
1C55
102
{ACAD_REACTORS
330
18
102
}
330
18
100
AcDbGroup
300

 70
     3
 71
     0
  0
GROUP
  5
1B81
102
{ACAD_REACTORS
330
18
102
}
330
18
100
AcDbGroup
300

 70
     3
 71
     0
  0
GROUP
  5
498B
102
{ACAD_REACTORS
330
18
102
}
330
18
100
AcDbGroup
300

 70
     3
 71
     0
  0
GROUP
  5
627A
102
{ACAD_REACTORS
330
18
102
}
330
18
100
AcDbGroup
300

 70
     3
 71
     0
  0
GROUP
  5
1B29
102
{ACAD_REACTORS
330
18
102
}
330
18
100
AcDbGroup
300

 70
     3
 71
     0
  0
GROUP
  5
48FB
102
{ACAD_REACTORS
330
18
102
}
330
18
100
AcDbGroup
300

 70
     3
 71
     0
  0
GROUP
  5
63A7
102
{ACAD_REACTORS
330
18
102
}
330
18
100
AcDbGroup
300

 70
     3
 71
     0
  0
GROUP
  5
4854
102
{ACAD_REACTORS
330
18
102
}
330
18
100
AcDbGroup
300

 70
     3
 71
     0
  0
GROUP
  5
1AFE
102
{ACAD_REACTORS
330
18
102
}
330
18
100
AcDbGroup
300

 70
     3
 71
     0
  0
GROUP
  5
6265
102
{ACAD_REACTORS
330
18
102
}
330
18
100
AcDbGroup
300

 70
     3
 71
     0
  0
GROUP
  5
37C3
102
{ACAD_REACTORS
330
18
102
}
330
18
100
AcDbGroup
300

 70
     3
 71
     0
  0
GROUP
  5
480D
102
{ACAD_REACTORS
330
18
102
}
330
18
100
AcDbGroup
300

 70
     3
 71
     0
  0
GROUP
  5
49C6
102
{ACAD_REACTORS
330
18
102
}
330
18
100
AcDbGroup
300

 70
     3
 71
     0
  0
GROUP
  5
6254
102
{ACAD_REACTORS
330
18
102
}
330
18
100
AcDbGroup
300

 70
     3
 71
     0
  0
GROUP
  5
1C5F
102
{ACAD_REACTORS
330
18
102
}
330
18
100
AcDbGroup
300

 70
     3
 71
     0
  0
GROUP
  5
1BC5
102
{ACAD_REACTORS
330
18
102
}
330
18
100
AcDbGroup
300

 70
     3
 71
     0
  0
GROUP
  5
1455
102
{ACAD_REACTORS
330
18
102
}
330
18
100
AcDbGroup
300

 70
     3
 71
     0
  0
GROUP
  5
48CE
102
{ACAD_REACTORS
330
18
102
}
330
18
100
AcDbGroup
300

 70
     3
 71
     0
  0
GROUP
  5
6345
102
{ACAD_REACTORS
330
18
102
}
330
18
100
AcDbGroup
300

 70
     3
 71
     0
  0
GROUP
  5
6287
102
{ACAD_REACTORS
330
18
102
}
330
18
100
AcDbGroup
300

 70
     3
 71
     0
  0
GROUP
  5
63F3
102
{ACAD_REACTORS
330
18
102
}
330
18
100
AcDbGroup
300

 70
     3
 71
     0
  0
GROUP
  5
63E0
102
{ACAD_REACTORS
330
18
102
}
330
18
100
AcDbGroup
300

 70
     3
 71
     0
  0
GROUP
  5
37A2
102
{ACAD_REACTORS
330
18
102
}
330
18
100
AcDbGroup
300

 70
     3
 71
     0
  0
GROUP
  5
1B32
102
{ACAD_REACTORS
330
18
102
}
330
18
100
AcDbGroup
300

 70
     3
 71
     0
  0
GROUP
  5
6367
102
{ACAD_REACTORS
330
18
102
}
330
18
100
AcDbGroup
300

 70
     3
 71
     0
  0
GROUP
  5
62E4
102
{ACAD_REACTORS
330
18
102
}
330
18
100
AcDbGroup
300

 70
     3
 71
     0
  0
GROUP
  5
494B
102
{ACAD_REACTORS
330
18
102
}
330
18
100
AcDbGroup
300

 70
     3
 71
     0
  0
GROUP
  5
1C49
102
{ACAD_REACTORS
330
18
102
}
330
18
100
AcDbGroup
300

 70
     3
 71
     0
  0
GROUP
  5
1B30
102
{ACAD_REACTORS
330
18
102
}
330
18
100
AcDbGroup
300

 70
     3
 71
     0
  0
GROUP
  5
49DF
102
{ACAD_REACTORS
330
18
102
}
330
18
100
AcDbGroup
300

 70
     3
 71
     0
  0
GROUP
  5
629D
102
{ACAD_REACTORS
330
18
102
}
330
18
100
AcDbGroup
300

 70
     3
 71
     0
  0
GROUP
  5
6419
102
{ACAD_REACTORS
330
18
102
}
330
18
100
AcDbGroup
300

 70
     3
 71
     0
  0
GROUP
  5
49F7
102
{ACAD_REACTORS
330
18
102
}
330
18
100
AcDbGroup
300

 70
     3
 71
     0
  0
GROUP
  5
641C
102
{ACAD_REACTORS
330
18
102
}
330
18
100
AcDbGroup
300

 70
     3
 71
     0
  0
GROUP
  5
6355
102
{ACAD_REACTORS
330
18
102
}
330
18
100
AcDbGroup
300

 70
     3
 71
     0
  0
GROUP
  5
63C0
102
{ACAD_REACTORS
330
18
102
}
330
18
100
AcDbGroup
300

 70
     3
 71
     0
  0
GROUP
  5
63CC
102
{ACAD_REACTORS
330
18
102
}
330
18
100
AcDbGroup
300

 70
     3
 71
     0
  0
GROUP
  5
62DB
102
{ACAD_REACTORS
330
18
102
}
330
18
100
AcDbGroup
300

 70
     3
 71
     0
  0
GROUP
  5
4826
102
{ACAD_REACTORS
330
18
102
}
330
18
100
AcDbGroup
300

 70
     3
 71
     0
  0
GROUP
  5
6305
102
{ACAD_REACTORS
330
18
102
}
330
18
100
AcDbGroup
300

 70
     3
 71
     0
  0
GROUP
  5
6293
102
{ACAD_REACTORS
330
18
102
}
330
18
100
AcDbGroup
300

 70
     3
 71
     0
  0
GROUP
  5
1AE7
102
{ACAD_REACTORS
330
18
102
}
330
18
100
AcDbGroup
300

 70
     3
 71
     0
  0
GROUP
  5
6426
102
{ACAD_REACTORS
330
18
102
}
330
18
100
AcDbGroup
300

 70
     3
 71
     0
  0
GROUP
  5
6410
102
{ACAD_REACTORS
330
18
102
}
330
18
100
AcDbGroup
300

 70
     3
 71
     0
  0
GROUP
  5
1B4E
102
{ACAD_REACTORS
330
18
102
}
330
18
100
AcDbGroup
300

 70
     3
 71
     0
  0
GROUP
  5
1C16
102
{ACAD_REACTORS
330
18
102
}
330
18
100
AcDbGroup
300

 70
     3
 71
     0
  0
GROUP
  5
48D7
102
{ACAD_REACTORS
330
18
102
}
330
18
100
AcDbGroup
300

 70
     3
 71
     0
  0
GROUP
  5
1C26
102
{ACAD_REACTORS
330
18
102
}
330
18
100
AcDbGroup
300

 70
     3
 71
     0
  0
GROUP
  5
1BE7
102
{ACAD_REACTORS
330
18
102
}
330
18
100
AcDbGroup
300

 70
     3
 71
     0
  0
GROUP
  5
6376
102
{ACAD_REACTORS
330
18
102
}
330
18
100
AcDbGroup
300

 70
     3
 71
     0
  0
GROUP
  5
49F9
102
{ACAD_REACTORS
330
18
102
}
330
18
100
AcDbGroup
300

 70
     3
 71
     0
  0
GROUP
  5
37B8
102
{ACAD_REACTORS
330
18
102
}
330
18
100
AcDbGroup
300

 70
     3
 71
     0
  0
GROUP
  5
1AF9
102
{ACAD_REACTORS
330
18
102
}
330
18
100
AcDbGroup
300

 70
     3
 71
     0
  0
GROUP
  5
4994
102
{ACAD_REACTORS
330
18
102
}
330
18
100
AcDbGroup
300

 70
     3
 71
     0
  0
GROUP
  5
1BA7
102
{ACAD_REACTORS
330
18
102
}
330
18
100
AcDbGroup
300

 70
     3
 71
     0
  0
GROUP
  5
1B67
102
{ACAD_REACTORS
330
18
102
}
330
18
100
AcDbGroup
300

 70
     3
 71
     0
  0
GROUP
  5
37AF
102
{ACAD_REACTORS
330
18
102
}
330
18
100
AcDbGroup
300

 70
     3
 71
     0
  0
GROUP
  5
4941
102
{ACAD_REACTORS
330
18
102
}
330
18
100
AcDbGroup
300

 70
     3
 71
     0
  0
GROUP
  5
624A
102
{ACAD_REACTORS
330
18
102
}
330
18
100
AcDbGroup
300

 70
     3
 71
     0
  0
GROUP
  5
1B31
102
{ACAD_REACTORS
330
18
102
}
330
18
100
AcDbGroup
300

 70
     3
 71
     0
  0
GROUP
  5
6336
102
{ACAD_REACTORS
330
18
102
}
330
18
100
AcDbGroup
300

 70
     3
 71
     0
  0
GROUP
  5
1B4D
102
{ACAD_REACTORS
330
18
102
}
330
18
100
AcDbGroup
300

 70
     3
 71
     0
  0
GROUP
  5
1AF8
102
{ACAD_REACTORS
330
18
102
}
330
18
100
AcDbGroup
300

 70
     3
 71
     0
  0
GROUP
  5
63DF
102
{ACAD_REACTORS
330
18
102
}
330
18
100
AcDbGroup
300

 70
     3
 71
     0
  0
GROUP
  5
63D8
102
{ACAD_REACTORS
330
18
102
}
330
18
100
AcDbGroup
300

 70
     3
 71
     0
  0
GROUP
  5
6251
102
{ACAD_REACTORS
330
18
102
}
330
18
100
AcDbGroup
300

 70
     3
 71
     0
  0
GROUP
  5
482F
102
{ACAD_REACTORS
330
18
102
}
330
18
100
AcDbGroup
300

 70
     3
 71
     0
  0
GROUP
  5
488E
102
{ACAD_REACTORS
330
18
102
}
330
18
100
AcDbGroup
300

 70
     3
 71
     0
  0
GROUP
  5
1BC6
102
{ACAD_REACTORS
330
18
102
}
330
18
100
AcDbGroup
300

 70
     3
 71
     0
  0
GROUP
  5
1C2A
102
{ACAD_REACTORS
330
18
102
}
330
18
100
AcDbGroup
300

 70
     3
 71
     0
  0
GROUP
  5
1B96
102
{ACAD_REACTORS
330
18
102
}
330
18
100
AcDbGroup
300

 70
     3
 71
     0
  0
GROUP
  5
49A7
102
{ACAD_REACTORS
330
18
102
}
330
18
100
AcDbGroup
300

 70
     3
 71
     0
  0
GROUP
  5
489A
102
{ACAD_REACTORS
330
18
102
}
330
18
100
AcDbGroup
300

 70
     3
 71
     0
  0
GROUP
  5
6246
102
{ACAD_REACTORS
330
18
102
}
330
18
100
AcDbGroup
300

 70
     3
 71
     0
  0
GROUP
  5
496D
102
{ACAD_REACTORS
330
18
102
}
330
18
100
AcDbGroup
300

 70
     3
 71
     0
  0
GROUP
  5
62DA
102
{ACAD_REACTORS
330
18
102
}
330
18
100
AcDbGroup
300

 70
     3
 71
     0
  0
GROUP
  5
499E
102
{ACAD_REACTORS
330
18
102
}
330
18
100
AcDbGroup
300

 70
     3
 71
     0
  0
GROUP
  5
640D
102
{ACAD_REACTORS
330
18
102
}
330
18
100
AcDbGroup
300

 70
     3
 71
     0
  0
GROUP
  5
1BAF
102
{ACAD_REACTORS
330
18
102
}
330
18
100
AcDbGroup
300

 70
     3
 71
     0
  0
GROUP
  5
6349
102
{ACAD_REACTORS
330
18
102
}
330
18
100
AcDbGroup
300

 70
     3
 71
     0
  0
GROUP
  5
48A7
102
{ACAD_REACTORS
330
18
102
}
330
18
100
AcDbGroup
300

 70
     3
 71
     0
  0
GROUP
  5
1C30
102
{ACAD_REACTORS
330
18
102
}
330
18
100
AcDbGroup
300

 70
     3
 71
     0
  0
GROUP
  5
1B2D
102
{ACAD_REACTORS
330
18
102
}
330
18
100
AcDbGroup
300

 70
     3
 71
     0
  0
GROUP
  5
49D1
102
{ACAD_REACTORS
330
18
102
}
330
18
100
AcDbGroup
300

 70
     3
 71
     0
  0
GROUP
  5
4969
102
{ACAD_REACTORS
330
18
102
}
330
18
100
AcDbGroup
300

 70
     3
 71
     0
  0
GROUP
  5
48EA
102
{ACAD_REACTORS
330
18
102
}
330
18
100
AcDbGroup
300

 70
     3
 71
     0
  0
GROUP
  5
493E
102
{ACAD_REACTORS
330
18
102
}
330
18
100
AcDbGroup
300

 70
     3
 71
     0
  0
GROUP
  5
49F2
102
{ACAD_REACTORS
330
18
102
}
330
18
100
AcDbGroup
300

 70
     3
 71
     0
  0
GROUP
  5
62E8
102
{ACAD_REACTORS
330
18
102
}
330
18
100
AcDbGroup
300

 70
     3
 71
     0
  0
GROUP
  5
6225
102
{ACAD_REACTORS
330
18
102
}
330
18
100
AcDbGroup
300

 70
     3
 71
     0
  0
GROUP
  5
62D7
102
{ACAD_REACTORS
330
18
102
}
330
18
100
AcDbGroup
300

 70
     3
 71
     0
  0
GROUP
  5
62F0
102
{ACAD_REACTORS
330
18
102
}
330
18
100
AcDbGroup
300

 70
     3
 71
     0
  0
GROUP
  5
1B01
102
{ACAD_REACTORS
330
18
102
}
330
18
100
AcDbGroup
300

 70
     3
 71
     0
  0
GROUP
  5
1C38
102
{ACAD_REACTORS
330
18
102
}
330
18
100
AcDbGroup
300

 70
     3
 71
     0
  0
GROUP
  5
4939
102
{ACAD_REACTORS
330
18
102
}
330
18
100
AcDbGroup
300

 70
     3
 71
     0
  0
GROUP
  5
623E
102
{ACAD_REACTORS
330
18
102
}
330
18
100
AcDbGroup
300

 70
     3
 71
     0
  0
GROUP
  5
48DB
102
{ACAD_REACTORS
330
18
102
}
330
18
100
AcDbGroup
300

 70
     3
 71
     0
  0
GROUP
  5
63A4
102
{ACAD_REACTORS
330
18
102
}
330
18
100
AcDbGroup
300

 70
     3
 71
     0
  0
GROUP
  5
49AF
102
{ACAD_REACTORS
330
18
102
}
330
18
100
AcDbGroup
300

 70
     3
 71
     0
  0
GROUP
  5
623A
102
{ACAD_REACTORS
330
18
102
}
330
18
100
AcDbGroup
300

 70
     3
 71
     0
  0
GROUP
  5
6403
102
{ACAD_REACTORS
330
18
102
}
330
18
100
AcDbGroup
300

 70
     3
 71
     0
  0
GROUP
  5
62B3
102
{ACAD_REACTORS
330
18
102
}
330
18
100
AcDbGroup
300

 70
     3
 71
     0
  0
GROUP
  5
4987
102
{ACAD_REACTORS
330
18
102
}
330
18
100
AcDbGroup
300

 70
     3
 71
     0
  0
GROUP
  5
1B9C
102
{ACAD_REACTORS
330
18
102
}
330
18
100
AcDbGroup
300

 70
     3
 71
     0
  0
GROUP
  5
1AF1
102
{ACAD_REACTORS
330
18
102
}
330
18
100
AcDbGroup
300

 70
     3
 71
     0
  0
GROUP
  5
6250
102
{ACAD_REACTORS
330
18
102
}
330
18
100
AcDbGroup
300

 70
     3
 71
     0
  0
GROUP
  5
6372
102
{ACAD_REACTORS
330
18
102
}
330
18
100
AcDbGroup
300

 70
     3
 71
     0
  0
GROUP
  5
4963
102
{ACAD_REACTORS
330
18
102
}
330
18
100
AcDbGroup
300

 70
     3
 71
     0
  0
GROUP
  5
4832
102
{ACAD_REACTORS
330
18
102
}
330
18
100
AcDbGroup
300

 70
     3
 71
     0
  0
GROUP
  5
6351
102
{ACAD_REACTORS
330
18
102
}
330
18
100
AcDbGroup
300

 70
     3
 71
     0
  0
GROUP
  5
6243
102
{ACAD_REACTORS
330
18
102
}
330
18
100
AcDbGroup
300

 70
     3
 71
     0
  0
GROUP
  5
48EF
102
{ACAD_REACTORS
330
18
102
}
330
18
100
AcDbGroup
300

 70
     3
 71
     0
  0
GROUP
  5
62D0
102
{ACAD_REACTORS
330
18
102
}
330
18
100
AcDbGroup
300

 70
     3
 71
     0
  0
GROUP
  5
1AE6
102
{ACAD_REACTORS
330
18
102
}
330
18
100
AcDbGroup
300

 70
     3
 71
     0
  0
GROUP
  5
6409
102
{ACAD_REACTORS
330
18
102
}
330
18
100
AcDbGroup
300

 70
     3
 71
     0
  0
GROUP
  5
48D5
102
{ACAD_REACTORS
330
18
102
}
330
18
100
AcDbGroup
300

 70
     3
 71
     0
  0
GROUP
  5
6422
102
{ACAD_REACTORS
330
18
102
}
330
18
100
AcDbGroup
300

 70
     3
 71
     0
  0
GROUP
  5
63FD
102
{ACAD_REACTORS
330
18
102
}
330
18
100
AcDbGroup
300

 70
     3
 71
     0
  0
GROUP
  5
628A
102
{ACAD_REACTORS
330
18
102
}
330
18
100
AcDbGroup
300

 70
     3
 71
     0
  0
GROUP
  5
4A00
102
{ACAD_REACTORS
330
18
102
}
330
18
100
AcDbGroup
300

 70
     3
 71
     0
  0
GROUP
  5
6258
102
{ACAD_REACTORS
330
18
102
}
330
18
100
AcDbGroup
300

 70
     3
 71
     0
  0
GROUP
  5
1BC8
102
{ACAD_REACTORS
330
18
102
}
330
18
100
AcDbGroup
300

 70
     3
 71
     0
  0
GROUP
  5
491D
102
{ACAD_REACTORS
330
18
102
}
330
18
100
AcDbGroup
300

 70
     3
 71
     0
  0
GROUP
  5
37BA
102
{ACAD_REACTORS
330
18
102
}
330
18
100
AcDbGroup
300

 70
     3
 71
     0
  0
GROUP
  5
1BE6
102
{ACAD_REACTORS
330
18
102
}
330
18
100
AcDbGroup
300

 70
     3
 71
     0
  0
GROUP
  5
4934
102
{ACAD_REACTORS
330
18
102
}
330
18
100
AcDbGroup
300

 70
     3
 71
     0
  0
GROUP
  5
4875
102
{ACAD_REACTORS
330
18
102
}
330
18
100
AcDbGroup
300

 70
     3
 71
     0
  0
GROUP
  5
4831
102
{ACAD_REACTORS
330
18
102
}
330
18
100
AcDbGroup
300

 70
     3
 71
     0
  0
GROUP
  5
630B
102
{ACAD_REACTORS
330
18
102
}
330
18
100
AcDbGroup
300

 70
     3
 71
     0
  0
GROUP
  5
6353
102
{ACAD_REACTORS
330
18
102
}
330
18
100
AcDbGroup
300

 70
     3
 71
     0
  0
GROUP
  5
62A7
102
{ACAD_REACTORS
330
18
102
}
330
18
100
AcDbGroup
300

 70
     3
 71
     0
  0
GROUP
  5
1B0D
102
{ACAD_REACTORS
330
18
102
}
330
18
100
AcDbGroup
300

 70
     3
 71
     0
  0
GROUP
  5
1B39
102
{ACAD_REACTORS
330
18
102
}
330
18
100
AcDbGroup
300

 70
     3
 71
     0
  0
GROUP
  5
1AD5
102
{ACAD_REACTORS
330
18
102
}
330
18
100
AcDbGroup
300

 70
     3
 71
     0
  0
GROUP
  5
489C
102
{ACAD_REACTORS
330
18
102
}
330
18
100
AcDbGroup
300

 70
     3
 71
     0
  0
GROUP
  5
1AF7
102
{ACAD_REACTORS
330
18
102
}
330
18
100
AcDbGroup
300

 70
     3
 71
     0
  0
GROUP
  5
623B
102
{ACAD_REACTORS
330
18
102
}
330
18
100
AcDbGroup
300

 70
     3
 71
     0
  0
GROUP
  5
1B4C
102
{ACAD_REACTORS
330
18
102
}
330
18
100
AcDbGroup
300

 70
     3
 71
     0
  0
GROUP
  5
627F
102
{ACAD_REACTORS
330
18
102
}
330
18
100
AcDbGroup
300

 70
     3
 71
     0
  0
GROUP
  5
6252
102
{ACAD_REACTORS
330
18
102
}
330
18
100
AcDbGroup
300

 70
     3
 71
     0
  0
GROUP
  5
48C3
102
{ACAD_REACTORS
330
18
102
}
330
18
100
AcDbGroup
300

 70
     3
 71
     0
  0
GROUP
  5
1BFF
102
{ACAD_REACTORS
330
18
102
}
330
18
100
AcDbGroup
300

 70
     3
 71
     0
  0
GROUP
  5
63D0
102
{ACAD_REACTORS
330
18
102
}
330
18
100
AcDbGroup
300

 70
     3
 71
     0
  0
GROUP
  5
621E
102
{ACAD_REACTORS
330
18
102
}
330
18
100
AcDbGroup
300

 70
     3
 71
     0
  0
GROUP
  5
6371
102
{ACAD_REACTORS
330
18
102
}
330
18
100
AcDbGroup
300

 70
     3
 71
     0
  0
GROUP
  5
49CC
102
{ACAD_REACTORS
330
18
102
}
330
18
100
AcDbGroup
300

 70
     3
 71
     0
  0
GROUP
  5
63A1
102
{ACAD_REACTORS
330
18
102
}
330
18
100
AcDbGroup
300

 70
     3
 71
     0
  0
GROUP
  5
62AB
102
{ACAD_REACTORS
330
18
102
}
330
18
100
AcDbGroup
300

 70
     3
 71
     0
  0
GROUP
  5
481A
102
{ACAD_REACTORS
330
18
102
}
330
18
100
AcDbGroup
300

 70
     3
 71
     0
  0
GROUP
  5
1BDB
102
{ACAD_REACTORS
330
18
102
}
330
18
100
AcDbGroup
300

 70
     3
 71
     0
  0
GROUP
  5
1B6D
102
{ACAD_REACTORS
330
18
102
}
330
18
100
AcDbGroup
300

 70
     3
 71
     0
  0
GROUP
  5
63F2
102
{ACAD_REACTORS
330
18
102
}
330
18
100
AcDbGroup
300

 70
     3
 71
     0
  0
GROUP
  5
4855
102
{ACAD_REACTORS
330
18
102
}
330
18
100
AcDbGroup
300

 70
     3
 71
     0
  0
GROUP
  5
1ADD
102
{ACAD_REACTORS
330
18
102
}
330
18
100
AcDbGroup
300

 70
     3
 71
     0
  0
GROUP
  5
1C12
102
{ACAD_REACTORS
330
18
102
}
330
18
100
AcDbGroup
300

 70
     3
 71
     0
  0
GROUP
  5
1C57
102
{ACAD_REACTORS
330
18
102
}
330
18
100
AcDbGroup
300

 70
     3
 71
     0
  0
GROUP
  5
484A
102
{ACAD_REACTORS
330
18
102
}
330
18
100
AcDbGroup
300

 70
     3
 71
     0
  0
GROUP
  5
4908
102
{ACAD_REACTORS
330
18
102
}
330
18
100
AcDbGroup
300

 70
     3
 71
     0
  0
GROUP
  5
6231
102
{ACAD_REACTORS
330
18
102
}
330
18
100
AcDbGroup
300

 70
     3
 71
     0
  0
GROUP
  5
4836
102
{ACAD_REACTORS
330
18
102
}
330
18
100
AcDbGroup
300

 70
     3
 71
     0
  0
GROUP
  5
4856
102
{ACAD_REACTORS
330
18
102
}
330
18
100
AcDbGroup
300

 70
     3
 71
     0
  0
GROUP
  5
48CB
102
{ACAD_REACTORS
330
18
102
}
330
18
100
AcDbGroup
300

 70
     3
 71
     0
  0
GROUP
  5
483E
102
{ACAD_REACTORS
330
18
102
}
330
18
100
AcDbGroup
300

 70
     3
 71
     0
  0
GROUP
  5
4809
102
{ACAD_REACTORS
330
18
102
}
330
18
100
AcDbGroup
300

 70
     3
 71
     0
  0
GROUP
  5
1BD9
102
{ACAD_REACTORS
330
18
102
}
330
18
100
AcDbGroup
300

 70
     3
 71
     0
  0
GROUP
  5
62E5
102
{ACAD_REACTORS
330
18
102
}
330
18
100
AcDbGroup
300

 70
     3
 71
     0
  0
GROUP
  5
63F5
102
{ACAD_REACTORS
330
18
102
}
330
18
100
AcDbGroup
300

 70
     3
 71
     0
  0
GROUP
  5
1AD6
102
{ACAD_REACTORS
330
18
102
}
330
18
100
AcDbGroup
300

 70
     3
 71
     0
  0
GROUP
  5
6420
102
{ACAD_REACTORS
330
18
102
}
330
18
100
AcDbGroup
300

 70
     3
 71
     0
  0
GROUP
  5
499D
102
{ACAD_REACTORS
330
18
102
}
330
18
100
AcDbGroup
300

 70
     3
 71
     0
  0
GROUP
  5
62B4
102
{ACAD_REACTORS
330
18
102
}
330
18
100
AcDbGroup
300

 70
     3
 71
     0
  0
GROUP
  5
49DA
102
{ACAD_REACTORS
330
18
102
}
330
18
100
AcDbGroup
300

 70
     3
 71
     0
  0
GROUP
  5
63BE
102
{ACAD_REACTORS
330
18
102
}
330
18
100
AcDbGroup
300

 70
     3
 71
     0
  0
GROUP
  5
1C5B
102
{ACAD_REACTORS
330
18
102
}
330
18
100
AcDbGroup
300

 70
     3
 71
     0
  0
GROUP
  5
6315
102
{ACAD_REACTORS
330
18
102
}
330
18
100
AcDbGroup
300

 70
     3
 71
     0
  0
GROUP
  5
4892
102
{ACAD_REACTORS
330
18
102
}
330
18
100
AcDbGroup
300

 70
     3
 71
     0
  0
GROUP
  5
630C
102
{ACAD_REACTORS
330
18
102
}
330
18
100
AcDbGroup
300

 70
     3
 71
     0
  0
GROUP
  5
4901
102
{ACAD_REACTORS
330
18
102
}
330
18
100
AcDbGroup
300

 70
     3
 71
     0
  0
GROUP
  5
1C60
102
{ACAD_REACTORS
330
18
102
}
330
18
100
AcDbGroup
300

 70
     3
 71
     0
  0
GROUP
  5
6413
102
{ACAD_REACTORS
330
18
102
}
330
18
100
AcDbGroup
300

 70
     3
 71
     0
  0
GROUP
  5
63C6
102
{ACAD_REACTORS
330
18
102
}
330
18
100
AcDbGroup
300

 70
     3
 71
     0
  0
GROUP
  5
1BA5
102
{ACAD_REACTORS
330
18
102
}
330
18
100
AcDbGroup
300

 70
     3
 71
     0
  0
GROUP
  5
4829
102
{ACAD_REACTORS
330
18
102
}
330
18
100
AcDbGroup
300

 70
     3
 71
     0
  0
GROUP
  5
48A3
102
{ACAD_REACTORS
330
18
102
}
330
18
100
AcDbGroup
300

 70
     3
 71
     0
  0
GROUP
  5
62EF
102
{ACAD_REACTORS
330
18
102
}
330
18
100
AcDbGroup
300

 70
     3
 71
     0
  0
GROUP
  5
6377
102
{ACAD_REACTORS
330
18
102
}
330
18
100
AcDbGroup
300

 70
     3
 71
     0
  0
GROUP
  5
4857
102
{ACAD_REACTORS
330
18
102
}
330
18
100
AcDbGroup
300

 70
     3
 71
     0
  0
GROUP
  5
4945
102
{ACAD_REACTORS
330
18
102
}
330
18
100
AcDbGroup
300

 70
     3
 71
     0
  0
GROUP
  5
1B94
102
{ACAD_REACTORS
330
18
102
}
330
18
100
AcDbGroup
300

 70
     3
 71
     0
  0
GROUP
  5
49B5
102
{ACAD_REACTORS
330
18
102
}
330
18
100
AcDbGroup
300

 70
     3
 71
     0
  0
GROUP
  5
1BFE
102
{ACAD_REACTORS
330
18
102
}
330
18
100
AcDbGroup
300

 70
     3
 71
     0
  0
GROUP
  5
63EF
102
{ACAD_REACTORS
330
18
102
}
330
18
100
AcDbGroup
300

 70
     3
 71
     0
  0
GROUP
  5
1BF0
102
{ACAD_REACTORS
330
18
102
}
330
18
100
AcDbGroup
300

 70
     3
 71
     0
  0
GROUP
  5
6405
102
{ACAD_REACTORS
330
18
102
}
330
18
100
AcDbGroup
300

 70
     3
 71
     0
  0
GROUP
  5
1C1D
102
{ACAD_REACTORS
330
18
102
}
330
18
100
AcDbGroup
300

 70
     3
 71
     0
  0
GROUP
  5
1BCF
102
{ACAD_REACTORS
330
18
102
}
330
18
100
AcDbGroup
300

 70
     3
 71
     0
  0
GROUP
  5
48C9
102
{ACAD_REACTORS
330
18
102
}
330
18
100
AcDbGroup
300

 70
     3
 71
     0
  0
GROUP
  5
1B6E
102
{ACAD_REACTORS
330
18
102
}
330
18
100
AcDbGroup
300

 70
     3
 71
     0
  0
GROUP
  5
6279
102
{ACAD_REACTORS
330
18
102
}
330
18
100
AcDbGroup
300

 70
     3
 71
     0
  0
GROUP
  5
63DC
102
{ACAD_REACTORS
330
18
102
}
330
18
100
AcDbGroup
300

 70
     3
 71
     0
  0
GROUP
  5
4842
102
{ACAD_REACTORS
330
18
102
}
330
18
100
AcDbGroup
300

 70
     3
 71
     0
  0
GROUP
  5
4A02
102
{ACAD_REACTORS
330
18
102
}
330
18
100
AcDbGroup
300

 70
     3
 71
     0
  0
GROUP
  5
1BEA
102
{ACAD_REACTORS
330
18
102
}
330
18
100
AcDbGroup
300

 70
     3
 71
     0
  0
GROUP
  5
1C5D
102
{ACAD_REACTORS
330
18
102
}
330
18
100
AcDbGroup
300

 70
     3
 71
     0
  0
GROUP
  5
631D
102
{ACAD_REACTORS
330
18
102
}
330
18
100
AcDbGroup
300

 70
     3
 71
     0
  0
GROUP
  5
1C25
102
{ACAD_REACTORS
330
18
102
}
330
18
100
AcDbGroup
300

 70
     3
 71
     0
  0
GROUP
  5
1B77
102
{ACAD_REACTORS
330
18
102
}
330
18
100
AcDbGroup
300

 70
     3
 71
     0
  0
GROUP
  5
49E3
102
{ACAD_REACTORS
330
18
102
}
330
18
100
AcDbGroup
300

 70
     3
 71
     0
  0
GROUP
  5
6337
102
{ACAD_REACTORS
330
18
102
}
330
18
100
AcDbGroup
300

 70
     3
 71
     0
  0
GROUP
  5
1B50
102
{ACAD_REACTORS
330
18
102
}
330
18
100
AcDbGroup
300

 70
     3
 71
     0
  0
GROUP
  5
48F8
102
{ACAD_REACTORS
330
18
102
}
330
18
100
AcDbGroup
300

 70
     3
 71
     0
  0
GROUP
  5
4A04
102
{ACAD_REACTORS
330
18
102
}
330
18
100
AcDbGroup
300

 70
     3
 71
     0
  0
GROUP
  5
636A
102
{ACAD_REACTORS
330
18
102
}
330
18
100
AcDbGroup
300

 70
     3
 71
     0
  0
GROUP
  5
6346
102
{ACAD_REACTORS
330
18
102
}
330
18
100
AcDbGroup
300

 70
     3
 71
     0
  0
GROUP
  5
6347
102
{ACAD_REACTORS
330
18
102
}
330
18
100
AcDbGroup
300

 70
     3
 71
     0
  0
GROUP
  5
4A0C
102
{ACAD_REACTORS
330
18
102
}
330
18
100
AcDbGroup
300

 70
     3
 71
     0
  0
GROUP
  5
640C
102
{ACAD_REACTORS
330
18
102
}
330
18
100
AcDbGroup
300

 70
     3
 71
     0
  0
GROUP
  5
49C4
102
{ACAD_REACTORS
330
18
102
}
330
18
100
AcDbGroup
300

 70
     3
 71
     0
  0
GROUP
  5
4887
102
{ACAD_REACTORS
330
18
102
}
330
18
100
AcDbGroup
300

 70
     3
 71
     0
  0
GROUP
  5
62B0
102
{ACAD_REACTORS
330
18
102
}
330
18
100
AcDbGroup
300

 70
     3
 71
     0
  0
GROUP
  5
48FA
102
{ACAD_REACTORS
330
18
102
}
330
18
100
AcDbGroup
300

 70
     3
 71
     0
  0
GROUP
  5
49F5
102
{ACAD_REACTORS
330
18
102
}
330
18
100
AcDbGroup
300

 70
     3
 71
     0
  0
GROUP
  5
6302
102
{ACAD_REACTORS
330
18
102
}
330
18
100
AcDbGroup
300

 70
     3
 71
     0
  0
GROUP
  5
62F7
102
{ACAD_REACTORS
330
18
102
}
330
18
100
AcDbGroup
300

 70
     3
 71
     0
  0
MLINESTYLE
  5
1D
102
{ACAD_REACTORS
330
19
102
}
330
19
100
AcDbMlineStyle
  2
STANDARD
 70
     0
  3

 62
     0
 51
90.0
 52
90.0
 71
     2
 49
0.5
 62
   256
  6
BYLAYER
 49
-0.5
 62
   256
  6
BYLAYER
  0
ACDBPLACEHOLDER
  5
EDC6
102
{ACAD_REACTORS
330
EDC5
102
}
330
EDC5
100
AcDbPlaceHolder
280
     0
  0
XRECORD
  5
1FE50
102
{ACAD_REACTORS
330
1FE46
102
}
330
1FE46
100
AcDbXrecord
 90
        0
  0
XRECORD
  5
1FE54
102
{ACAD_REACTORS
330
1FE46
102
}
330
1FE46
100
AcDbXrecord
1000
DSTYLE
1002
{
1070
    79
 70
     2
1070
   179
 70
     1
1002
}
  0
XRECORD
  5
1FE51
102
{ACAD_REACTORS
330
1FE46
102
}
330
1FE46
100
AcDbXrecord
  1
{5EB6113A-69ED-450E-876F-E97B1CCBD74B}
  0
XRECORD
  5
1FE49
102
{ACAD_REACTORS
330
1FE46
102
}
330
1FE46
100
AcDbXrecord
  1

  0
XRECORD
  5
1FE4F
102
{ACAD_REACTORS
330
1FE46
102
}
330
1FE46
100
AcDbXrecord
 90
        0
  0
XRECORD
  5
1FE4B
102
{ACAD_REACTORS
330
1FE46
102
}
330
1FE46
100
AcDbXrecord
340
EDC7
  0
XRECORD
  5
1FE4E
102
{ACAD_REACTORS
330
1FE46
102
}
330
1FE46
100
AcDbXrecord
 90
    14877
  0
XRECORD
  5
1FE4C
102
{ACAD_REACTORS
330
1FE46
102
}
330
1FE46
100
AcDbXrecord
340
EDC8
  0
XRECORD
  5
1FE4D
102
{ACAD_REACTORS
330
1FE46
102
}
330
1FE46
100
AcDbXrecord
340
EDC5
  0
XRECORD
  5
1FE53
102
{ACAD_REACTORS
330
1FE46
102
}
330
1FE46
100
AcDbXrecord
 40
0.0
  0
XRECORD
  5
1FE57
102
{ACAD_REACTORS
330
1FE46
102
}
330
1FE46
100
AcDbXrecord
340
0
  0
XRECORD
  5
1FE5D
102
{ACAD_REACTORS
330
1FE46
102
}
330
1FE46
100
AcDbXrecord
 10
0.0
 20
0.0
 30
0.0
  0
XRECORD
  5
1FE59
102
{ACAD_REACTORS
330
1FE46
102
}
330
1FE46
100
AcDbXrecord
 10
0.0
 20
0.0
 30
0.0
  0
XRECORD
  5
1FE5C
102
{ACAD_REACTORS
330
1FE46
102
}
330
1FE46
100
AcDbXrecord
 10
0.0
 20
0.0
 30
0.0
  0
XRECORD
  5
1FE5A
102
{ACAD_REACTORS
330
1FE46
102
}
330
1FE46
100
AcDbXrecord
 10
0.0
 20
0.0
 30
0.0
  0
XRECORD
  5
1FE5B
102
{ACAD_REACTORS
330
1FE46
102
}
330
1FE46
100
AcDbXrecord
 10
0.0
 20
0.0
 30
0.0
  0
XRECORD
  5
1FE58
102
{ACAD_REACTORS
330
1FE46
102
}
330
1FE46
100
AcDbXrecord
 10
0.0
 20
0.0
 30
0.0
  0
XRECORD
  5
1FE55
102
{ACAD_REACTORS
330
1FE46
102
}
330
1FE46
100
AcDbXrecord
340
0
  0
XRECORD
  5
1FE56
102
{ACAD_REACTORS
330
1FE46
102
}
330
1FE46
100
AcDbXrecord
 70
     0
  0
XRECORD
  5
1FE4A
102
{ACAD_REACTORS
330
1FE46
102
}
330
1FE46
100
AcDbXrecord
  1

  0
XRECORD
  5
1FE47
102
{ACAD_REACTORS
330
1FE46
102
}
330
1FE46
100
AcDbXrecord
 90
        1
  0
XRECORD
  5
1FE48
102
{ACAD_REACTORS
330
1FE46
102
}
330
1FE46
100
AcDbXrecord
 90
       70
  0
XRECORD
  5
1FE60
102
{ACAD_REACTORS
330
1FE46
102
}
330
1FE46
100
AcDbXrecord
340
0
  0
XRECORD
  5
1FE66
102
{ACAD_REACTORS
330
1FE46
102
}
330
1FE46
100
AcDbXrecord
 10
0.0
 20
0.0
 30
0.0
  0
XRECORD
  5
1FE62
102
{ACAD_REACTORS
330
1FE46
102
}
330
1FE46
100
AcDbXrecord
 10
0.0
 20
0.0
 30
0.0
  0
XRECORD
  5
1FE65
102
{ACAD_REACTORS
330
1FE46
102
}
330
1FE46
100
AcDbXrecord
 10
0.0
 20
0.0
 30
0.0
  0
XRECORD
  5
1FE63
102
{ACAD_REACTORS
330
1FE46
102
}
330
1FE46
100
AcDbXrecord
 10
0.0
 20
0.0
 30
0.0
  0
XRECORD
  5
1FE64
102
{ACAD_REACTORS
330
1FE46
102
}
330
1FE46
100
AcDbXrecord
 10
0.0
 20
0.0
 30
0.0
  0
XRECORD
  5
1FE61
102
{ACAD_REACTORS
330
1FE46
102
}
330
1FE46
100
AcDbXrecord
 10
0.0
 20
0.0
 30
0.0
  0
XRECORD
  5
1FE5E
102
{ACAD_REACTORS
330
1FE46
102
}
330
1FE46
100
AcDbXrecord
340
0
  0
XRECORD
  5
1FE5F
102
{ACAD_REACTORS
330
1FE46
102
}
330
1FE46
100
AcDbXrecord
 70
     0
  0
XRECORD
  5
1FE52
102
{ACAD_REACTORS
330
1FE46
102
}
330
1FE46
100
AcDbXrecord
  1
{ED1DB26A-66BA-4929-893B-E97178E07C4B}
  0
DICTIONARYVAR
  5
EDE8
102
{ACAD_REACTORS
330
EDE7
102
}
330
EDE7
100
DictionaryVariables
280
     0
  1
1
  0
ENDSEC
  0
EOF
