  0
SECTION
  2
HEADER
  9
$ACADVER
  1
AC1014
  9
$ACADMAINTVER
 70
     9
  9
$DWGCODEPAGE
  3
ANSI_1252
  9
$INSBASE
 10
421.0218958999721
 20
357.7769748938917
 30
0.0
  9
$EXTMIN
 10
10468.90678430028
 20
-742.2763625508398
 30
0.0
  9
$EXTMAX
 10
11873.51757385863
 20
829.4666247540762
 30
0.0
  9
$LIMMIN
 10
9749.260046900117
 20
-1602.70564605534
  9
$LIMMAX
 10
11438.24325486453
 20
-732.5285748461251
  9
$ORTHOMODE
 70
     1
  9
$REGENMODE
 70
     1
  9
$FILLMODE
 70
     1
  9
$QTEXTMODE
 70
     0
  9
$MIRRTEXT
 70
     1
  9
$DRAGMODE
 70
     2
  9
$LTSCALE
 40
5.0
  9
$OSMODE
 70
     8
  9
$ATTMODE
 70
     1
  9
$TEXTSIZE
 40
40.0
  9
$TRACEWID
 40
1.0
  9
$TEXTSTYLE
  7
ROMANS8
  9
$CLAYER
  8
VLB
  9
$CELTYPE
  6
BYLAYER
  9
$CECOLOR
 62
   256
  9
$CELTSCALE
 40
1.0
  9
$DELOBJ
 70
     1
  9
$DISPSILH
 70
     0
  9
$DIMSCALE
 40
3.0
  9
$DIMASZ
 40
3.5
  9
$DIMEXO
 40
0.1
  9
$DIMDLI
 40
7.0
  9
$DIMRND
 40
0.0
  9
$DIMDLE
 40
0.0
  9
$DIMEXE
 40
1.8
  9
$DIMTP
 40
0.0
  9
$DIMTM
 40
0.0
  9
$DIMTXT
 40
3.5
  9
$DIMCEN
 40
0.0
  9
$DIMTSZ
 40
0.0
  9
$DIMTOL
 70
     0
  9
$DIMLIM
 70
     0
  9
$DIMTIH
 70
     0
  9
$DIMTOH
 70
     0
  9
$DIMSE1
 70
     0
  9
$DIMSE2
 70
     0
  9
$DIMTAD
 70
     1
  9
$DIMZIN
 70
     8
  9
$DIMBLK
  1

  9
$DIMASO
 70
     1
  9
$DIMSHO
 70
     0
  9
$DIMPOST
  1

  9
$DIMAPOST
  1

  9
$DIMALT
 70
     0
  9
$DIMALTD
 70
     2
  9
$DIMALTF
 40
25.4
  9
$DIMLFAC
 40
1.0
  9
$DIMTOFL
 70
     0
  9
$DIMTVP
 40
0.0
  9
$DIMTIX
 70
     0
  9
$DIMSOXD
 70
     0
  9
$DIMSAH
 70
     0
  9
$DIMBLK1
  1

  9
$DIMBLK2
  1

  9
$DIMSTYLE
  2
STANDARD
  9
$DIMCLRD
 70
   256
  9
$DIMCLRE
 70
   256
  9
$DIMCLRT
 70
   256
  9
$DIMTFAC
 40
1.0
  9
$DIMGAP
 40
1.7
  9
$DIMJUST
 70
     0
  9
$DIMSD1
 70
     0
  9
$DIMSD2
 70
     0
  9
$DIMTOLJ
 70
     1
  9
$DIMTZIN
 70
     0
  9
$DIMALTZ
 70
     0
  9
$DIMALTTZ
 70
     0
  9
$DIMFIT
 70
     3
  9
$DIMUPT
 70
     1
  9
$DIMUNIT
 70
     2
  9
$DIMDEC
 70
     2
  9
$DIMTDEC
 70
     2
  9
$DIMALTU
 70
     2
  9
$DIMALTTD
 70
     2
  9
$DIMTXSTY
  7
ROMANS
  9
$DIMAUNIT
 70
     0
  9
$LUNITS
 70
     2
  9
$LUPREC
 70
     2
  9
$SKETCHINC
 40
1.0
  9
$FILLETRAD
 40
40.0
  9
$AUNITS
 70
     0
  9
$AUPREC
 70
     2
  9
$MENU
  1
ACAD
  9
$ELEVATION
 40
0.0
  9
$PELEVATION
 40
0.0
  9
$THICKNESS
 40
0.0
  9
$LIMCHECK
 70
     0
  9
$BLIPMODE
 70
     0
  9
$CHAMFERA
 40
0.0
  9
$CHAMFERB
 40
0.0
  9
$CHAMFERC
 40
0.0
  9
$CHAMFERD
 40
0.0
  9
$SKPOLY
 70
     0
  9
$TDCREATE
 40
2453662.441370266
  9
$TDUPDATE
 40
2453679.603721863
  9
$TDINDWG
 40
0.1170958565
  9
$TDUSRTIMER
 40
0.1170953935
  9
$USRTIMER
 70
     1
  9
$ANGBASE
 50
0.0
  9
$ANGDIR
 70
     0
  9
$PDMODE
 70
     2
  9
$PDSIZE
 40
2.0
  9
$PLINEWID
 40
0.0
  9
$COORDS
 70
     0
  9
$SPLFRAME
 70
     0
  9
$SPLINETYPE
 70
     6
  9
$SPLINESEGS
 70
     8
  9
$ATTDIA
 70
     0
  9
$ATTREQ
 70
     1
  9
$HANDLING
 70
 22529
  9
$HANDSEED
  5
10C89
  9
$SURFTAB1
 70
     6
  9
$SURFTAB2
 70
     6
  9
$SURFTYPE
 70
     6
  9
$SURFU
 70
     6
  9
$SURFV
 70
     6
  9
$UCSNAME
  2

  9
$UCSORG
 10
10154.57763192681
 20
-1347.460051185509
 30
0.0
  9
$UCSXDIR
 10
1.0
 20
0.0
 30
0.0
  9
$UCSYDIR
 10
0.0
 20
1.0
 30
0.0
  9
$PUCSNAME
  2

  9
$PUCSORG
 10
0.0
 20
0.0
 30
0.0
  9
$PUCSXDIR
 10
1.0
 20
0.0
 30
0.0
  9
$PUCSYDIR
 10
0.0
 20
1.0
 30
0.0
  9
$USERI1
 70
     0
  9
$USERI2
 70
     0
  9
$USERI3
 70
     0
  9
$USERI4
 70
     0
  9
$USERI5
 70
     0
  9
$USERR1
 40
0.0
  9
$USERR2
 40
0.0
  9
$USERR3
 40
0.0
  9
$USERR4
 40
0.0
  9
$USERR5
 40
0.0
  9
$WORLDVIEW
 70
     1
  9
$SHADEDGE
 70
     3
  9
$SHADEDIF
 70
    70
  9
$TILEMODE
 70
     1
  9
$MAXACTVP
 70
    16
  9
$PINSBASE
 10
0.0
 20
0.0
 30
0.0
  9
$PLIMCHECK
 70
     0
  9
$PEXTMIN
 10
1.000000000000000E+20
 20
1.000000000000000E+20
 30
1.000000000000000E+20
  9
$PEXTMAX
 10
-1.000000000000000E+20
 20
-1.000000000000000E+20
 30
-1.000000000000000E+20
  9
$PLIMMIN
 10
-580.483829673538
 20
-46.27347374143634
  9
$PLIMMAX
 10
933.1141269894022
 20
1023.925518250126
  9
$UNITMODE
 70
     1
  9
$VISRETAIN
 70
     0
  9
$PLINEGEN
 70
     0
  9
$PSLTSCALE
 70
     0
  9
$TREEDEPTH
 70
  3020
  9
$PICKSTYLE
 70
     1
  9
$CMLSTYLE
  2
STANDARD
  9
$CMLJUST
 70
     0
  9
$CMLSCALE
 40
1.0
  9
$PROXYGRAPHICS
 70
     1
  9
$MEASUREMENT
 70
     1
  0
ENDSEC
  0
SECTION
  2
CLASSES
  0
CLASS
  1
IDBUFFER
  2
AcDbIdBuffer
  3
AutoCAD 2000
 90
        0
280
     0
281
     0
  0
CLASS
  1
LWPOLYLINE
  2
AcDbPolyline
  3
AutoCAD 2000
 90
        0
280
     0
281
     1
  0
CLASS
  1
DICTIONARYVAR
  2
AcDbDictionaryVar
  3
AutoCAD 2000
 90
        0
280
     0
281
     0
  0
CLASS
  1
HATCH
  2
AcDbHatch
  3
AutoCAD 2000
 90
        0
280
     0
281
     1
  0
CLASS
  1
ACDBDICTIONARYWDFLT
  2
AcDbDictionaryWithDefault
  3
AutoCAD 2000
 90
        0
280
     0
281
     0
  0
CLASS
  1
ACDBPLACEHOLDER
  2
AcDbPlaceHolder
  3
AutoCAD 2000
 90
        0
280
     0
281
     0
  0
CLASS
  1
LAYOUT
  2
AcDbLayout
  3
AutoCAD 2000
 90
        0
280
     0
281
     0
  0
CLASS
  1
LONG_TRANSACTION
  2
AcDbLongTransaction
  3
AutoCAD 2000
 90
        0
280
     0
281
     0
  0
CLASS
  1
LWPOLYLINE
  2
AcDbPolyline
  3
AutoCAD 2000
 90
        0
280
     0
281
     1
  0
CLASS
  1
HATCH
  2
AcDbHatch
  3
AutoCAD 2000
 90
        0
280
     0
281
     1
  0
CLASS
  1
XRECORD
  2
AcDbXrecord
  3
AutoCAD 2000
 90
        0
280
     0
281
     0
  0
CLASS
  1
LONG_TRANSACTION
  2
AcDbLongTransaction
  3
AutoCAD 2000
 90
        0
280
     0
281
     0
  0
CLASS
  1
LWPOLYLINE
  2
AcDbPolyline
  3
AutoCAD 2000
 90
        0
280
     0
281
     1
  0
CLASS
  1
HATCH
  2
AcDbHatch
  3
AutoCAD 2000
 90
        0
280
     0
281
     1
  0
CLASS
  1
XRECORD
  2
AcDbXrecord
  3
AutoCAD 2000
 90
        0
280
     0
281
     0
  0
CLASS
  1
LONG_TRANSACTION
  2
AcDbLongTransaction
  3
AutoCAD 2000
 90
        0
280
     0
281
     0
  0
CLASS
  1
LWPOLYLINE
  2
AcDbPolyline
  3
AutoCAD 2000
 90
        0
280
     0
281
     1
  0
CLASS
  1
HATCH
  2
AcDbHatch
  3
AutoCAD 2000
 90
        0
280
     0
281
     1
  0
CLASS
  1
XRECORD
  2
AcDbXrecord
  3
AutoCAD 2000
 90
        0
280
     0
281
     0
  0
CLASS
  1
LONG_TRANSACTION
  2
AcDbLongTransaction
  3
AutoCAD 2000
 90
        0
280
     0
281
     0
  0
CLASS
  1
LWPOLYLINE
  2
AcDbPolyline
  3
AutoCAD 2000
 90
        0
280
     0
281
     1
  0
CLASS
  1
HATCH
  2
AcDbHatch
  3
AutoCAD 2000
 90
        0
280
     0
281
     1
  0
CLASS
  1
XRECORD
  2
AcDbXrecord
  3
AutoCAD 2000
 90
        0
280
     0
281
     0
  0
CLASS
  1
LONG_TRANSACTION
  2
AcDbLongTransaction
  3
AutoCAD 2000
 90
        0
280
     0
281
     0
  0
CLASS
  1
LWPOLYLINE
  2
AcDbPolyline
  3
AutoCAD 2000
 90
        0
280
     0
281
     1
  0
CLASS
  1
HATCH
  2
AcDbHatch
  3
AutoCAD 2000
 90
        0
280
     0
281
     1
  0
CLASS
  1
XRECORD
  2
AcDbXrecord
  3
AutoCAD 2000
 90
        0
280
     0
281
     0
  0
ENDSEC
  0
SECTION
  2
TABLES
  0
TABLE
  2
VPORT
  5
12
330
0
100
AcDbSymbolTable
 70
     2
  0
VPORT
  5
10C66
330
12
100
AcDbSymbolTableRecord
100
AcDbViewportTableRecord
  2
*ACTIVE
 70
     0
 10
0.0
 20
0.0
 11
1.0
 21
1.0
 12
11227.37465706571
 22
43.60139775545758
 13
0.0
 23
0.0
 14
1.0
 24
1.0
 15
10.0
 25
10.0
 16
0.0
 26
0.0
 36
1.0
 17
0.0
 27
0.0
 37
0.0
 40
1586.212155708532
 41
1.751219512195121
 42
50.0
 43
0.0
 44
0.0
 50
0.0
 51
0.0
 71
     0
 72
     0
 73
     1
 74
     1
 75
     0
 76
     0
 77
     0
 78
     0
  0
ENDTAB
  0
TABLE
  2
LTYPE
  5
D
330
0
100
AcDbSymbolTable
 70
     3
  0
LTYPE
  5
E
330
D
100
AcDbSymbolTableRecord
100
AcDbLinetypeTableRecord
  2
BYBLOCK
 70
     0
  3

 72
    65
 73
     0
 40
0.0
  0
LTYPE
  5
F
330
D
100
AcDbSymbolTableRecord
100
AcDbLinetypeTableRecord
  2
BYLAYER
 70
     0
  3

 72
    65
 73
     0
 40
0.0
  0
LTYPE
  5
5
330
D
100
AcDbSymbolTableRecord
100
AcDbLinetypeTableRecord
  2
AUSGEZOGEN
 70
     0
  3
Ausgezogene Linie
 72
    65
 73
     0
 40
0.0
  0
LTYPE
  5
21
330
D
100
AcDbSymbolTableRecord
100
AcDbLinetypeTableRecord
  2
MLA3
 70
     0
  3
------ - -------
 72
    65
 73
     4
 40
15.0
 49
10.0
 74
     0
 49
-2.0
 74
     0
 49
1.0
 74
     0
 49
-2.0
 74
     0
  0
LTYPE
  5
540
330
D
100
AcDbSymbolTableRecord
100
AcDbLinetypeTableRecord
  2
CONTINUOUS
 70
     0
  3
Solid line
 72
    65
 73
     0
 40
0.0
  0
ENDTAB
  0
TABLE
  2
LAYER
  5
A
330
0
100
AcDbSymbolTable
 70
     5
  0
LAYER
  5
4
330
A
100
AcDbSymbolTableRecord
100
AcDbLayerTableRecord
  2
0
 70
     0
 62
     7
  6
AUSGEZOGEN
  0
LAYER
  5
1B
330
A
100
AcDbSymbolTableRecord
100
AcDbLayerTableRecord
  2
VLB
 70
     0
 62
     7
  6
AUSGEZOGEN
  0
LAYER
  5
20
330
A
100
AcDbSymbolTableRecord
100
AcDbLayerTableRecord
  2
SPS
 70
     0
 62
     1
  6
MLA3
  0
LAYER
  5
544
330
A
100
AcDbSymbolTableRecord
100
AcDbLayerTableRecord
  2
TSG
 70
     0
 62
     7
  6
AUSGEZOGEN
  0
LAYER
  5
73C
330
A
100
AcDbSymbolTableRecord
100
AcDbLayerTableRecord
  2
DEFPOINTS
 70
     0
 62
     7
  6
AUSGEZOGEN
  0
ENDTAB
  0
TABLE
  2
STYLE
  5
B
330
0
100
AcDbSymbolTable
 70
     3
  0
STYLE
  5
C
330
B
100
AcDbSymbolTableRecord
100
AcDbTextStyleTableRecord
  2
STANDARD
 70
     0
 40
0.0
 41
1.0
 50
0.0
 71
     0
 42
3.0
  3
txt
  4

  0
STYLE
  5
1C
330
B
100
AcDbSymbolTableRecord
100
AcDbTextStyleTableRecord
  2
ROMANS
 70
     0
 40
0.0
 41
1.0
 50
0.0
 71
     0
 42
3.5
  3
romans.shx
  4

  0
STYLE
  5
1451
330
B
100
AcDbSymbolTableRecord
100
AcDbTextStyleTableRecord
  2
ROMANS8
 70
     0
 40
0.0
 41
1.0
 50
0.0
 71
     0
 42
40.0
  3
simplex.shx
  4

  0
ENDTAB
  0
TABLE
  2
VIEW
  5
10
330
0
100
AcDbSymbolTable
 70
     0
  0
ENDTAB
  0
TABLE
  2
UCS
  5
11
330
0
100
AcDbSymbolTable
 70
     0
  0
ENDTAB
  0
TABLE
  2
APPID
  5
14
330
0
100
AcDbSymbolTable
 70
     6
  0
APPID
  5
15
330
14
100
AcDbSymbolTableRecord
100
AcDbRegAppTableRecord
  2
ACAD
 70
     0
  0
APPID
  5
81B
330
14
100
AcDbSymbolTableRecord
100
AcDbRegAppTableRecord
  2
CONTENTTABDATA
 70
     0
  0
APPID
  5
81C
330
14
100
AcDbSymbolTableRecord
100
AcDbRegAppTableRecord
  2
CONTENTCURRENTTAB
 70
     0
  0
APPID
  5
9B6
330
14
100
AcDbSymbolTableRecord
100
AcDbRegAppTableRecord
  2
CONTENTBLOCKDESCRIPTION
 70
     0
  0
APPID
  5
B5D
330
14
100
AcDbSymbolTableRecord
100
AcDbRegAppTableRecord
  2
CONTENTBLOCKICON
 70
     0
  0
APPID
  5
1453
330
14
100
AcDbSymbolTableRecord
100
AcDbRegAppTableRecord
  2
AVE_RENDER
 70
     0
  0
ENDTAB
  0
TABLE
  2
DIMSTYLE
  5
16
330
0
100
AcDbSymbolTable
 70
     1
  0
DIMSTYLE
105
1E
330
16
100
AcDbSymbolTableRecord
100
AcDbDimStyleTableRecord
  2
STANDARD
 70
     0
  3

  4

  5

  6

  7

 40
3.0
 41
3.5
 42
0.1
 43
7.0
 44
1.8
 45
0.0
 46
0.0
 47
0.0
 48
0.0
140
3.5
141
0.0
142
0.0
143
25.4
144
1.0
145
0.0
146
1.0
147
1.7
 71
     0
 72
     0
 73
     0
 74
     0
 75
     0
 76
     0
 77
     1
 78
     8
170
     0
171
     2
172
     0
173
     0
174
     0
175
     0
176
   256
177
   256
178
   256
270
     2
271
     2
272
     2
273
     2
274
     2
340
1C
275
     0
280
     0
281
     0
282
     0
283
     1
284
     0
285
     0
286
     0
287
     3
288
     1
  0
ENDTAB
  0
TABLE
  2
BLOCK_RECORD
  5
1
330
0
100
AcDbSymbolTable
 70
     0
  0
BLOCK_RECORD
  5
2
102
{ACAD_XDICTIONARY
360
10B47
102
}
330
1
100
AcDbSymbolTableRecord
100
AcDbBlockTableRecord
  2
*MODEL_SPACE
  0
BLOCK_RECORD
  5
7
102
{ACAD_XDICTIONARY
360
10B49
102
}
330
1
100
AcDbSymbolTableRecord
100
AcDbBlockTableRecord
  2
*PAPER_SPACE
  0
ENDTAB
  0
ENDSEC
  0
SECTION
  2
BLOCKS
  0
BLOCK
  5
3
330
2
100
AcDbEntity
  8
0
100
AcDbBlockBegin
  2
*MODEL_SPACE
 70
     2
 10
0.0
 20
0.0
 30
0.0
  3
*MODEL_SPACE
  1

  0
ENDBLK
  5
6
330
2
100
AcDbEntity
  8
0
100
AcDbBlockEnd
  0
BLOCK
  5
8
330
7
100
AcDbEntity
 67
     1
  8
0
100
AcDbBlockBegin
  2
*PAPER_SPACE
 70
     2
 10
0.0
 20
0.0
 30
0.0
  3
*PAPER_SPACE
  1

  0
ENDBLK
  5
9
330
7
100
AcDbEntity
 67
     1
  8
0
100
AcDbBlockEnd
  0
ENDSEC
  0
SECTION
  2
ENTITIES
  0
LINE
  5
EED8
330
2
100
AcDbEntity
  8
SPS
100
AcDbLine
 10
11510.30832427497
 20
25.92363744915838
 30
0.0
 11
11510.30832427497
 21
638.9236374491583
 31
0.0
  0
LINE
  5
EED9
330
2
100
AcDbEntity
  8
VLB
100
AcDbLine
 10
11730.30832427497
 20
435.4935652430277
 30
0.0
 11
11730.30832427497
 21
92.42363744915838
 31
0.0
  0
LINE
  5
EEDA
330
2
100
AcDbEntity
  8
VLB
100
AcDbLine
 10
11001.577617554
 20
92.42363744915838
 30
0.0
 11
11001.577617554
 21
366.009423886785
 31
0.0
  0
LINE
  5
EEDB
330
2
100
AcDbEntity
  8
VLB
100
AcDbLine
 10
10896.577617554
 20
67.42363744915838
 30
0.0
 11
10896.577617554
 21
409.5018479359605
 31
0.0
  0
LINE
  5
EEDC
330
2
100
AcDbEntity
  8
VLB
100
AcDbLine
 10
11290.30832427497
 20
435.4935652430277
 30
0.0
 11
11290.30832427497
 21
92.42363744915838
 31
0.0
  0
LINE
  5
EEDD
330
2
100
AcDbEntity
  8
VLB
100
AcDbLine
 10
10561.577617554
 20
92.42363744915838
 30
0.0
 11
10561.577617554
 21
366.009423886785
 31
0.0
  0
LINE
  5
EEDE
330
2
100
AcDbEntity
  8
SPS
100
AcDbLine
 10
10781.577617554
 20
25.92363744915838
 30
0.0
 11
10781.577617554
 21
638.9236374491582
 31
0.0
  0
LINE
  5
EEDF
330
2
100
AcDbEntity
  8
VLB
100
AcDbLine
 10
10871.577617554
 20
67.42363744915838
 30
0.0
 11
10871.577617554
 21
420.009423886785
 31
0.0
  0
LINE
  5
EEE0
330
2
100
AcDbEntity
  8
VLB
100
AcDbLine
 10
10666.577617554
 20
67.42363744915838
 30
0.0
 11
10666.577617554
 21
409.5018479359605
 31
0.0
  0
LINE
  5
EEE1
330
2
100
AcDbEntity
  8
VLB
100
AcDbLine
 10
10691.577617554
 20
67.42363744915838
 30
0.0
 11
10691.577617554
 21
420.009423886785
 31
0.0
  0
LINE
  5
EEE2
330
2
100
AcDbEntity
  8
VLB
100
AcDbLine
 10
10666.577617554
 20
92.42363744915838
 30
0.0
 11
10561.577617554
 21
92.42363744915838
 31
0.0
  0
LINE
  5
EEE3
330
2
100
AcDbEntity
  8
VLB
100
AcDbLine
 10
10565.07754407362
 20
67.42363744915838
 30
0.0
 11
10691.67569376536
 21
67.42363744915838
 31
0.0
  0
LINE
  5
EEE4
330
2
100
AcDbEntity
  8
VLB
100
AcDbLine
 10
10561.077617554
 20
35.92363744915838
 30
0.0
 11
11002.077617554
 21
35.92363744915838
 31
0.0
  0
LINE
  5
EEE5
330
2
100
AcDbEntity
  8
VLB
100
AcDbLine
 10
10985.50183836714
 20
-164.0763625508416
 30
0.0
 11
10577.65339674085
 21
-164.0763625508416
 31
0.0
  0
LINE
  5
EEE8
330
2
100
AcDbEntity
  8
VLB
100
AcDbLine
 10
10985.50183850713
 20
-604.0763625508398
 30
0.0
 11
10577.65339660087
 21
-604.0763625508398
 31
0.0
  0
LINE
  5
EEE9
330
2
100
AcDbEntity
  8
SPS
100
AcDbLine
 10
10468.90678430028
 20
-384.0763625508407
 30
0.0
 11
11094.24845080772
 21
-384.0763625508416
 31
0.0
  0
LINE
  5
EEEA
330
2
100
AcDbEntity
  8
VLB
100
AcDbLine
 10
10581.577617554
 20
-164.0763625508416
 30
0.0
 11
10581.577617554
 21
-604.0763625508398
 31
0.0
  0
LINE
  5
EEEB
330
2
100
AcDbEntity
  8
VLB
100
AcDbLine
 10
10565.7118790679
 20
-591.0764128900564
 30
0.0
 11
10565.7118790679
 21
-177.0763625508416
 31
0.0
  0
LINE
  5
EEEC
330
2
100
AcDbEntity
  8
VLB
100
AcDbLine
 10
10573.5377727064
 20
-165.0763625508416
 30
0.0
 11
10573.5377727064
 21
-603.0763625508398
 31
0.0
  0
LINE
  5
EEED
330
2
100
AcDbEntity
  8
VLB
100
AcDbLine
 10
10543.839287875
 20
-591.076411176612
 30
0.0
 11
10543.839287875
 21
-177.0763625508416
 31
0.0
  0
LINE
  5
EEEE
330
2
100
AcDbEntity
  8
VLB
100
AcDbLine
 10
10537.42760779932
 20
-591.0763625508398
 30
0.0
 11
10537.42760779932
 21
-177.0763625508416
 31
0.0
  0
LINE
  5
EEEF
330
2
100
AcDbEntity
  8
VLB
100
AcDbLine
 10
10515.55501660641
 20
-591.0763625508379
 30
0.0
 11
10515.55501660641
 21
-177.0763625508416
 31
0.0
  0
LINE
  5
EEF0
330
2
100
AcDbEntity
  8
VLB
100
AcDbLine
 10
10509.14333653072
 20
-591.0763625508398
 30
0.0
 11
10509.14333653072
 21
-177.0763625508416
 31
0.0
  0
LINE
  5
EEF1
330
2
100
AcDbEntity
  8
VLB
100
AcDbLine
 10
10486.56363855611
 20
-591.0764029078682
 30
0.0
 11
10486.56363855611
 21
-177.0763625508416
 31
0.0
  0
LINE
  5
EEF2
330
2
100
AcDbEntity
  8
VLB
100
AcDbLine
 10
10478.90678430028
 20
-603.0763625508398
 30
0.0
 11
10478.90678430028
 21
-165.0763625508416
 31
0.0
  0
LINE
  5
EEF3
330
2
100
AcDbEntity
  8
VLB
100
AcDbLine
 10
10577.7804132547
 20
-165.0753047178559
 30
0.0
 11
10577.7804132547
 21
-603.0763625508398
 31
0.0
  0
LINE
  5
EEF4
330
2
100
AcDbEntity
  8
VLB
100
AcDbLine
 10
10561.7118790679
 20
-595.0763625508398
 30
0.0
 11
10547.839287875
 21
-595.0763625508379
 31
0.0
  0
ARC
  5
EEF5
330
2
100
AcDbEntity
  8
VLB
100
AcDbCircle
 10
10578.02305407492
 20
-603.0763625508398
 30
0.0
 40
4.0
100
AcDbArc
 50
270.0
 51
325.4087696210841
  0
ARC
  5
EEF6
330
2
100
AcDbEntity
  8
VLB
100
AcDbCircle
 10
10561.7118790679
 20
-591.0763625508398
 30
0.0
 40
4.0
100
AcDbArc
 50
270.0
 51
0.0
  0
ARC
  5
EEF7
330
2
100
AcDbEntity
  8
VLB
100
AcDbCircle
 10
10569.5377727064
 20
-603.0763625508398
 30
0.0
 40
4.0
100
AcDbArc
 50
270.0
 51
0.0
  0
ARC
  5
EEF8
330
2
100
AcDbEntity
  8
VLB
100
AcDbCircle
 10
10490.56363855611
 20
-591.0763625508398
 30
0.0
 40
4.0
100
AcDbArc
 50
180.0
 51
270.0
  0
ARC
  5
EEF9
330
2
100
AcDbEntity
  8
VLB
100
AcDbCircle
 10
10519.55501660641
 20
-591.0763625508379
 30
0.0
 40
4.0
100
AcDbArc
 50
180.0
 51
270.0
  0
ARC
  5
EEFA
330
2
100
AcDbEntity
  8
VLB
100
AcDbCircle
 10
10505.14333653073
 20
-591.0763625508398
 30
0.0
 40
4.0
100
AcDbArc
 50
270.0
 51
0.0
  0
LINE
  5
EEFB
330
2
100
AcDbEntity
  8
VLB
100
AcDbLine
 10
10505.14333653073
 20
-595.0763625508398
 30
0.0
 11
10490.56363855611
 21
-595.0763625508398
 31
0.0
  0
ARC
  5
EEFC
330
2
100
AcDbEntity
  8
VLB
100
AcDbCircle
 10
10547.839287875
 20
-591.0763625508379
 30
0.0
 40
4.0
100
AcDbArc
 50
180.0
 51
270.0
  0
ARC
  5
EEFD
330
2
100
AcDbEntity
  8
VLB
100
AcDbCircle
 10
10533.42760779932
 20
-591.0763625508398
 30
0.0
 40
4.0
100
AcDbArc
 50
270.0
 51
0.0
  0
LINE
  5
EEFE
330
2
100
AcDbEntity
  8
VLB
100
AcDbLine
 10
10533.42760779932
 20
-595.0763625508398
 30
0.0
 11
10519.55501660641
 21
-595.0763625508379
 31
0.0
  0
ARC
  5
EEFF
330
2
100
AcDbEntity
  8
VLB
100
AcDbCircle
 10
10573.7804132547
 20
-603.0763625508398
 30
0.0
 40
4.0
100
AcDbArc
 50
325.4087696210841
 51
0.0
  0
LINE
  5
EF00
330
2
100
AcDbEntity
  8
VLB
100
AcDbLine
 10
10581.31594716433
 20
-605.3472335515161
 30
0.0
 11
10577.07330634411
 21
-605.3472335515161
 31
0.0
  0
ARC
  5
EF01
330
2
100
AcDbEntity
  8
VLB
100
AcDbCircle
 10
10482.90678430028
 20
-603.0763625508398
 30
0.0
 40
4.0
100
AcDbArc
 50
180.0
 51
270.0
  0
LINE
  5
EF02
330
2
100
AcDbEntity
  8
VLB
100
AcDbLine
 10
10578.02305407492
 20
-607.0763625508398
 30
0.0
 11
10482.90678430028
 21
-607.0763625508398
 31
0.0
  0
LINE
  5
EF04
330
2
100
AcDbEntity
  8
VLB
100
AcDbLine
 10
10561.7118790679
 20
-173.0763625508416
 30
0.0
 11
10547.839287875
 21
-173.0763625508416
 31
0.0
  0
ARC
  5
EF05
330
2
100
AcDbEntity
  8
VLB
100
AcDbCircle
 10
10569.5377727064
 20
-165.0763625508416
 30
0.0
 40
4.0
100
AcDbArc
 50
0.0
 51
90.0
  0
ARC
  5
EF06
330
2
100
AcDbEntity
  8
VLB
100
AcDbCircle
 10
10561.7118790679
 20
-177.0763625508416
 30
0.0
 40
4.0
100
AcDbArc
 50
0.0
 51
90.0
  0
ARC
  5
EF07
330
2
100
AcDbEntity
  8
VLB
100
AcDbCircle
 10
10578.02305407492
 20
-165.0763625508416
 30
0.0
 40
4.0
100
AcDbArc
 50
34.59123037891582
 51
90.0
  0
LINE
  5
EF08
330
2
100
AcDbEntity
  8
VLB
100
AcDbLine
 10
10505.14333653073
 20
-173.0763625508416
 30
0.0
 11
10490.56363855611
 21
-173.0763625508416
 31
0.0
  0
LINE
  5
EF09
330
2
100
AcDbEntity
  8
VLB
100
AcDbLine
 10
10533.42760779932
 20
-173.0763625508416
 30
0.0
 11
10519.55501660641
 21
-173.0763625508416
 31
0.0
  0
ARC
  5
EF0A
330
2
100
AcDbEntity
  8
VLB
100
AcDbCircle
 10
10505.14333653073
 20
-177.0763625508416
 30
0.0
 40
4.0
100
AcDbArc
 50
0.0
 51
90.0
  0
ARC
  5
EF0B
330
2
100
AcDbEntity
  8
VLB
100
AcDbCircle
 10
10519.55501660641
 20
-177.0763625508416
 30
0.0
 40
4.0
100
AcDbArc
 50
90.0
 51
180.0
  0
ARC
  5
EF0C
330
2
100
AcDbEntity
  8
VLB
100
AcDbCircle
 10
10533.42760779932
 20
-177.0763625508416
 30
0.0
 40
4.0
100
AcDbArc
 50
0.0
 51
90.0
  0
ARC
  5
EF0D
330
2
100
AcDbEntity
  8
VLB
100
AcDbCircle
 10
10547.839287875
 20
-177.0763625508416
 30
0.0
 40
4.0
100
AcDbArc
 50
90.0
 51
180.0
  0
ARC
  5
EF0E
330
2
100
AcDbEntity
  8
VLB
100
AcDbCircle
 10
10490.56363855611
 20
-177.0763625508416
 30
0.0
 40
4.0
100
AcDbArc
 50
90.0
 51
180.0
  0
ARC
  5
EF0F
330
2
100
AcDbEntity
  8
VLB
100
AcDbCircle
 10
10573.78041339458
 20
-165.0763625508416
 30
0.0
 40
4.0
100
AcDbArc
 50
0.0
 51
34.59123037891582
  0
LINE
  5
EF10
330
2
100
AcDbEntity
  8
VLB
100
AcDbLine
 10
10581.31594716433
 20
-162.8054915501657
 30
0.0
 11
10577.07330648399
 21
-162.8054915501657
 31
0.0
  0
ARC
  5
EF11
330
2
100
AcDbEntity
  8
VLB
100
AcDbCircle
 10
10482.90678430028
 20
-165.0763625508416
 30
0.0
 40
4.0
100
AcDbArc
 50
90.0
 51
180.0
  0
LINE
  5
EF12
330
2
100
AcDbEntity
  8
VLB
100
AcDbLine
 10
10578.02305407492
 20
-161.0763625508416
 30
0.0
 11
10482.90678430028
 21
-161.0763625508416
 31
0.0
  0
ARC
  5
EF13
330
2
100
AcDbEntity
  8
VLB
100
AcDbCircle
 10
10565.077617554
 20
63.42363744915838
 30
0.0
 40
4.0
100
AcDbArc
 50
90.0
 51
180.0
  0
LINE
  5
EF14
330
2
100
AcDbEntity
  8
VLB
100
AcDbLine
 10
10561.077617554
 20
63.42363744915838
 30
0.0
 11
10561.077617554
 21
35.92363744915838
 31
0.0
  0
LINE
  5
EF15
330
2
100
AcDbEntity
  8
VLB
100
AcDbLine
 10
10576.577617554
 20
67.42363744915838
 30
0.0
 11
10576.577617554
 21
92.42363744915838
 31
0.0
  0
LINE
  5
EF16
330
2
100
AcDbEntity
  8
VLB
100
AcDbLine
 10
10985.37482185329
 20
-165.0753047178559
 30
0.0
 11
10985.37482185329
 21
-603.0763625508398
 31
0.0
  0
LINE
  5
EF17
330
2
100
AcDbEntity
  8
VLB
100
AcDbLine
 10
11025.72762730868
 20
-591.0763625508398
 30
0.0
 11
11025.72762730868
 21
-177.0763625508416
 31
0.0
  0
LINE
  5
EF18
330
2
100
AcDbEntity
  8
VLB
100
AcDbLine
 10
11019.315947233
 20
-591.076411176612
 30
0.0
 11
11019.315947233
 21
-177.0763625508416
 31
0.0
  0
LINE
  5
EF19
330
2
100
AcDbEntity
  8
VLB
100
AcDbLine
 10
10989.61746240159
 20
-165.0763625508416
 30
0.0
 11
10989.61746240159
 21
-603.0763625508398
 31
0.0
  0
LINE
  5
EF1A
330
2
100
AcDbEntity
  8
VLB
100
AcDbLine
 10
10997.4433560401
 20
-591.0764128900564
 30
0.0
 11
10997.4433560401
 21
-177.0763625508416
 31
0.0
  0
LINE
  5
EF1B
330
2
100
AcDbEntity
  8
VLB
100
AcDbLine
 10
11084.24845080772
 20
-603.0763625508398
 30
0.0
 11
11084.24845080772
 21
-165.0763625508416
 31
0.0
  0
LINE
  5
EF1C
330
2
100
AcDbEntity
  8
VLB
100
AcDbLine
 10
11076.59159655189
 20
-591.0764029078682
 30
0.0
 11
11076.59159655189
 21
-177.0763625508416
 31
0.0
  0
LINE
  5
EF1D
330
2
100
AcDbEntity
  8
VLB
100
AcDbLine
 10
11054.01189857727
 20
-591.0763625508398
 30
0.0
 11
11054.01189857727
 21
-177.0763625508416
 31
0.0
  0
LINE
  5
EF1E
330
2
100
AcDbEntity
  8
VLB
100
AcDbLine
 10
11047.60021850158
 20
-591.0763625508379
 30
0.0
 11
11047.60021850158
 21
-177.0763625508416
 31
0.0
  0
LINE
  5
EF1F
330
2
100
AcDbEntity
  8
VLB
100
AcDbLine
 10
10981.577617554
 20
-164.0763625508416
 30
0.0
 11
10981.577617554
 21
-604.0763625508398
 31
0.0
  0
LINE
  5
EF20
330
2
100
AcDbEntity
  8
SPS
100
AcDbLine
 10
10781.577617554
 20
-154.0763625508416
 30
0.0
 11
10781.577617554
 21
-742.2763625508398
 31
0.0
  0
LINE
  5
EF21
330
2
100
AcDbEntity
  8
VLB
100
AcDbLine
 10
11029.72762730868
 20
-595.0763625508398
 30
0.0
 11
11043.60021850158
 21
-595.0763625508379
 31
0.0
  0
ARC
  5
EF22
330
2
100
AcDbEntity
  8
VLB
100
AcDbCircle
 10
11029.72762730868
 20
-591.0763625508398
 30
0.0
 40
4.0
100
AcDbArc
 50
180.0
 51
270.0
  0
ARC
  5
EF23
330
2
100
AcDbEntity
  8
VLB
100
AcDbCircle
 10
11015.31594723299
 20
-591.0763625508379
 30
0.0
 40
4.0
100
AcDbArc
 50
270.0
 51
0.0
  0
LINE
  5
EF24
330
2
100
AcDbEntity
  8
VLB
100
AcDbLine
 10
11058.01189857727
 20
-595.0763625508398
 30
0.0
 11
11072.59159655189
 21
-595.0763625508398
 31
0.0
  0
ARC
  5
EF25
330
2
100
AcDbEntity
  8
VLB
100
AcDbCircle
 10
11058.01189857727
 20
-591.0763625508398
 30
0.0
 40
4.0
100
AcDbArc
 50
180.0
 51
270.0
  0
ARC
  5
EF26
330
2
100
AcDbEntity
  8
VLB
100
AcDbCircle
 10
11043.60021850158
 20
-591.0763625508379
 30
0.0
 40
4.0
100
AcDbArc
 50
270.0
 51
0.0
  0
ARC
  5
EF27
330
2
100
AcDbEntity
  8
VLB
100
AcDbCircle
 10
11072.59159655189
 20
-591.0763625508398
 30
0.0
 40
4.0
100
AcDbArc
 50
270.0
 51
0.0
  0
ARC
  5
EF28
330
2
100
AcDbEntity
  8
VLB
100
AcDbCircle
 10
11080.24845080772
 20
-603.0763625508398
 30
0.0
 40
4.0
100
AcDbArc
 50
270.0
 51
0.0
  0
ARC
  5
EF29
330
2
100
AcDbEntity
  8
VLB
100
AcDbCircle
 10
10993.61746240159
 20
-603.0763625508398
 30
0.0
 40
4.0
100
AcDbArc
 50
180.0
 51
270.0
  0
ARC
  5
EF2A
330
2
100
AcDbEntity
  8
VLB
100
AcDbCircle
 10
11001.4433560401
 20
-591.0763625508398
 30
0.0
 40
4.0
100
AcDbArc
 50
180.0
 51
270.0
  0
LINE
  5
EF2B
330
2
100
AcDbEntity
  8
VLB
100
AcDbLine
 10
10981.83928794366
 20
-605.3472335515161
 30
0.0
 11
10986.08192876388
 21
-605.3472335515161
 31
0.0
  0
ARC
  5
EF2C
330
2
100
AcDbEntity
  8
VLB
100
AcDbCircle
 10
10989.3748218533
 20
-603.0763625508398
 30
0.0
 40
4.0
100
AcDbArc
 50
180.0
 51
214.5912303789158
  0
ARC
  5
EF2D
330
2
100
AcDbEntity
  8
VLB
100
AcDbCircle
 10
10985.13218103308
 20
-603.0763625508398
 30
0.0
 40
4.0
100
AcDbArc
 50
214.5912303789158
 51
270.0
  0
LINE
  5
EF2E
330
2
100
AcDbEntity
  8
VLB
100
AcDbLine
 10
10985.13218103308
 20
-607.0763625508398
 30
0.0
 11
11080.24845080772
 21
-607.0763625508398
 31
0.0
  0
LINE
  5
EF2F
330
2
100
AcDbEntity
  8
VLB
100
AcDbLine
 10
11001.4433560401
 20
-595.0763625508398
 30
0.0
 11
11015.31594723299
 21
-595.0763625508379
 31
0.0
  0
LINE
  5
EF32
330
2
100
AcDbEntity
  8
VLB
100
AcDbLine
 10
11029.72762730868
 20
-173.0763625508416
 30
0.0
 11
11043.60021850158
 21
-173.0763625508416
 31
0.0
  0
ARC
  5
EF33
330
2
100
AcDbEntity
  8
VLB
100
AcDbCircle
 10
11015.31594723299
 20
-177.0763625508416
 30
0.0
 40
4.0
100
AcDbArc
 50
0.0
 51
90.0
  0
ARC
  5
EF34
330
2
100
AcDbEntity
  8
VLB
100
AcDbCircle
 10
11029.72762730868
 20
-177.0763625508416
 30
0.0
 40
4.0
100
AcDbArc
 50
90.0
 51
180.0
  0
ARC
  5
EF35
330
2
100
AcDbEntity
  8
VLB
100
AcDbCircle
 10
11072.59159655189
 20
-177.0763625508416
 30
0.0
 40
4.0
100
AcDbArc
 50
0.0
 51
90.0
  0
ARC
  5
EF36
330
2
100
AcDbEntity
  8
VLB
100
AcDbCircle
 10
11043.60021850158
 20
-177.0763625508416
 30
0.0
 40
4.0
100
AcDbArc
 50
0.0
 51
90.0
  0
ARC
  5
EF37
330
2
100
AcDbEntity
  8
VLB
100
AcDbCircle
 10
11058.01189857727
 20
-177.0763625508416
 30
0.0
 40
4.0
100
AcDbArc
 50
90.0
 51
180.0
  0
LINE
  5
EF38
330
2
100
AcDbEntity
  8
VLB
100
AcDbLine
 10
11058.01189857727
 20
-173.0763625508416
 30
0.0
 11
11072.59159655189
 21
-173.0763625508416
 31
0.0
  0
ARC
  5
EF39
330
2
100
AcDbEntity
  8
VLB
100
AcDbCircle
 10
11080.24845080772
 20
-165.0763625508416
 30
0.0
 40
4.0
100
AcDbArc
 50
0.0
 51
90.0
  0
ARC
  5
EF3A
330
2
100
AcDbEntity
  8
VLB
100
AcDbCircle
 10
10993.61746240159
 20
-165.0763625508416
 30
0.0
 40
4.0
100
AcDbArc
 50
90.0
 51
180.0
  0
ARC
  5
EF3B
330
2
100
AcDbEntity
  8
VLB
100
AcDbCircle
 10
11001.4433560401
 20
-177.0763625508416
 30
0.0
 40
4.0
100
AcDbArc
 50
90.0
 51
180.0
  0
ARC
  5
EF3C
330
2
100
AcDbEntity
  8
VLB
100
AcDbCircle
 10
10985.13218103308
 20
-165.0763625508416
 30
0.0
 40
4.0
100
AcDbArc
 50
90.0
 51
145.4087696210841
  0
LINE
  5
EF3D
330
2
100
AcDbEntity
  8
VLB
100
AcDbLine
 10
10981.83928794366
 20
-162.8054915501657
 30
0.0
 11
10986.08192862401
 21
-162.8054915501657
 31
0.0
  0
ARC
  5
EF3E
330
2
100
AcDbEntity
  8
VLB
100
AcDbCircle
 10
10989.37482171342
 20
-165.0763625508416
 30
0.0
 40
4.0
100
AcDbArc
 50
145.4087696210841
 51
180.0
  0
LINE
  5
EF3F
330
2
100
AcDbEntity
  8
VLB
100
AcDbLine
 10
10985.13218103308
 20
-161.0763625508416
 30
0.0
 11
11080.24845080772
 21
-161.0763625508416
 31
0.0
  0
LINE
  5
EF40
330
2
100
AcDbEntity
  8
VLB
100
AcDbLine
 10
11001.4433560401
 20
-173.0763625508416
 30
0.0
 11
11015.31594723299
 21
-173.0763625508416
 31
0.0
  0
LINE
  5
EF41
330
2
100
AcDbEntity
  8
VLB
100
AcDbLine
 10
11730.30832427497
 20
92.42363744915838
 30
0.0
 11
11290.30832427497
 21
92.42363744915838
 31
0.0
  0
LINE
  5
EF42
330
2
100
AcDbEntity
  8
VLB
100
AcDbLine
 10
11293.80832427497
 20
67.42363744915838
 30
0.0
 11
11726.80832427497
 21
67.42363744915838
 31
0.0
  0
LINE
  5
EF43
330
2
100
AcDbEntity
  8
VLB
100
AcDbLine
 10
11289.80832427497
 20
35.92363744915838
 30
0.0
 11
11730.80832427497
 21
35.92363744915838
 31
0.0
  0
LINE
  5
EF46
330
2
100
AcDbEntity
  8
VLB
100
AcDbLine
 10
10896.577617554
 20
92.42363744915838
 30
0.0
 11
11001.577617554
 21
92.42363744915838
 31
0.0
  0
LINE
  5
EF47
330
2
100
AcDbEntity
  8
VLB
100
AcDbLine
 10
10691.577617554
 20
92.42363744915838
 30
0.0
 11
10716.577617554
 21
92.42363744915838
 31
0.0
  0
LINE
  5
EF48
330
2
100
AcDbEntity
  8
VLB
100
AcDbLine
 10
10986.577617554
 20
67.42363744915838
 30
0.0
 11
10986.577617554
 21
92.42363744915838
 31
0.0
  0
LINE
  5
EF49
330
2
100
AcDbEntity
  8
VLB
100
AcDbLine
 10
11002.077617554
 20
63.42363744915838
 30
0.0
 11
11002.077617554
 21
35.92363744915838
 31
0.0
  0
ARC
  5
EF4A
330
2
100
AcDbEntity
  8
VLB
100
AcDbCircle
 10
10998.077617554
 20
63.42363744915838
 30
0.0
 40
4.0
100
AcDbArc
 50
0.0
 51
90.0
  0
ARC
  5
EF4B
330
2
100
AcDbEntity
  8
VLB
100
AcDbCircle
 10
11293.80832427497
 20
63.42363744915838
 30
0.0
 40
4.0
100
AcDbArc
 50
90.0
 51
180.0
  0
LINE
  5
EF4C
330
2
100
AcDbEntity
  8
VLB
100
AcDbLine
 10
11289.80832427497
 20
63.42363744915838
 30
0.0
 11
11289.80832427497
 21
35.92363744915838
 31
0.0
  0
LINE
  5
EF4D
330
2
100
AcDbEntity
  8
VLB
100
AcDbLine
 10
11305.30832427497
 20
92.42363744915838
 30
0.0
 11
11305.30832427497
 21
67.42363744915838
 31
0.0
  0
LINE
  5
EF4E
330
2
100
AcDbEntity
  8
VLB
100
AcDbLine
 10
11730.80832427497
 20
63.42363744915838
 30
0.0
 11
11730.80832427497
 21
35.92363744915838
 31
0.0
  0
LINE
  5
EF4F
330
2
100
AcDbEntity
  8
VLB
100
AcDbLine
 10
11715.30832427497
 20
92.42363744915838
 30
0.0
 11
11715.30832427497
 21
67.42363744915838
 31
0.0
  0
ARC
  5
EF50
330
2
100
AcDbEntity
  8
VLB
100
AcDbCircle
 10
11726.80832427497
 20
63.42363744915838
 30
0.0
 40
4.0
100
AcDbArc
 50
0.0
 51
90.0
  0
LINE
  5
EF52
330
2
100
AcDbEntity
  8
VLB
100
AcDbLine
 10
10691.577617554
 20
420.009423886785
 30
0.0
 11
10580.87051077281
 21
530.7165306679717
 31
0.0
  0
LINE
  5
EF53
330
2
100
AcDbEntity
  8
VLB
100
AcDbLine
 10
10666.577617554
 20
409.5018479359578
 30
0.0
 11
10563.63827767085
 21
512.4411878191121
 31
0.0
  0
LINE
  5
EF54
330
2
100
AcDbEntity
  8
VLB
100
AcDbLine
 10
10581.577617554
 20
562.4236374491584
 30
0.0
 11
10771.377617554
 21
562.4236374491576
 31
0.0
  0
LINE
  5
EF55
330
2
100
AcDbEntity
  8
VLB
100
AcDbLine
 10
10581.577617554
 20
532.4236374491583
 30
0.0
 11
10771.377617554
 21
532.4236374491583
 31
0.0
  0
TEXT
  5
EF56
330
2
100
AcDbEntity
  8
TSG
100
AcDbText
 10
10570.52019728788
 20
758.0380533255038
 30
0.0
 40
60.0
  1
RDM 56/57-2528/2531
  7
ROMANS
100
AcDbText
  0
LINE
  5
EF57
330
2
100
AcDbEntity
  8
VLB
100
AcDbLine
 10
10581.31594716433
 20
530.1188573390072
 30
0.0
 11
10486.56363855611
 21
435.3665485892342
 31
0.0
  0
LINE
  5
EF58
330
2
100
AcDbEntity
  8
VLB
100
AcDbLine
 10
10572.1235590031
 20
537.8970319251939
 30
0.0
 11
10479.49257073685
 21
445.2660435205662
 31
0.0
  0
ARC
  5
EF59
330
2
100
AcDbEntity
  8
VLB
100
AcDbCircle
 10
10480.90678430028
 20
443.851829959247
 30
0.0
 40
2.0
100
AcDbArc
 50
135.0000000427614
 51
225.0000000427339
  0
LINE
  5
EF5A
330
2
100
AcDbEntity
  8
VLB
100
AcDbLine
 10
10479.49257073896
 20
442.4376163958168
 30
0.0
 11
10486.56363855611
 21
435.3665485892342
 31
0.0
  0
LINE
  5
EF5B
330
2
100
AcDbEntity
  8
VLB
100
AcDbLine
 10
10561.577617554
 20
366.009423886785
 30
0.0
 11
10489.39206570172
 21
438.1949757390648
 31
0.0
  0
LINE
  5
EF5C
330
2
100
AcDbEntity
  8
VLB
100
AcDbLine
 10
10533.66642448414
 20
501.0747002509661
 30
0.0
 11
10514.32993709241
 21
484.2657481800315
 31
0.0
  0
ARC
  5
EF5D
330
2
100
AcDbEntity
  8
VLB
100
AcDbCircle
 10
10487.35778392518
 20
454.4720577519792
 30
0.0
 40
2.0
100
AcDbArc
 50
131.0000000427783
 51
221.0000000427967
  0
ARC
  5
EF5E
330
2
100
AcDbEntity
  8
VLB
100
AcDbCircle
 10
10485.19714402125
 20
452.3848303769109
 30
0.0
 40
1.0
100
AcDbArc
 50
315.0000000427614
 51
41.00000004279674
  0
LINE
  5
EF5F
330
2
100
AcDbEntity
  8
VLB
100
AcDbLine
 10
10485.95185360098
 20
453.0408894064658
 30
0.0
 11
10485.84836476572
 21
453.1599396928696
 31
0.0
  0
ARC
  5
EF60
330
2
100
AcDbEntity
  8
VLB
100
AcDbCircle
 10
10513.48141524758
 20
480.6691016454988
 30
0.0
 40
1.0
100
AcDbArc
 50
315.0000000427614
 51
41.00000004279674
  0
ARC
  5
EF61
330
2
100
AcDbEntity
  8
VLB
100
AcDbCircle
 10
10515.64205515152
 20
482.7563290205662
 30
0.0
 40
2.0
100
AcDbArc
 50
131.0000000427783
 51
221.0000000427967
  0
LINE
  5
EF62
330
2
100
AcDbEntity
  8
VLB
100
AcDbLine
 10
10514.23612482731
 20
481.3251606750537
 30
0.0
 11
10514.13263599205
 21
481.4442109614583
 31
0.0
  0
ARC
  5
EF63
330
2
100
AcDbEntity
  8
VLB
100
AcDbCircle
 10
10506.69427131716
 20
471.2810098231302
 30
0.0
 40
2.0
100
AcDbArc
 50
82.81031494081871
 51
131.0000000427783
  0
ARC
  5
EF64
330
2
100
AcDbEntity
  8
VLB
100
AcDbCircle
 10
10507.06973518147
 20
474.257421569816
 30
0.0
 40
1.0
100
AcDbArc
 50
262.8103149408187
 51
315.0000000427614
  0
LINE
  5
EF65
330
2
100
AcDbEntity
  8
VLB
100
AcDbLine
 10
10505.38215325805
 20
472.7904289825955
 30
0.0
 11
10486.04566586607
 21
455.9814769114446
 31
0.0
  0
LINE
  5
EF66
330
2
100
AcDbEntity
  8
VLB
100
AcDbLine
 10
10577.7804132547
 20
535.0686048046718
 30
0.0
 11
10577.07330647404
 21
534.3614980229586
 31
0.0
  0
LINE
  5
EF67
330
2
100
AcDbEntity
  8
VLB
100
AcDbLine
 10
10577.07330647404
 20
534.3614980229577
 30
0.0
 11
10581.31594716433
 21
530.1188573390072
 31
0.0
  0
LINE
  5
EF68
330
2
100
AcDbEntity
  8
VLB
100
AcDbLine
 10
10574.95198612785
 20
537.8970319273048
 30
0.0
 11
10577.7804132547
 21
535.0686048046718
 31
0.0
  0
LINE
  5
EF69
330
2
100
AcDbEntity
  8
VLB
100
AcDbLine
 10
10580.7943923037
 20
530.6404121988607
 30
0.0
 11
10581.577617554
 21
531.4236374491583
 31
0.0
  0
LINE
  5
EF6A
330
2
100
AcDbEntity
  8
VLB
100
AcDbLine
 10
10581.577617554
 20
531.4236374491583
 30
0.0
 11
10581.577617554
 21
562.4236374491584
 31
0.0
  0
ARC
  5
EF6B
330
2
100
AcDbEntity
  8
VLB
100
AcDbCircle
 10
10573.53777256653
 20
536.4828183638774
 30
0.0
 40
2.0
100
AcDbArc
 50
45.00000004273386
 51
135.0000000427614
  0
ARC
  5
EF6C
330
2
100
AcDbEntity
  8
VLB
100
AcDbCircle
 10
10543.88056201339
 20
511.0932461681386
 30
0.0
 40
2.0
100
AcDbArc
 50
131.0000000427783
 51
221.0000000427967
  0
ARC
  5
EF6D
330
2
100
AcDbEntity
  8
VLB
100
AcDbCircle
 10
10534.97854254325
 20
499.5652810914998
 30
0.0
 40
2.0
100
AcDbArc
 50
82.81031493661743
 51
131.0000000427783
  0
ARC
  5
EF6E
330
2
100
AcDbEntity
  8
VLB
100
AcDbCircle
 10
10535.3540064078
 20
502.541692838402
 30
0.0
 40
1.0
100
AcDbArc
 50
262.8103149366174
 51
315.0000000427614
  0
LINE
  5
EF6F
330
2
100
AcDbEntity
  8
VLB
100
AcDbLine
 10
10542.52039605365
 20
509.6094319436442
 30
0.0
 11
10542.37114285392
 21
509.781128109028
 31
0.0
  0
ARC
  5
EF70
330
2
100
AcDbEntity
  8
VLB
100
AcDbCircle
 10
10541.76568647392
 20
508.9533729140903
 30
0.0
 40
1.0
100
AcDbArc
 50
315.0000000427614
 51
41.00000004279674
  0
ARC
  5
EF71
330
2
100
AcDbEntity
  8
VLB
100
AcDbCircle
 10
10563.96992055037
 20
528.5566591419146
 30
0.0
 40
2.0
100
AcDbArc
 50
82.81031493882307
 51
131.0000000427783
  0
ARC
  5
EF72
330
2
100
AcDbEntity
  8
VLB
100
AcDbCircle
 10
10564.3453844148
 20
531.5330708887058
 30
0.0
 40
1.0
100
AcDbArc
 50
262.810314938823
 51
315.0000000427614
  0
LINE
  5
EF73
330
2
100
AcDbEntity
  8
VLB
100
AcDbLine
 10
10562.65780249126
 20
530.06607830138
 30
0.0
 11
10542.56844395428
 21
512.6026653276031
 31
0.0
  0
LINE
  5
EF74
330
2
100
AcDbEntity
  8
VLB
100
AcDbLine
 10
11291.30828509829
 20
435.3665485892352
 30
0.0
 11
11729.30832427497
 21
435.3665485892352
 31
0.0
  0
LINE
  5
EF75
330
2
100
AcDbEntity
  8
VLB
100
AcDbLine
 10
11730.30832427497
 20
366.009423886785
 30
0.0
 11
11290.30832427497
 21
366.009423886785
 31
0.0
  0
LINE
  5
EF76
330
2
100
AcDbEntity
  8
VLB
100
AcDbLine
 10
11291.30832427497
 20
538.4828183638774
 30
0.0
 11
11729.30832427497
 21
538.4828183638774
 31
0.0
  0
LINE
  5
EF77
330
2
100
AcDbEntity
  8
VLB
100
AcDbLine
 10
11729.30832427497
 20
443.8518299577545
 30
0.0
 11
11291.30832427497
 21
443.8518299577545
 31
0.0
  0
LINE
  5
EF78
330
2
100
AcDbEntity
  8
VLB
100
AcDbLine
 10
11303.30828391794
 20
530.8259641080458
 30
0.0
 11
11717.30832427497
 21
530.8259641080458
 31
0.0
  0
LINE
  5
EF79
330
2
100
AcDbEntity
  8
VLB
100
AcDbLine
 10
11303.30832427497
 20
508.2462661334357
 30
0.0
 11
11717.30832427497
 21
508.2462661334338
 31
0.0
  0
LINE
  5
EF7A
330
2
100
AcDbEntity
  8
VLB
100
AcDbLine
 10
11303.30832427497
 20
501.8345860577446
 30
0.0
 11
11717.30832427497
 21
501.8345860577446
 31
0.0
  0
LINE
  5
EF7B
330
2
100
AcDbEntity
  8
VLB
100
AcDbLine
 10
11303.30832427497
 20
479.9619948648423
 30
0.0
 11
11717.30832427497
 21
479.9619948648423
 31
0.0
  0
LINE
  5
EF7C
330
2
100
AcDbEntity
  8
VLB
100
AcDbLine
 10
11303.3082756492
 20
473.550314789155
 30
0.0
 11
11717.30832427497
 21
473.550314789155
 31
0.0
  0
LINE
  5
EF7D
330
2
100
AcDbEntity
  8
VLB
100
AcDbLine
 10
11303.30827393575
 20
451.6777235962554
 30
0.0
 11
11717.30832427497
 21
451.6777235962544
 31
0.0
  0
LINE
  5
EF7E
330
2
100
AcDbEntity
  8
VLB
100
AcDbLine
 10
11730.30832427497
 20
562.4236374491565
 30
0.0
 11
11290.30832427497
 21
562.4236374491584
 31
0.0
  0
LINE
  5
EF7F
330
2
100
AcDbEntity
  8
VLB
100
AcDbLine
 10
10896.577617554
 20
409.5018479359578
 30
0.0
 11
10999.51695743715
 21
512.4411878191121
 31
0.0
  0
LINE
  5
EF80
330
2
100
AcDbEntity
  8
VLB
100
AcDbLine
 10
10871.577617554
 20
420.009423886785
 30
0.0
 11
10982.28472433519
 21
530.7165306679717
 31
0.0
  0
LINE
  5
EF84
330
2
100
AcDbEntity
  8
VLB
100
AcDbLine
 10
11287.30832427497
 20
439.3665485892352
 30
0.0
 11
11287.30832427497
 21
534.4828183638774
 31
0.0
  0
LINE
  5
EF85
330
2
100
AcDbEntity
  8
VLB
100
AcDbLine
 10
10981.83928794366
 20
530.1188573390072
 30
0.0
 11
11076.59159655189
 21
435.3665485892342
 31
0.0
  0
LINE
  5
EF86
330
2
100
AcDbEntity
  8
VLB
100
AcDbLine
 10
10991.0316761049
 20
537.8970319251939
 30
0.0
 11
11083.66266437115
 21
445.2660435205662
 31
0.0
  0
LINE
  5
EF87
330
2
100
AcDbEntity
  8
VLB
100
AcDbLine
 10
11083.66266436903
 20
442.4376163958168
 30
0.0
 11
11076.59159655189
 21
435.3665485892342
 31
0.0
  0
ARC
  5
EF88
330
2
100
AcDbEntity
  8
VLB
100
AcDbCircle
 10
11082.24845080772
 20
443.851829959247
 30
0.0
 40
2.0
100
AcDbArc
 50
314.9999999572661
 51
44.99999995723849
  0
LINE
  5
EF89
330
2
100
AcDbEntity
  8
VLB
100
AcDbLine
 10
11001.577617554
 20
366.009423886785
 30
0.0
 11
11073.76316940628
 21
438.1949757390648
 31
0.0
  0
ARC
  5
EF8A
330
2
100
AcDbEntity
  8
VLB
100
AcDbCircle
 10
11291.30832427497
 20
447.8518299577545
 30
0.0
 40
4.0
100
AcDbArc
 50
180.0
 51
270.0
  0
ARC
  5
EF8B
330
2
100
AcDbEntity
  8
VLB
100
AcDbCircle
 10
11291.30832427497
 20
439.3665485892352
 30
0.0
 40
4.0
100
AcDbArc
 50
180.0
 51
270.0
  0
LINE
  5
EF8C
330
2
100
AcDbEntity
  8
VLB
100
AcDbLine
 10
11029.48881062386
 20
501.0747002509661
 30
0.0
 11
11048.82529801559
 21
484.2657481800315
 31
0.0
  0
ARC
  5
EF8D
330
2
100
AcDbEntity
  8
VLB
100
AcDbCircle
 10
11021.38954863408
 20
508.9533729140903
 30
0.0
 40
1.0
100
AcDbArc
 50
138.9999999572032
 51
224.9999999572385
  0
LINE
  5
EF8E
330
2
100
AcDbEntity
  8
VLB
100
AcDbLine
 10
11020.63483905434
 20
509.6094319436442
 30
0.0
 11
11020.78409225407
 21
509.781128109028
 31
0.0
  0
ARC
  5
EF8F
330
2
100
AcDbEntity
  8
VLB
100
AcDbCircle
 10
11027.80122870019
 20
502.541692838402
 30
0.0
 40
1.0
100
AcDbArc
 50
224.9999999572385
 51
277.1896850633825
  0
ARC
  5
EF90
330
2
100
AcDbEntity
  8
VLB
100
AcDbCircle
 10
11028.17669256475
 20
499.5652810914998
 30
0.0
 40
2.0
100
AcDbArc
 50
48.99999995722165
 51
97.18968506338256
  0
ARC
  5
EF91
330
2
100
AcDbEntity
  8
VLB
100
AcDbCircle
 10
11019.27467309461
 20
511.0932461681386
 30
0.0
 40
2.0
100
AcDbArc
 50
318.9999999572032
 51
48.99999995722165
  0
LINE
  5
EF92
330
2
100
AcDbEntity
  8
VLB
100
AcDbLine
 10
11057.77308184995
 20
472.7904289825955
 30
0.0
 11
11077.10956924192
 21
455.9814769114446
 31
0.0
  0
ARC
  5
EF93
330
2
100
AcDbEntity
  8
VLB
100
AcDbCircle
 10
11056.08549992653
 20
474.257421569816
 30
0.0
 40
1.0
100
AcDbArc
 50
224.9999999572385
 51
277.1896850591812
  0
ARC
  5
EF94
330
2
100
AcDbEntity
  8
VLB
100
AcDbCircle
 10
11056.46096379084
 20
471.2810098231302
 30
0.0
 40
2.0
100
AcDbArc
 50
48.99999995722165
 51
97.18968505918128
  0
LINE
  5
EF95
330
2
100
AcDbEntity
  8
VLB
100
AcDbLine
 10
11048.91911028068
 20
481.3251606750537
 30
0.0
 11
11049.02259911594
 21
481.4442109614583
 31
0.0
  0
ARC
  5
EF96
330
2
100
AcDbEntity
  8
VLB
100
AcDbCircle
 10
11047.51317995648
 20
482.7563290205662
 30
0.0
 40
2.0
100
AcDbArc
 50
318.9999999572032
 51
48.99999995722165
  0
ARC
  5
EF97
330
2
100
AcDbEntity
  8
VLB
100
AcDbCircle
 10
11049.67381986042
 20
480.6691016454988
 30
0.0
 40
1.0
100
AcDbArc
 50
138.9999999572032
 51
224.9999999572385
  0
LINE
  5
EF98
330
2
100
AcDbEntity
  8
VLB
100
AcDbLine
 10
11077.20338150702
 20
453.0408894064658
 30
0.0
 11
11077.30687034228
 21
453.1599396928696
 31
0.0
  0
ARC
  5
EF99
330
2
100
AcDbEntity
  8
VLB
100
AcDbCircle
 10
11077.95809108675
 20
452.3848303769109
 30
0.0
 40
1.0
100
AcDbArc
 50
138.9999999572032
 51
224.9999999572385
  0
ARC
  5
EF9A
330
2
100
AcDbEntity
  8
VLB
100
AcDbCircle
 10
11075.79745118281
 20
454.4720577519792
 30
0.0
 40
2.0
100
AcDbArc
 50
318.9999999572032
 51
48.99999995722165
  0
LINE
  5
EF9B
330
2
100
AcDbEntity
  8
VLB
100
AcDbLine
 10
10988.20324898015
 20
537.8970319273048
 30
0.0
 11
10985.37482185329
 21
535.0686048046718
 31
0.0
  0
LINE
  5
EF9C
330
2
100
AcDbEntity
  8
VLB
100
AcDbLine
 10
10981.577617554
 20
531.4236374491583
 30
0.0
 11
10981.577617554
 21
562.4236374491584
 31
0.0
  0
LINE
  5
EF9D
330
2
100
AcDbEntity
  8
VLB
100
AcDbLine
 10
10986.08192863395
 20
534.3614980229577
 30
0.0
 11
10981.83928794366
 21
530.1188573390072
 31
0.0
  0
LINE
  5
EF9E
330
2
100
AcDbEntity
  8
VLB
100
AcDbLine
 10
10985.37482185329
 20
535.0686048046718
 30
0.0
 11
10986.08192863395
 21
534.3614980229586
 31
0.0
  0
LINE
  5
EF9F
330
2
100
AcDbEntity
  8
VLB
100
AcDbLine
 10
10982.3608428043
 20
530.6404121988607
 30
0.0
 11
10981.577617554
 21
531.4236374491583
 31
0.0
  0
ARC
  5
EFA0
330
2
100
AcDbEntity
  8
VLB
100
AcDbCircle
 10
10998.8098506932
 20
531.5330708887058
 30
0.0
 40
1.0
100
AcDbArc
 50
224.9999999572385
 51
277.1896850611769
  0
ARC
  5
EFA1
330
2
100
AcDbEntity
  8
VLB
100
AcDbCircle
 10
10999.18531455763
 20
528.5566591419146
 30
0.0
 40
2.0
100
AcDbArc
 50
48.99999995722165
 51
97.18968506117693
  0
ARC
  5
EFA2
330
2
100
AcDbEntity
  8
VLB
100
AcDbCircle
 10
10989.61746254147
 20
536.4828183638774
 30
0.0
 40
2.0
100
AcDbArc
 50
44.99999995723849
 51
134.9999999572661
  0
LINE
  5
EFA3
330
2
100
AcDbEntity
  8
VLB
100
AcDbLine
 10
11000.49743261674
 20
530.06607830138
 30
0.0
 11
11020.58679115372
 21
512.6026653276031
 31
0.0
  0
LINE
  5
EFA4
330
2
100
AcDbEntity
  8
VLB
100
AcDbLine
 10
11299.30832427497
 20
483.9619948648423
 30
0.0
 11
11299.30832427497
 21
497.8345860577437
 31
0.0
  0
LINE
  5
EFA5
330
2
100
AcDbEntity
  8
VLB
100
AcDbLine
 10
11299.30832427497
 20
455.6777235962554
 30
0.0
 11
11299.30832427497
 21
469.550314789155
 31
0.0
  0
ARC
  5
EFA6
330
2
100
AcDbEntity
  8
VLB
100
AcDbCircle
 10
11303.30832427497
 20
455.6777235962544
 30
0.0
 40
4.0
100
AcDbArc
 50
180.0
 51
270.0
  0
ARC
  5
EFA7
330
2
100
AcDbEntity
  8
VLB
100
AcDbCircle
 10
11303.30832427497
 20
483.9619948648423
 30
0.0
 40
4.0
100
AcDbArc
 50
180.0
 51
270.0
  0
ARC
  5
EFA8
330
2
100
AcDbEntity
  8
VLB
100
AcDbCircle
 10
11303.30832427497
 20
469.550314789155
 30
0.0
 40
4.0
100
AcDbArc
 50
90.0
 51
180.0
  0
LINE
  5
EFA9
330
2
100
AcDbEntity
  8
VLB
100
AcDbLine
 10
11290.30832427497
 20
538.3558017100849
 30
0.0
 11
11290.30832427497
 21
562.4236374491584
 31
0.0
  0
LINE
  5
EFAA
330
2
100
AcDbEntity
  8
VLB
100
AcDbLine
 10
11299.30832427497
 20
512.2462661334338
 30
0.0
 11
11299.30832427497
 21
526.8259641080458
 31
0.0
  0
ARC
  5
EFAB
330
2
100
AcDbEntity
  8
VLB
100
AcDbCircle
 10
11303.30832427497
 20
512.2462661334338
 30
0.0
 40
4.0
100
AcDbArc
 50
180.0
 51
270.0
  0
ARC
  5
EFAC
330
2
100
AcDbEntity
  8
VLB
100
AcDbCircle
 10
11303.30832427497
 20
497.8345860577437
 30
0.0
 40
4.0
100
AcDbArc
 50
90.0
 51
180.0
  0
ARC
  5
EFAD
330
2
100
AcDbEntity
  8
VLB
100
AcDbCircle
 10
11303.30832427497
 20
526.8259641080458
 30
0.0
 40
4.0
100
AcDbArc
 50
90.0
 51
180.0
  0
ARC
  5
EFAE
330
2
100
AcDbEntity
  8
VLB
100
AcDbCircle
 10
11291.30832427497
 20
534.4828183638774
 30
0.0
 40
4.0
100
AcDbArc
 50
90.0
 51
180.0
  0
LINE
  5
EFAF
330
2
100
AcDbEntity
  8
VLB
100
AcDbLine
 10
11733.30832427497
 20
439.3665485892352
 30
0.0
 11
11733.30832427497
 21
534.4828183638774
 31
0.0
  0
ARC
  5
EFB0
330
2
100
AcDbEntity
  8
VLB
100
AcDbCircle
 10
11729.30832427497
 20
439.3665485892352
 30
0.0
 40
4.0
100
AcDbArc
 50
270.0
 51
0.0
  0
ARC
  5
EFB1
330
2
100
AcDbEntity
  8
VLB
100
AcDbCircle
 10
11729.30832427497
 20
447.8518299577545
 30
0.0
 40
4.0
100
AcDbArc
 50
270.0
 51
0.0
  0
ARC
  5
EFB2
330
2
100
AcDbEntity
  8
VLB
100
AcDbCircle
 10
11729.30832427497
 20
534.4828183638774
 30
0.0
 40
4.0
100
AcDbArc
 50
0.0
 51
90.0
  0
ARC
  5
EFB3
330
2
100
AcDbEntity
  8
VLB
100
AcDbCircle
 10
11717.30832427497
 20
526.8259641080458
 30
0.0
 40
4.0
100
AcDbArc
 50
0.0
 51
90.0
  0
ARC
  5
EFB4
330
2
100
AcDbEntity
  8
VLB
100
AcDbCircle
 10
11717.30832427497
 20
469.550314789155
 30
0.0
 40
4.0
100
AcDbArc
 50
0.0
 51
90.0
  0
ARC
  5
EFB5
330
2
100
AcDbEntity
  8
VLB
100
AcDbCircle
 10
11717.30832427497
 20
483.9619948648423
 30
0.0
 40
4.0
100
AcDbArc
 50
270.0
 51
0.0
  0
ARC
  5
EFB6
330
2
100
AcDbEntity
  8
VLB
100
AcDbCircle
 10
11717.30832427497
 20
497.8345860577437
 30
0.0
 40
4.0
100
AcDbArc
 50
0.0
 51
90.0
  0
ARC
  5
EFB7
330
2
100
AcDbEntity
  8
VLB
100
AcDbCircle
 10
11717.30832427497
 20
512.2462661334338
 30
0.0
 40
4.0
100
AcDbArc
 50
270.0
 51
0.0
  0
ARC
  5
EFB8
330
2
100
AcDbEntity
  8
VLB
100
AcDbCircle
 10
11717.30832427497
 20
455.6777235962544
 30
0.0
 40
4.0
100
AcDbArc
 50
270.0
 51
0.0
  0
LINE
  5
EFB9
330
2
100
AcDbEntity
  8
VLB
100
AcDbLine
 10
11721.30832427497
 20
483.9619948648423
 30
0.0
 11
11721.30832427497
 21
497.8345860577437
 31
0.0
  0
LINE
  5
EFBA
330
2
100
AcDbEntity
  8
VLB
100
AcDbLine
 10
11721.30832427497
 20
455.6777235962554
 30
0.0
 11
11721.30832427497
 21
469.550314789155
 31
0.0
  0
LINE
  5
EFBB
330
2
100
AcDbEntity
  8
VLB
100
AcDbLine
 10
11721.30832427497
 20
512.2462661334338
 30
0.0
 11
11721.30832427497
 21
526.8259641080458
 31
0.0
  0
LINE
  5
EFBC
330
2
100
AcDbEntity
  8
VLB
100
AcDbLine
 10
11730.30832427497
 20
538.3558017100849
 30
0.0
 11
11730.30832427497
 21
562.4236374491584
 31
0.0
  0
LINE
  5
F048
330
2
100
AcDbEntity
  8
VLB
100
AcDbLine
 10
11292.30832427497
 20
562.4236374491574
 30
0.0
 11
11728.30832427497
 21
562.4236374491574
 31
0.0
  0
LINE
  5
F049
330
2
100
AcDbEntity
  8
VLB
100
AcDbLine
 10
11292.30832427497
 20
564.9236374491574
 30
0.0
 11
11728.30832427497
 21
564.9236374491574
 31
0.0
  0
LINE
  5
F04D
102
{ACAD_REACTORS
330
F3E9
102
}
330
2
100
AcDbEntity
  8
VLB
100
AcDbLine
 10
10627.24285888935
 20
564.9236374491583
 30
0.0
 11
10627.24285888935
 21
627.4236374491583
 31
0.0
  0
LINE
  5
F04E
102
{ACAD_REACTORS
330
F3E9
102
}
330
2
100
AcDbEntity
  8
VLB
100
AcDbLine
 10
10629.74285888935
 20
562.4236374491584
 30
0.0
 11
10629.74285888935
 21
627.4236374491583
 31
0.0
  0
LINE
  5
F04F
102
{ACAD_REACTORS
330
F3E9
102
}
330
2
100
AcDbEntity
  8
VLB
100
AcDbLine
 10
10629.74285888935
 20
627.4236374491583
 30
0.0
 11
10627.24285888935
 21
627.4236374491583
 31
0.0
  0
LINE
  5
F050
102
{ACAD_REACTORS
330
F3E9
102
}
330
2
100
AcDbEntity
  8
SPS
100
AcDbLine
 10
10634.74285888935
 20
619.4236374491583
 30
0.0
 11
10622.24285888935
 21
619.4236374491583
 31
0.0
  0
LINE
  5
F051
102
{ACAD_REACTORS
330
F3E9
102
}
330
2
100
AcDbEntity
  8
VLB
100
AcDbLine
 10
10627.24285888935
 20
564.9236374491583
 30
0.0
 11
10599.74285888935
 21
564.9236374491583
 31
0.0
  0
LINE
  5
F052
102
{ACAD_REACTORS
330
F3E9
102
}
330
2
100
AcDbEntity
  8
VLB
100
AcDbLine
 10
10629.74285888935
 20
562.4236374491584
 30
0.0
 11
10599.74285888935
 21
562.4236374491584
 31
0.0
  0
LINE
  5
F053
102
{ACAD_REACTORS
330
F3E9
102
}
330
2
100
AcDbEntity
  8
SPS
100
AcDbLine
 10
10634.74285888935
 20
607.4236374491583
 30
0.0
 11
10622.24285888935
 21
607.4236374491583
 31
0.0
  0
LINE
  5
F054
102
{ACAD_REACTORS
330
F3E9
102
}
330
2
100
AcDbEntity
  8
SPS
100
AcDbLine
 10
10614.74285888935
 20
569.9236374491583
 30
0.0
 11
10614.74285888935
 21
557.5920997332823
 31
0.0
  0
LINE
  5
F056
102
{ACAD_REACTORS
330
F3E9
102
}
330
2
100
AcDbEntity
  8
VLB
100
AcDbLine
 10
10599.74285888935
 20
562.4236374491584
 30
0.0
 11
10599.74285888935
 21
564.9236374491583
 31
0.0
  0
LINE
  5
F058
330
2
100
AcDbEntity
  8
VLB
100
AcDbLine
 10
11292.30832427497
 20
562.4236374491574
 30
0.0
 11
11292.30832427497
 21
621.4236374491575
 31
0.0
  0
LINE
  5
F05B
330
2
100
AcDbEntity
  8
SPS
100
AcDbLine
 10
11349.30832427497
 20
559.4236374491575
 30
0.0
 11
11349.30832427497
 21
567.9236374491575
 31
0.0
  0
LINE
  5
F05D
330
2
100
AcDbEntity
  8
SPS
100
AcDbLine
 10
11456.30832427497
 20
559.4236374491575
 30
0.0
 11
11456.30832427497
 21
567.9236374491573
 31
0.0
  0
LINE
  5
F063
330
2
100
AcDbEntity
  8
SPS
100
AcDbLine
 10
11564.30832427497
 20
559.4236374491575
 30
0.0
 11
11564.30832427497
 21
567.9236374491573
 31
0.0
  0
LINE
  5
F064
330
2
100
AcDbEntity
  8
VLB
100
AcDbLine
 10
11728.30832427497
 20
562.4236374491574
 30
0.0
 11
11728.30832427497
 21
621.4236374491573
 31
0.0
  0
LINE
  5
F065
330
2
100
AcDbEntity
  8
SPS
100
AcDbLine
 10
11671.30832427497
 20
559.4236374491575
 30
0.0
 11
11671.30832427497
 21
567.9236374491575
 31
0.0
  0
ARC
  5
F3D7
330
2
100
AcDbEntity
  8
VLB
100
AcDbCircle
 10
11298.30832427497
 20
621.4236374491575
 30
0.0
 40
6.0
100
AcDbArc
 50
119.9999999999999
 51
180.0
  0
ARC
  5
F3D8
330
2
100
AcDbEntity
  8
VLB
100
AcDbCircle
 10
11722.30832427497
 20
621.4236374491573
 30
0.0
 40
6.0
100
AcDbArc
 50
0.0
 51
59.99999999996015
  0
CIRCLE
  5
F3DB
330
2
100
AcDbEntity
  8
VLB
100
AcDbCircle
 10
11305.30832427497
 20
619.4236374491574
 30
0.0
 40
2.549999999999999
  0
ARC
  5
F3DD
330
2
100
AcDbEntity
  8
VLB
100
AcDbCircle
 10
11349.30832427497
 20
607.4236374491574
 30
0.0
 40
10.0
100
AcDbArc
 50
149.9999999999995
 51
30.00000000000045
  0
LINE
  5
F3DE
330
2
100
AcDbEntity
  8
SPS
100
AcDbLine
 10
11334.30832427497
 20
607.4236374491581
 30
0.0
 11
11364.30832427498
 21
607.4236374491581
 31
0.0
  0
LINE
  5
F3DF
330
2
100
AcDbEntity
  8
SPS
100
AcDbLine
 10
11349.30832427498
 20
622.4236374491582
 30
0.0
 11
11349.30832427498
 21
592.4236374491581
 31
0.0
  0
CIRCLE
  5
F3E3
330
2
100
AcDbEntity
  8
VLB
100
AcDbCircle
 10
11715.30832427497
 20
619.4236374491574
 30
0.0
 40
2.549999999999999
  0
LINE
  5
F3E6
330
2
100
AcDbEntity
  8
SPS
100
AcDbLine
 10
11686.30832427496
 20
607.4236374491581
 30
0.0
 11
11656.30832427496
 21
607.4236374491581
 31
0.0
  0
ARC
  5
F3E7
330
2
100
AcDbEntity
  8
VLB
100
AcDbCircle
 10
11671.30832427497
 20
607.4236374491574
 30
0.0
 40
10.0
100
AcDbArc
 50
149.9999999999995
 51
30.00000000000045
  0
LINE
  5
F3E8
330
2
100
AcDbEntity
  8
SPS
100
AcDbLine
 10
11671.30832427496
 20
622.4236374491582
 30
0.0
 11
11671.30832427496
 21
592.4236374491581
 31
0.0
  0
CIRCLE
  5
F673
102
{ACAD_REACTORS
330
104EE
102
}
330
2
100
AcDbEntity
  8
VLB
100
AcDbCircle
 10
11715.30832427497
 20
619.423637449159
 30
0.0
 40
3.399999999999999
  0
LINE
  5
F674
102
{ACAD_REACTORS
330
104EE
102
}
330
2
100
AcDbEntity
  8
SPS
100
AcDbLine
 10
11723.70832427497
 20
619.4236374491593
 30
0.0
 11
11706.90832427497
 21
619.4236374491593
 31
0.0
  0
LINE
  5
F675
102
{ACAD_REACTORS
330
104EE
102
}
330
2
100
AcDbEntity
  8
VLB
100
AcDbLine
 10
11730.30832427497
 20
628.9236374491574
 30
0.0
 11
11290.30832427497
 21
628.9236374491574
 31
0.0
  0
LINE
  5
F676
102
{ACAD_REACTORS
330
104EE
102
}
330
2
100
AcDbEntity
  8
VLB
100
AcDbLine
 10
11725.30832427497
 20
612.4236374491574
 30
0.0
 11
11295.30832427497
 21
612.4236374491574
 31
0.0
  0
LINE
  5
F678
102
{ACAD_REACTORS
330
104EE
102
}
330
2
100
AcDbEntity
  8
VLB
100
AcDbLine
 10
11290.30832427497
 20
569.4236374491665
 30
0.0
 11
11290.30832427497
 21
628.9236374491574
 31
0.0
  0
LINE
  5
F679
102
{ACAD_REACTORS
330
104EE
102
}
330
2
100
AcDbEntity
  8
VLB
100
AcDbLine
 10
11291.80832427497
 20
569.4236374491665
 30
0.0
 11
11291.80832427497
 21
627.4236374491574
 31
0.0
  0
LINE
  5
F67B
102
{ACAD_REACTORS
330
104EE
102
}
330
2
100
AcDbEntity
  8
VLB
100
AcDbLine
 10
11291.80832427497
 20
569.4236374491665
 30
0.0
 11
11290.30832427497
 21
569.4236374491665
 31
0.0
  0
LINE
  5
F67C
102
{ACAD_REACTORS
330
104EE
102
}
330
2
100
AcDbEntity
  8
SPS
100
AcDbLine
 10
11305.30832427497
 20
611.0236374491578
 30
0.0
 11
11305.30832427497
 21
627.8236374491589
 31
0.0
  0
LINE
  5
F67D
102
{ACAD_REACTORS
330
104EE
102
}
330
2
100
AcDbEntity
  8
VLB
100
AcDbLine
 10
11295.30832427497
 20
612.4236374491574
 30
0.0
 11
11295.30832427497
 21
628.9236374491574
 31
0.0
  0
CIRCLE
  5
F67E
102
{ACAD_REACTORS
330
104EE
102
}
330
2
100
AcDbEntity
  8
VLB
100
AcDbCircle
 10
11305.30832427497
 20
619.4236374491574
 30
0.0
 40
3.399999999999999
  0
LINE
  5
F67F
102
{ACAD_REACTORS
330
104EE
102
}
330
2
100
AcDbEntity
  8
SPS
100
AcDbLine
 10
11296.90832427497
 20
619.4236374491574
 30
0.0
 11
11313.70832427497
 21
619.4236374491574
 31
0.0
  0
LINE
  5
F680
102
{ACAD_REACTORS
330
104EE
102
}
330
2
100
AcDbEntity
  8
VLB
100
AcDbLine
 10
11295.30832427497
 20
627.4236374491574
 30
0.0
 11
11291.80832427497
 21
627.4236374491574
 31
0.0
  0
LINE
  5
F682
102
{ACAD_REACTORS
330
104EE
102
}
330
2
100
AcDbEntity
  8
SPS
100
AcDbLine
 10
11715.30832427497
 20
611.0236374491596
 30
0.0
 11
11715.30832427497
 21
627.8236374491589
 31
0.0
  0
LINE
  5
F683
102
{ACAD_REACTORS
330
104EE
102
}
330
2
100
AcDbEntity
  8
VLB
100
AcDbLine
 10
11728.80832427497
 20
569.4236374491665
 30
0.0
 11
11728.80832427497
 21
627.4236374491574
 31
0.0
  0
LINE
  5
F684
102
{ACAD_REACTORS
330
104EE
102
}
330
2
100
AcDbEntity
  8
VLB
100
AcDbLine
 10
11730.30832427497
 20
569.4236374491665
 30
0.0
 11
11730.30832427497
 21
628.9236374491574
 31
0.0
  0
LINE
  5
F685
102
{ACAD_REACTORS
330
104EE
102
}
330
2
100
AcDbEntity
  8
VLB
100
AcDbLine
 10
11728.80832427497
 20
569.4236374491665
 30
0.0
 11
11730.30832427497
 21
569.4236374491665
 31
0.0
  0
LINE
  5
F686
102
{ACAD_REACTORS
330
104EE
102
}
330
2
100
AcDbEntity
  8
VLB
100
AcDbLine
 10
11725.30832427497
 20
612.4236374491574
 30
0.0
 11
11725.30832427497
 21
628.9236374491574
 31
0.0
  0
LINE
  5
F687
102
{ACAD_REACTORS
330
104EE
102
}
330
2
100
AcDbEntity
  8
VLB
100
AcDbLine
 10
11728.80832427497
 20
627.4236374491574
 30
0.0
 11
11725.30832427497
 21
627.4236374491574
 31
0.0
  0
LINE
  5
F68A
102
{ACAD_REACTORS
330
104ED
102
}
330
2
100
AcDbEntity
  8
VLB
100
AcDbLine
 10
10887.577617554
 20
624.4236374491602
 30
0.0
 11
10895.577617554
 21
624.4236374491602
 31
0.0
  0
LINE
  5
F68B
102
{ACAD_REACTORS
330
104ED
102
}
330
2
100
AcDbEntity
  8
VLB
100
AcDbLine
 10
10895.577617554
 20
580.4236374491565
 30
0.0
 11
10887.577617554
 21
580.4236374491583
 31
0.0
  0
LINE
  5
F68C
102
{ACAD_REACTORS
330
104ED
102
}
330
2
100
AcDbEntity
  8
VLB
100
AcDbLine
 10
10895.577617554
 20
583.4236374491584
 30
0.0
 11
10887.577617554
 21
583.4236374491584
 31
0.0
  0
LINE
  5
F68D
102
{ACAD_REACTORS
330
104ED
102
}
330
2
100
AcDbEntity
  8
VLB
100
AcDbLine
 10
10895.577617554
 20
594.4236374491583
 30
0.0
 11
10887.577617554
 21
594.4236374491583
 31
0.0
  0
LINE
  5
F68E
102
{ACAD_REACTORS
330
104ED
102
}
330
2
100
AcDbEntity
  8
VLB
100
AcDbLine
 10
10895.577617554
 20
591.4236374491565
 30
0.0
 11
10887.577617554
 21
591.4236374491584
 31
0.0
  0
LINE
  5
F68F
102
{ACAD_REACTORS
330
104ED
102
}
330
2
100
AcDbEntity
  8
VLB
100
AcDbLine
 10
10887.577617554
 20
602.4236374491583
 30
0.0
 11
10895.577617554
 21
602.4236374491583
 31
0.0
  0
LINE
  5
F690
102
{ACAD_REACTORS
330
104ED
102
}
330
2
100
AcDbEntity
  8
VLB
100
AcDbLine
 10
10895.577617554
 20
572.4236374491583
 30
0.0
 11
10887.577617554
 21
572.4236374491583
 31
0.0
  0
LINE
  5
F691
102
{ACAD_REACTORS
330
104ED
102
}
330
2
100
AcDbEntity
  8
VLB
100
AcDbLine
 10
10895.577617554
 20
613.4236374491583
 30
0.0
 11
10887.577617554
 21
613.4236374491583
 31
0.0
  0
LINE
  5
F692
102
{ACAD_REACTORS
330
104ED
102
}
330
2
100
AcDbEntity
  8
VLB
100
AcDbLine
 10
10895.577617554
 20
605.4236374491583
 30
0.0
 11
10887.577617554
 21
605.4236374491601
 31
0.0
  0
LINE
  5
F693
102
{ACAD_REACTORS
330
104ED
102
}
330
2
100
AcDbEntity
  8
VLB
100
AcDbLine
 10
10895.577617554
 20
616.4236374491584
 30
0.0
 11
10887.577617554
 21
616.4236374491601
 31
0.0
  0
LINE
  5
F694
102
{ACAD_REACTORS
330
104ED
102
}
330
2
100
AcDbEntity
  8
VLB
100
AcDbLine
 10
10926.577617554
 20
569.423637449151
 30
0.0
 11
10800.077617554
 21
569.4236374491582
 31
0.0
  0
LINE
  5
F695
102
{ACAD_REACTORS
330
104ED
102
}
330
2
100
AcDbEntity
  8
VLB
100
AcDbLine
 10
10625.077617554
 20
628.9236374491584
 30
0.0
 11
10938.077617554
 21
628.9236374491584
 31
0.0
  0
LINE
  5
F696
102
{ACAD_REACTORS
330
104ED
102
}
330
2
100
AcDbEntity
  8
VLB
100
AcDbLine
 10
10876.577617554
 20
572.4236374491583
 30
0.0
 11
10876.577617554
 21
580.4236374491583
 31
0.0
  0
LINE
  5
F697
102
{ACAD_REACTORS
330
104ED
102
}
330
2
100
AcDbEntity
  8
VLB
100
AcDbLine
 10
10887.577617554
 20
572.4236374491583
 30
0.0
 11
10887.577617554
 21
580.4236374491583
 31
0.0
  0
LINE
  5
F698
102
{ACAD_REACTORS
330
104ED
102
}
330
2
100
AcDbEntity
  8
VLB
100
AcDbLine
 10
10884.577617554
 20
572.4236374491583
 30
0.0
 11
10884.577617554
 21
580.4236374491583
 31
0.0
  0
LINE
  5
F699
102
{ACAD_REACTORS
330
104ED
102
}
330
2
100
AcDbEntity
  8
VLB
100
AcDbLine
 10
10821.577617554
 20
572.4236374491583
 30
0.0
 11
10821.577617554
 21
580.4236374491583
 31
0.0
  0
LINE
  5
F69A
102
{ACAD_REACTORS
330
104ED
102
}
330
2
100
AcDbEntity
  8
VLB
100
AcDbLine
 10
10832.577617554
 20
572.4236374491583
 30
0.0
 11
10832.577617554
 21
580.4236374491583
 31
0.0
  0
LINE
  5
F69B
102
{ACAD_REACTORS
330
104ED
102
}
330
2
100
AcDbEntity
  8
VLB
100
AcDbLine
 10
10829.577617554
 20
572.4236374491583
 30
0.0
 11
10829.577617554
 21
580.4236374491583
 31
0.0
  0
LINE
  5
F69C
102
{ACAD_REACTORS
330
104ED
102
}
330
2
100
AcDbEntity
  8
VLB
100
AcDbLine
 10
10851.577617554
 20
572.4236374491583
 30
0.0
 11
10851.577617554
 21
580.4236374491583
 31
0.0
  0
LINE
  5
F69D
102
{ACAD_REACTORS
330
104ED
102
}
330
2
100
AcDbEntity
  8
VLB
100
AcDbLine
 10
10840.577617554
 20
572.4236374491583
 30
0.0
 11
10840.577617554
 21
580.4236374491583
 31
0.0
  0
LINE
  5
F69E
102
{ACAD_REACTORS
330
104ED
102
}
330
2
100
AcDbEntity
  8
VLB
100
AcDbLine
 10
10843.577617554
 20
572.4236374491583
 30
0.0
 11
10843.577617554
 21
580.4236374491583
 31
0.0
  0
LINE
  5
F69F
102
{ACAD_REACTORS
330
104ED
102
}
330
2
100
AcDbEntity
  8
VLB
100
AcDbLine
 10
10865.577617554
 20
572.4236374491583
 30
0.0
 11
10865.577617554
 21
580.4236374491583
 31
0.0
  0
LINE
  5
F6A0
102
{ACAD_REACTORS
330
104ED
102
}
330
2
100
AcDbEntity
  8
VLB
100
AcDbLine
 10
10862.577617554
 20
572.4236374491583
 30
0.0
 11
10862.577617554
 21
580.4236374491583
 31
0.0
  0
LINE
  5
F6A1
102
{ACAD_REACTORS
330
104ED
102
}
330
2
100
AcDbEntity
  8
VLB
100
AcDbLine
 10
10854.577617554
 20
572.4236374491583
 30
0.0
 11
10854.577617554
 21
580.4236374491583
 31
0.0
  0
LINE
  5
F6A2
102
{ACAD_REACTORS
330
104ED
102
}
330
2
100
AcDbEntity
  8
VLB
100
AcDbLine
 10
10873.577617554
 20
572.4236374491583
 30
0.0
 11
10873.577617554
 21
580.4236374491583
 31
0.0
  0
LINE
  5
F6A9
102
{ACAD_REACTORS
330
104ED
102
}
330
2
100
AcDbEntity
  8
VLB
100
AcDbLine
 10
10810.577617554
 20
572.4236374491583
 30
0.0
 11
10810.577617554
 21
580.4236374491583
 31
0.0
  0
LINE
  5
F6AA
102
{ACAD_REACTORS
330
104ED
102
}
330
2
100
AcDbEntity
  8
VLB
100
AcDbLine
 10
10807.577617554
 20
572.4236374491583
 30
0.0
 11
10807.577617554
 21
580.4236374491583
 31
0.0
  0
LINE
  5
F6AB
102
{ACAD_REACTORS
330
104ED
102
}
330
2
100
AcDbEntity
  8
VLB
100
AcDbLine
 10
10799.577617554
 20
572.4236374491583
 30
0.0
 11
10799.577617554
 21
580.4236374491583
 31
0.0
  0
LINE
  5
F6AC
102
{ACAD_REACTORS
330
104ED
102
}
330
2
100
AcDbEntity
  8
VLB
100
AcDbLine
 10
10818.577617554
 20
572.4236374491583
 30
0.0
 11
10818.577617554
 21
580.4236374491583
 31
0.0
  0
LINE
  5
F6AD
102
{ACAD_REACTORS
330
104ED
102
}
330
2
100
AcDbEntity
  8
VLB
100
AcDbLine
 10
10719.577617554
 20
572.4236374491583
 30
0.0
 11
10719.577617554
 21
580.4236374491583
 31
0.0
  0
LINE
  5
F6AE
102
{ACAD_REACTORS
330
104ED
102
}
330
2
100
AcDbEntity
  8
VLB
100
AcDbLine
 10
10722.577617554
 20
572.4236374491583
 30
0.0
 11
10722.577617554
 21
580.4236374491583
 31
0.0
  0
LINE
  5
F6AF
102
{ACAD_REACTORS
330
104ED
102
}
330
2
100
AcDbEntity
  8
VLB
100
AcDbLine
 10
10733.577617554
 20
572.4236374491583
 30
0.0
 11
10733.577617554
 21
580.4236374491583
 31
0.0
  0
LINE
  5
F6B0
102
{ACAD_REACTORS
330
104ED
102
}
330
2
100
AcDbEntity
  8
VLB
100
AcDbLine
 10
10730.577617554
 20
572.4236374491583
 30
0.0
 11
10730.577617554
 21
580.4236374491583
 31
0.0
  0
LINE
  5
F6B1
102
{ACAD_REACTORS
330
104ED
102
}
330
2
100
AcDbEntity
  8
VLB
100
AcDbLine
 10
10711.577617554
 20
572.4236374491583
 30
0.0
 11
10711.577617554
 21
580.4236374491583
 31
0.0
  0
LINE
  5
F6B2
102
{ACAD_REACTORS
330
104ED
102
}
330
2
100
AcDbEntity
  8
VLB
100
AcDbLine
 10
10763.577617554
 20
572.4236374491583
 30
0.0
 11
10763.577617554
 21
580.4236374491583
 31
0.0
  0
LINE
  5
F6B3
102
{ACAD_REACTORS
330
104ED
102
}
330
2
100
AcDbEntity
  8
VLB
100
AcDbLine
 10
10741.577617554
 20
572.4236374491583
 30
0.0
 11
10741.577617554
 21
580.4236374491583
 31
0.0
  0
LINE
  5
F6B4
102
{ACAD_REACTORS
330
104ED
102
}
330
2
100
AcDbEntity
  8
VLB
100
AcDbLine
 10
10744.577617554
 20
572.4236374491583
 30
0.0
 11
10744.577617554
 21
580.4236374491583
 31
0.0
  0
LINE
  5
F6B5
102
{ACAD_REACTORS
330
104ED
102
}
330
2
100
AcDbEntity
  8
VLB
100
AcDbLine
 10
10755.577617554
 20
572.4236374491583
 30
0.0
 11
10755.577617554
 21
580.4236374491583
 31
0.0
  0
LINE
  5
F6B6
102
{ACAD_REACTORS
330
104ED
102
}
330
2
100
AcDbEntity
  8
VLB
100
AcDbLine
 10
10752.577617554
 20
572.4236374491583
 30
0.0
 11
10752.577617554
 21
580.4236374491583
 31
0.0
  0
LINE
  5
F6B7
102
{ACAD_REACTORS
330
104ED
102
}
330
2
100
AcDbEntity
  8
VLB
100
AcDbLine
 10
10678.577617554
 20
572.4236374491583
 30
0.0
 11
10678.577617554
 21
580.4236374491583
 31
0.0
  0
LINE
  5
F6B8
102
{ACAD_REACTORS
330
104ED
102
}
330
2
100
AcDbEntity
  8
VLB
100
AcDbLine
 10
10675.577617554
 20
572.4236374491583
 30
0.0
 11
10675.577617554
 21
580.4236374491583
 31
0.0
  0
LINE
  5
F6B9
102
{ACAD_REACTORS
330
104ED
102
}
330
2
100
AcDbEntity
  8
VLB
100
AcDbLine
 10
10686.577617554
 20
572.4236374491583
 30
0.0
 11
10686.577617554
 21
580.4236374491583
 31
0.0
  0
LINE
  5
F6BA
102
{ACAD_REACTORS
330
104ED
102
}
330
2
100
AcDbEntity
  8
VLB
100
AcDbLine
 10
10664.577617554
 20
572.4236374491583
 30
0.0
 11
10664.577617554
 21
580.4236374491583
 31
0.0
  0
LINE
  5
F6BB
102
{ACAD_REACTORS
330
104ED
102
}
330
2
100
AcDbEntity
  8
VLB
100
AcDbLine
 10
10656.577617554
 20
572.4236374491583
 30
0.0
 11
10656.577617554
 21
580.4236374491583
 31
0.0
  0
LINE
  5
F6BC
102
{ACAD_REACTORS
330
104ED
102
}
330
2
100
AcDbEntity
  8
VLB
100
AcDbLine
 10
10667.577617554
 20
572.4236374491583
 30
0.0
 11
10667.577617554
 21
580.4236374491583
 31
0.0
  0
LINE
  5
F6BD
102
{ACAD_REACTORS
330
104ED
102
}
330
2
100
AcDbEntity
  8
VLB
100
AcDbLine
 10
10708.577617554
 20
572.4236374491583
 30
0.0
 11
10708.577617554
 21
580.4236374491583
 31
0.0
  0
LINE
  5
F6BE
102
{ACAD_REACTORS
330
104ED
102
}
330
2
100
AcDbEntity
  8
VLB
100
AcDbLine
 10
10700.577617554
 20
572.4236374491583
 30
0.0
 11
10700.577617554
 21
580.4236374491583
 31
0.0
  0
LINE
  5
F6BF
102
{ACAD_REACTORS
330
104ED
102
}
330
2
100
AcDbEntity
  8
VLB
100
AcDbLine
 10
10689.577617554
 20
572.4236374491583
 30
0.0
 11
10689.577617554
 21
580.4236374491583
 31
0.0
  0
LINE
  5
F6C0
102
{ACAD_REACTORS
330
104ED
102
}
330
2
100
AcDbEntity
  8
VLB
100
AcDbLine
 10
10697.577617554
 20
572.4236374491583
 30
0.0
 11
10697.577617554
 21
580.4236374491583
 31
0.0
  0
ARC
  5
F6C2
102
{ACAD_REACTORS
330
104ED
102
}
330
2
100
AcDbEntity
  8
VLB
100
AcDbCircle
 10
10636.577617554
 20
575.4236374491511
 30
0.0
 40
6.0
100
AcDbArc
 50
180.0
 51
270.0
  0
LINE
  5
F6C3
102
{ACAD_REACTORS
330
104ED
102
}
330
2
100
AcDbEntity
  8
VLB
100
AcDbLine
 10
10642.577617554
 20
572.4236374491583
 30
0.0
 11
10642.577617554
 21
580.4236374491583
 31
0.0
  0
LINE
  5
F6C4
102
{ACAD_REACTORS
330
104ED
102
}
330
2
100
AcDbEntity
  8
VLB
100
AcDbLine
 10
10634.577617554
 20
572.4236374491583
 30
0.0
 11
10634.577617554
 21
580.4236374491583
 31
0.0
  0
LINE
  5
F6C5
102
{ACAD_REACTORS
330
104ED
102
}
330
2
100
AcDbEntity
  8
VLB
100
AcDbLine
 10
10653.577617554
 20
572.4236374491583
 30
0.0
 11
10653.577617554
 21
580.4236374491583
 31
0.0
  0
LINE
  5
F6C6
102
{ACAD_REACTORS
330
104ED
102
}
330
2
100
AcDbEntity
  8
VLB
100
AcDbLine
 10
10645.577617554
 20
572.4236374491583
 30
0.0
 11
10645.577617554
 21
580.4236374491583
 31
0.0
  0
LINE
  5
F6C7
102
{ACAD_REACTORS
330
104ED
102
}
330
2
100
AcDbEntity
  8
VLB
100
AcDbLine
 10
10686.577617554
 20
624.4236374491602
 30
0.0
 11
10678.577617554
 21
624.4236374491602
 31
0.0
  0
LINE
  5
F6C8
102
{ACAD_REACTORS
330
104ED
102
}
330
2
100
AcDbEntity
  8
VLB
100
AcDbLine
 10
10678.577617554
 20
580.4236374491565
 30
0.0
 11
10686.577617554
 21
580.4236374491583
 31
0.0
  0
LINE
  5
F6C9
102
{ACAD_REACTORS
330
104ED
102
}
330
2
100
AcDbEntity
  8
VLB
100
AcDbLine
 10
10678.577617554
 20
594.4236374491583
 30
0.0
 11
10686.577617554
 21
594.4236374491602
 31
0.0
  0
LINE
  5
F6CA
102
{ACAD_REACTORS
330
104ED
102
}
330
2
100
AcDbEntity
  8
VLB
100
AcDbLine
 10
10678.577617554
 20
591.4236374491565
 30
0.0
 11
10686.577617554
 21
591.4236374491584
 31
0.0
  0
LINE
  5
F6CB
102
{ACAD_REACTORS
330
104ED
102
}
330
2
100
AcDbEntity
  8
VLB
100
AcDbLine
 10
10686.577617554
 20
602.4236374491583
 30
0.0
 11
10678.577617554
 21
602.4236374491583
 31
0.0
  0
LINE
  5
F6CC
102
{ACAD_REACTORS
330
104ED
102
}
330
2
100
AcDbEntity
  8
VLB
100
AcDbLine
 10
10678.577617554
 20
583.4236374491584
 30
0.0
 11
10686.577617554
 21
583.4236374491601
 31
0.0
  0
LINE
  5
F6CD
102
{ACAD_REACTORS
330
104ED
102
}
330
2
100
AcDbEntity
  8
VLB
100
AcDbLine
 10
10678.577617554
 20
613.4236374491583
 30
0.0
 11
10686.577617554
 21
613.4236374491601
 31
0.0
  0
LINE
  5
F6CE
102
{ACAD_REACTORS
330
104ED
102
}
330
2
100
AcDbEntity
  8
VLB
100
AcDbLine
 10
10678.577617554
 20
605.4236374491601
 30
0.0
 11
10686.577617554
 21
605.4236374491601
 31
0.0
  0
LINE
  5
F6CF
102
{ACAD_REACTORS
330
104ED
102
}
330
2
100
AcDbEntity
  8
VLB
100
AcDbLine
 10
10678.577617554
 20
616.4236374491601
 30
0.0
 11
10686.577617554
 21
616.4236374491601
 31
0.0
  0
LINE
  5
F6D0
102
{ACAD_REACTORS
330
104ED
102
}
330
2
100
AcDbEntity
  8
VLB
100
AcDbLine
 10
10653.577617554
 20
624.4236374491602
 30
0.0
 11
10645.577617554
 21
624.4236374491602
 31
0.0
  0
LINE
  5
F6D1
102
{ACAD_REACTORS
330
104ED
102
}
330
2
100
AcDbEntity
  8
VLB
100
AcDbLine
 10
10645.577617554
 20
580.4236374491565
 30
0.0
 11
10653.577617554
 21
580.4236374491583
 31
0.0
  0
LINE
  5
F6D2
102
{ACAD_REACTORS
330
104ED
102
}
330
2
100
AcDbEntity
  8
VLB
100
AcDbLine
 10
10653.577617554
 20
602.4236374491583
 30
0.0
 11
10645.577617554
 21
602.4236374491583
 31
0.0
  0
LINE
  5
F6D3
102
{ACAD_REACTORS
330
104ED
102
}
330
2
100
AcDbEntity
  8
VLB
100
AcDbLine
 10
10645.577617554
 20
591.4236374491565
 30
0.0
 11
10653.577617554
 21
591.4236374491584
 31
0.0
  0
LINE
  5
F6D4
102
{ACAD_REACTORS
330
104ED
102
}
330
2
100
AcDbEntity
  8
VLB
100
AcDbLine
 10
10645.577617554
 20
594.4236374491583
 30
0.0
 11
10653.577617554
 21
594.4236374491602
 31
0.0
  0
LINE
  5
F6D5
102
{ACAD_REACTORS
330
104ED
102
}
330
2
100
AcDbEntity
  8
VLB
100
AcDbLine
 10
10645.577617554
 20
583.4236374491584
 30
0.0
 11
10653.577617554
 21
583.4236374491601
 31
0.0
  0
LINE
  5
F6D6
102
{ACAD_REACTORS
330
104ED
102
}
330
2
100
AcDbEntity
  8
VLB
100
AcDbLine
 10
10645.577617554
 20
605.4236374491601
 30
0.0
 11
10653.577617554
 21
605.4236374491601
 31
0.0
  0
LINE
  5
F6D7
102
{ACAD_REACTORS
330
104ED
102
}
330
2
100
AcDbEntity
  8
VLB
100
AcDbLine
 10
10645.577617554
 20
616.4236374491601
 30
0.0
 11
10653.577617554
 21
616.4236374491601
 31
0.0
  0
LINE
  5
F6D8
102
{ACAD_REACTORS
330
104ED
102
}
330
2
100
AcDbEntity
  8
VLB
100
AcDbLine
 10
10645.577617554
 20
613.4236374491583
 30
0.0
 11
10653.577617554
 21
613.4236374491601
 31
0.0
  0
LINE
  5
F6D9
102
{ACAD_REACTORS
330
104ED
102
}
330
2
100
AcDbEntity
  8
VLB
100
AcDbLine
 10
10645.577617554
 20
605.4236374491601
 30
0.0
 11
10645.577617554
 21
613.4236374491601
 31
0.0
  0
LINE
  5
F6DA
102
{ACAD_REACTORS
330
104ED
102
}
330
2
100
AcDbEntity
  8
VLB
100
AcDbLine
 10
10634.577617554
 20
605.4236374491601
 30
0.0
 11
10634.577617554
 21
613.4236374491601
 31
0.0
  0
LINE
  5
F6DB
102
{ACAD_REACTORS
330
104ED
102
}
330
2
100
AcDbEntity
  8
VLB
100
AcDbLine
 10
10642.577617554
 20
605.4236374491601
 30
0.0
 11
10642.577617554
 21
613.4236374491601
 31
0.0
  0
LINE
  5
F6DC
102
{ACAD_REACTORS
330
104ED
102
}
330
2
100
AcDbEntity
  8
VLB
100
AcDbLine
 10
10630.577617554
 20
575.4236374491511
 30
0.0
 11
10630.577617554
 21
628.9236374491584
 31
0.0
  0
LINE
  5
F6DD
102
{ACAD_REACTORS
330
104ED
102
}
330
2
100
AcDbEntity
  8
VLB
100
AcDbLine
 10
10642.577617554
 20
624.4236374491602
 30
0.0
 11
10634.577617554
 21
624.4236374491602
 31
0.0
  0
LINE
  5
F6DE
102
{ACAD_REACTORS
330
104ED
102
}
330
2
100
AcDbEntity
  8
VLB
100
AcDbLine
 10
10634.577617554
 20
613.4236374491583
 30
0.0
 11
10642.577617554
 21
613.4236374491601
 31
0.0
  0
LINE
  5
F6DF
102
{ACAD_REACTORS
330
104ED
102
}
330
2
100
AcDbEntity
  8
VLB
100
AcDbLine
 10
10634.577617554
 20
616.4236374491601
 30
0.0
 11
10642.577617554
 21
616.4236374491601
 31
0.0
  0
LINE
  5
F6E0
102
{ACAD_REACTORS
330
104ED
102
}
330
2
100
AcDbEntity
  8
VLB
100
AcDbLine
 10
10626.577617554
 20
612.4236374491584
 30
0.0
 11
10626.577617554
 21
627.4236374491583
 31
0.0
  0
LINE
  5
F6E1
102
{ACAD_REACTORS
330
104ED
102
}
330
2
100
AcDbEntity
  8
VLB
100
AcDbLine
 10
10625.077617554
 20
628.9236374491584
 30
0.0
 11
10625.077617554
 21
612.4236374491584
 31
0.0
  0
LINE
  5
F6E2
102
{ACAD_REACTORS
330
104ED
102
}
330
2
100
AcDbEntity
  8
VLB
100
AcDbLine
 10
10626.577617554
 20
627.4236374491583
 30
0.0
 11
10630.577617554
 21
627.4236374491583
 31
0.0
  0
LINE
  5
F6E3
102
{ACAD_REACTORS
330
104ED
102
}
330
2
100
AcDbEntity
  8
SPS
100
AcDbLine
 10
10620.077617554
 20
619.4236374491583
 30
0.0
 11
10631.577617554
 21
619.4236374491583
 31
0.0
  0
LINE
  5
F6E4
102
{ACAD_REACTORS
330
104ED
102
}
330
2
100
AcDbEntity
  8
VLB
100
AcDbLine
 10
10625.077617554
 20
612.4236374491584
 30
0.0
 11
10626.577617554
 21
612.4236374491584
 31
0.0
  0
LINE
  5
F6E5
102
{ACAD_REACTORS
330
104ED
102
}
330
2
100
AcDbEntity
  8
VLB
100
AcDbLine
 10
10634.577617554
 20
616.4236374491601
 30
0.0
 11
10634.577617554
 21
624.4236374491602
 31
0.0
  0
LINE
  5
F6E6
102
{ACAD_REACTORS
330
104ED
102
}
330
2
100
AcDbEntity
  8
VLB
100
AcDbLine
 10
10645.577617554
 20
616.4236374491601
 30
0.0
 11
10645.577617554
 21
624.4236374491602
 31
0.0
  0
LINE
  5
F6E7
102
{ACAD_REACTORS
330
104ED
102
}
330
2
100
AcDbEntity
  8
VLB
100
AcDbLine
 10
10642.577617554
 20
616.4236374491601
 30
0.0
 11
10642.577617554
 21
624.4236374491602
 31
0.0
  0
LINE
  5
F6E8
102
{ACAD_REACTORS
330
104ED
102
}
330
2
100
AcDbEntity
  8
VLB
100
AcDbLine
 10
10634.577617554
 20
580.4236374491565
 30
0.0
 11
10642.577617554
 21
580.4236374491583
 31
0.0
  0
LINE
  5
F6E9
102
{ACAD_REACTORS
330
104ED
102
}
330
2
100
AcDbEntity
  8
VLB
100
AcDbLine
 10
10634.577617554
 20
594.4236374491583
 30
0.0
 11
10642.577617554
 21
594.4236374491602
 31
0.0
  0
LINE
  5
F6EA
102
{ACAD_REACTORS
330
104ED
102
}
330
2
100
AcDbEntity
  8
VLB
100
AcDbLine
 10
10634.577617554
 20
591.4236374491565
 30
0.0
 11
10642.577617554
 21
591.4236374491584
 31
0.0
  0
LINE
  5
F6EB
102
{ACAD_REACTORS
330
104ED
102
}
330
2
100
AcDbEntity
  8
VLB
100
AcDbLine
 10
10642.577617554
 20
602.4236374491583
 30
0.0
 11
10634.577617554
 21
602.4236374491583
 31
0.0
  0
LINE
  5
F6EC
102
{ACAD_REACTORS
330
104ED
102
}
330
2
100
AcDbEntity
  8
VLB
100
AcDbLine
 10
10634.577617554
 20
583.4236374491584
 30
0.0
 11
10642.577617554
 21
583.4236374491601
 31
0.0
  0
LINE
  5
F6ED
102
{ACAD_REACTORS
330
104ED
102
}
330
2
100
AcDbEntity
  8
VLB
100
AcDbLine
 10
10634.577617554
 20
605.4236374491601
 30
0.0
 11
10642.577617554
 21
605.4236374491601
 31
0.0
  0
LINE
  5
F6EE
102
{ACAD_REACTORS
330
104ED
102
}
330
2
100
AcDbEntity
  8
VLB
100
AcDbLine
 10
10634.577617554
 20
594.4236374491583
 30
0.0
 11
10634.577617554
 21
602.4236374491583
 31
0.0
  0
LINE
  5
F6EF
102
{ACAD_REACTORS
330
104ED
102
}
330
2
100
AcDbEntity
  8
VLB
100
AcDbLine
 10
10634.577617554
 20
583.4236374491584
 30
0.0
 11
10634.577617554
 21
591.4236374491584
 31
0.0
  0
LINE
  5
F6F0
102
{ACAD_REACTORS
330
104ED
102
}
330
2
100
AcDbEntity
  8
VLB
100
AcDbLine
 10
10642.577617554
 20
594.4236374491583
 30
0.0
 11
10642.577617554
 21
602.4236374491583
 31
0.0
  0
LINE
  5
F6F1
102
{ACAD_REACTORS
330
104ED
102
}
330
2
100
AcDbEntity
  8
VLB
100
AcDbLine
 10
10645.577617554
 20
594.4236374491583
 30
0.0
 11
10645.577617554
 21
602.4236374491583
 31
0.0
  0
LINE
  5
F6F2
102
{ACAD_REACTORS
330
104ED
102
}
330
2
100
AcDbEntity
  8
VLB
100
AcDbLine
 10
10642.577617554
 20
583.4236374491584
 30
0.0
 11
10642.577617554
 21
591.4236374491584
 31
0.0
  0
LINE
  5
F6F3
102
{ACAD_REACTORS
330
104ED
102
}
330
2
100
AcDbEntity
  8
VLB
100
AcDbLine
 10
10645.577617554
 20
583.4236374491584
 30
0.0
 11
10645.577617554
 21
591.4236374491584
 31
0.0
  0
LINE
  5
F6F4
102
{ACAD_REACTORS
330
104ED
102
}
330
2
100
AcDbEntity
  8
VLB
100
AcDbLine
 10
10667.577617554
 20
605.4236374491601
 30
0.0
 11
10667.577617554
 21
613.4236374491601
 31
0.0
  0
LINE
  5
F6F5
102
{ACAD_REACTORS
330
104ED
102
}
330
2
100
AcDbEntity
  8
VLB
100
AcDbLine
 10
10656.577617554
 20
605.4236374491601
 30
0.0
 11
10656.577617554
 21
613.4236374491601
 31
0.0
  0
LINE
  5
F6F6
102
{ACAD_REACTORS
330
104ED
102
}
330
2
100
AcDbEntity
  8
VLB
100
AcDbLine
 10
10664.577617554
 20
605.4236374491601
 30
0.0
 11
10664.577617554
 21
613.4236374491601
 31
0.0
  0
LINE
  5
F6F7
102
{ACAD_REACTORS
330
104ED
102
}
330
2
100
AcDbEntity
  8
VLB
100
AcDbLine
 10
10675.577617554
 20
605.4236374491601
 30
0.0
 11
10675.577617554
 21
613.4236374491601
 31
0.0
  0
LINE
  5
F6F8
102
{ACAD_REACTORS
330
104ED
102
}
330
2
100
AcDbEntity
  8
VLB
100
AcDbLine
 10
10678.577617554
 20
605.4236374491601
 30
0.0
 11
10678.577617554
 21
613.4236374491601
 31
0.0
  0
LINE
  5
F6F9
102
{ACAD_REACTORS
330
104ED
102
}
330
2
100
AcDbEntity
  8
VLB
100
AcDbLine
 10
10653.577617554
 20
605.4236374491601
 30
0.0
 11
10653.577617554
 21
613.4236374491601
 31
0.0
  0
LINE
  5
F6FA
102
{ACAD_REACTORS
330
104ED
102
}
330
2
100
AcDbEntity
  8
VLB
100
AcDbLine
 10
10675.577617554
 20
624.4236374491602
 30
0.0
 11
10667.577617554
 21
624.4236374491602
 31
0.0
  0
LINE
  5
F6FB
102
{ACAD_REACTORS
330
104ED
102
}
330
2
100
AcDbEntity
  8
VLB
100
AcDbLine
 10
10667.577617554
 20
613.4236374491583
 30
0.0
 11
10675.577617554
 21
613.4236374491601
 31
0.0
  0
LINE
  5
F6FC
102
{ACAD_REACTORS
330
104ED
102
}
330
2
100
AcDbEntity
  8
VLB
100
AcDbLine
 10
10667.577617554
 20
616.4236374491601
 30
0.0
 11
10675.577617554
 21
616.4236374491601
 31
0.0
  0
LINE
  5
F6FD
102
{ACAD_REACTORS
330
104ED
102
}
330
2
100
AcDbEntity
  8
VLB
100
AcDbLine
 10
10664.577617554
 20
624.4236374491602
 30
0.0
 11
10656.577617554
 21
624.4236374491602
 31
0.0
  0
LINE
  5
F6FE
102
{ACAD_REACTORS
330
104ED
102
}
330
2
100
AcDbEntity
  8
VLB
100
AcDbLine
 10
10656.577617554
 20
613.4236374491583
 30
0.0
 11
10664.577617554
 21
613.4236374491601
 31
0.0
  0
LINE
  5
F6FF
102
{ACAD_REACTORS
330
104ED
102
}
330
2
100
AcDbEntity
  8
VLB
100
AcDbLine
 10
10656.577617554
 20
616.4236374491601
 30
0.0
 11
10664.577617554
 21
616.4236374491601
 31
0.0
  0
LINE
  5
F700
102
{ACAD_REACTORS
330
104ED
102
}
330
2
100
AcDbEntity
  8
VLB
100
AcDbLine
 10
10667.577617554
 20
616.4236374491601
 30
0.0
 11
10667.577617554
 21
624.4236374491602
 31
0.0
  0
LINE
  5
F701
102
{ACAD_REACTORS
330
104ED
102
}
330
2
100
AcDbEntity
  8
VLB
100
AcDbLine
 10
10656.577617554
 20
616.4236374491601
 30
0.0
 11
10656.577617554
 21
624.4236374491602
 31
0.0
  0
LINE
  5
F702
102
{ACAD_REACTORS
330
104ED
102
}
330
2
100
AcDbEntity
  8
VLB
100
AcDbLine
 10
10664.577617554
 20
616.4236374491601
 30
0.0
 11
10664.577617554
 21
624.4236374491602
 31
0.0
  0
LINE
  5
F703
102
{ACAD_REACTORS
330
104ED
102
}
330
2
100
AcDbEntity
  8
VLB
100
AcDbLine
 10
10653.577617554
 20
616.4236374491601
 30
0.0
 11
10653.577617554
 21
624.4236374491602
 31
0.0
  0
LINE
  5
F704
102
{ACAD_REACTORS
330
104ED
102
}
330
2
100
AcDbEntity
  8
VLB
100
AcDbLine
 10
10675.577617554
 20
616.4236374491601
 30
0.0
 11
10675.577617554
 21
624.4236374491602
 31
0.0
  0
LINE
  5
F705
102
{ACAD_REACTORS
330
104ED
102
}
330
2
100
AcDbEntity
  8
VLB
100
AcDbLine
 10
10678.577617554
 20
616.4236374491601
 30
0.0
 11
10678.577617554
 21
624.4236374491602
 31
0.0
  0
LINE
  5
F706
102
{ACAD_REACTORS
330
104ED
102
}
330
2
100
AcDbEntity
  8
VLB
100
AcDbLine
 10
10667.577617554
 20
580.4236374491565
 30
0.0
 11
10675.577617554
 21
580.4236374491583
 31
0.0
  0
LINE
  5
F707
102
{ACAD_REACTORS
330
104ED
102
}
330
2
100
AcDbEntity
  8
VLB
100
AcDbLine
 10
10675.577617554
 20
602.4236374491602
 30
0.0
 11
10667.577617554
 21
602.4236374491602
 31
0.0
  0
LINE
  5
F708
102
{ACAD_REACTORS
330
104ED
102
}
330
2
100
AcDbEntity
  8
VLB
100
AcDbLine
 10
10667.577617554
 20
591.4236374491565
 30
0.0
 11
10675.577617554
 21
591.4236374491584
 31
0.0
  0
LINE
  5
F709
102
{ACAD_REACTORS
330
104ED
102
}
330
2
100
AcDbEntity
  8
VLB
100
AcDbLine
 10
10667.577617554
 20
594.4236374491583
 30
0.0
 11
10675.577617554
 21
594.4236374491602
 31
0.0
  0
LINE
  5
F70A
102
{ACAD_REACTORS
330
104ED
102
}
330
2
100
AcDbEntity
  8
VLB
100
AcDbLine
 10
10667.577617554
 20
583.4236374491584
 30
0.0
 11
10675.577617554
 21
583.4236374491601
 31
0.0
  0
LINE
  5
F70B
102
{ACAD_REACTORS
330
104ED
102
}
330
2
100
AcDbEntity
  8
VLB
100
AcDbLine
 10
10667.577617554
 20
605.4236374491601
 30
0.0
 11
10675.577617554
 21
605.4236374491601
 31
0.0
  0
LINE
  5
F70C
102
{ACAD_REACTORS
330
104ED
102
}
330
2
100
AcDbEntity
  8
VLB
100
AcDbLine
 10
10664.577617554
 20
602.4236374491602
 30
0.0
 11
10656.577617554
 21
602.4236374491583
 31
0.0
  0
LINE
  5
F70D
102
{ACAD_REACTORS
330
104ED
102
}
330
2
100
AcDbEntity
  8
VLB
100
AcDbLine
 10
10656.577617554
 20
594.4236374491583
 30
0.0
 11
10664.577617554
 21
594.4236374491602
 31
0.0
  0
LINE
  5
F70E
102
{ACAD_REACTORS
330
104ED
102
}
330
2
100
AcDbEntity
  8
VLB
100
AcDbLine
 10
10664.577617554
 20
594.4236374491583
 30
0.0
 11
10664.577617554
 21
602.4236374491602
 31
0.0
  0
LINE
  5
F70F
102
{ACAD_REACTORS
330
104ED
102
}
330
2
100
AcDbEntity
  8
VLB
100
AcDbLine
 10
10656.577617554
 20
594.4236374491583
 30
0.0
 11
10656.577617554
 21
602.4236374491583
 31
0.0
  0
LINE
  5
F710
102
{ACAD_REACTORS
330
104ED
102
}
330
2
100
AcDbEntity
  8
VLB
100
AcDbLine
 10
10667.577617554
 20
594.4236374491583
 30
0.0
 11
10667.577617554
 21
602.4236374491602
 31
0.0
  0
LINE
  5
F711
102
{ACAD_REACTORS
330
104ED
102
}
330
2
100
AcDbEntity
  8
VLB
100
AcDbLine
 10
10656.577617554
 20
605.4236374491601
 30
0.0
 11
10664.577617554
 21
605.4236374491601
 31
0.0
  0
LINE
  5
F712
102
{ACAD_REACTORS
330
104ED
102
}
330
2
100
AcDbEntity
  8
VLB
100
AcDbLine
 10
10653.577617554
 20
594.4236374491583
 30
0.0
 11
10653.577617554
 21
602.4236374491583
 31
0.0
  0
LINE
  5
F713
102
{ACAD_REACTORS
330
104ED
102
}
330
2
100
AcDbEntity
  8
VLB
100
AcDbLine
 10
10656.577617554
 20
580.4236374491565
 30
0.0
 11
10664.577617554
 21
580.4236374491583
 31
0.0
  0
LINE
  5
F714
102
{ACAD_REACTORS
330
104ED
102
}
330
2
100
AcDbEntity
  8
VLB
100
AcDbLine
 10
10656.577617554
 20
591.4236374491565
 30
0.0
 11
10664.577617554
 21
591.4236374491584
 31
0.0
  0
LINE
  5
F715
102
{ACAD_REACTORS
330
104ED
102
}
330
2
100
AcDbEntity
  8
VLB
100
AcDbLine
 10
10656.577617554
 20
583.4236374491584
 30
0.0
 11
10664.577617554
 21
583.4236374491601
 31
0.0
  0
LINE
  5
F716
102
{ACAD_REACTORS
330
104ED
102
}
330
2
100
AcDbEntity
  8
VLB
100
AcDbLine
 10
10664.577617554
 20
583.4236374491584
 30
0.0
 11
10664.577617554
 21
591.4236374491584
 31
0.0
  0
LINE
  5
F717
102
{ACAD_REACTORS
330
104ED
102
}
330
2
100
AcDbEntity
  8
VLB
100
AcDbLine
 10
10656.577617554
 20
583.4236374491584
 30
0.0
 11
10656.577617554
 21
591.4236374491584
 31
0.0
  0
LINE
  5
F718
102
{ACAD_REACTORS
330
104ED
102
}
330
2
100
AcDbEntity
  8
VLB
100
AcDbLine
 10
10667.577617554
 20
583.4236374491584
 30
0.0
 11
10667.577617554
 21
591.4236374491584
 31
0.0
  0
LINE
  5
F719
102
{ACAD_REACTORS
330
104ED
102
}
330
2
100
AcDbEntity
  8
VLB
100
AcDbLine
 10
10653.577617554
 20
583.4236374491584
 30
0.0
 11
10653.577617554
 21
591.4236374491584
 31
0.0
  0
LINE
  5
F71A
102
{ACAD_REACTORS
330
104ED
102
}
330
2
100
AcDbEntity
  8
VLB
100
AcDbLine
 10
10678.577617554
 20
594.4236374491583
 30
0.0
 11
10678.577617554
 21
602.4236374491583
 31
0.0
  0
LINE
  5
F71B
102
{ACAD_REACTORS
330
104ED
102
}
330
2
100
AcDbEntity
  8
VLB
100
AcDbLine
 10
10675.577617554
 20
594.4236374491583
 30
0.0
 11
10675.577617554
 21
602.4236374491602
 31
0.0
  0
LINE
  5
F71C
102
{ACAD_REACTORS
330
104ED
102
}
330
2
100
AcDbEntity
  8
VLB
100
AcDbLine
 10
10678.577617554
 20
583.4236374491584
 30
0.0
 11
10678.577617554
 21
591.4236374491584
 31
0.0
  0
LINE
  5
F71D
102
{ACAD_REACTORS
330
104ED
102
}
330
2
100
AcDbEntity
  8
VLB
100
AcDbLine
 10
10675.577617554
 20
583.4236374491584
 30
0.0
 11
10675.577617554
 21
591.4236374491584
 31
0.0
  0
LINE
  5
F71E
102
{ACAD_REACTORS
330
104ED
102
}
330
2
100
AcDbEntity
  8
VLB
100
AcDbLine
 10
10711.577617554
 20
605.4236374491601
 30
0.0
 11
10711.577617554
 21
613.4236374491601
 31
0.0
  0
LINE
  5
F71F
102
{ACAD_REACTORS
330
104ED
102
}
330
2
100
AcDbEntity
  8
VLB
100
AcDbLine
 10
10719.577617554
 20
605.4236374491601
 30
0.0
 11
10719.577617554
 21
613.4236374491601
 31
0.0
  0
LINE
  5
F720
102
{ACAD_REACTORS
330
104ED
102
}
330
2
100
AcDbEntity
  8
VLB
100
AcDbLine
 10
10689.577617554
 20
605.4236374491601
 30
0.0
 11
10689.577617554
 21
613.4236374491601
 31
0.0
  0
LINE
  5
F721
102
{ACAD_REACTORS
330
104ED
102
}
330
2
100
AcDbEntity
  8
VLB
100
AcDbLine
 10
10686.577617554
 20
605.4236374491601
 30
0.0
 11
10686.577617554
 21
613.4236374491601
 31
0.0
  0
LINE
  5
F722
102
{ACAD_REACTORS
330
104ED
102
}
330
2
100
AcDbEntity
  8
VLB
100
AcDbLine
 10
10697.577617554
 20
605.4236374491601
 30
0.0
 11
10697.577617554
 21
613.4236374491601
 31
0.0
  0
LINE
  5
F723
102
{ACAD_REACTORS
330
104ED
102
}
330
2
100
AcDbEntity
  8
VLB
100
AcDbLine
 10
10700.577617554
 20
605.4236374491601
 30
0.0
 11
10700.577617554
 21
613.4236374491601
 31
0.0
  0
LINE
  5
F724
102
{ACAD_REACTORS
330
104ED
102
}
330
2
100
AcDbEntity
  8
VLB
100
AcDbLine
 10
10708.577617554
 20
605.4236374491601
 30
0.0
 11
10708.577617554
 21
613.4236374491601
 31
0.0
  0
LINE
  5
F725
102
{ACAD_REACTORS
330
104ED
102
}
330
2
100
AcDbEntity
  8
VLB
100
AcDbLine
 10
10708.577617554
 20
624.4236374491602
 30
0.0
 11
10700.577617554
 21
624.4236374491602
 31
0.0
  0
LINE
  5
F726
102
{ACAD_REACTORS
330
104ED
102
}
330
2
100
AcDbEntity
  8
VLB
100
AcDbLine
 10
10700.577617554
 20
613.4236374491583
 30
0.0
 11
10708.577617554
 21
613.4236374491601
 31
0.0
  0
LINE
  5
F727
102
{ACAD_REACTORS
330
104ED
102
}
330
2
100
AcDbEntity
  8
VLB
100
AcDbLine
 10
10700.577617554
 20
616.4236374491601
 30
0.0
 11
10708.577617554
 21
616.4236374491601
 31
0.0
  0
LINE
  5
F728
102
{ACAD_REACTORS
330
104ED
102
}
330
2
100
AcDbEntity
  8
VLB
100
AcDbLine
 10
10697.577617554
 20
624.4236374491602
 30
0.0
 11
10689.577617554
 21
624.4236374491602
 31
0.0
  0
LINE
  5
F729
102
{ACAD_REACTORS
330
104ED
102
}
330
2
100
AcDbEntity
  8
VLB
100
AcDbLine
 10
10689.577617554
 20
613.4236374491583
 30
0.0
 11
10697.577617554
 21
613.4236374491601
 31
0.0
  0
LINE
  5
F72A
102
{ACAD_REACTORS
330
104ED
102
}
330
2
100
AcDbEntity
  8
VLB
100
AcDbLine
 10
10689.577617554
 20
616.4236374491601
 30
0.0
 11
10697.577617554
 21
616.4236374491601
 31
0.0
  0
LINE
  5
F72B
102
{ACAD_REACTORS
330
104ED
102
}
330
2
100
AcDbEntity
  8
VLB
100
AcDbLine
 10
10689.577617554
 20
616.4236374491601
 30
0.0
 11
10689.577617554
 21
624.4236374491602
 31
0.0
  0
LINE
  5
F72C
102
{ACAD_REACTORS
330
104ED
102
}
330
2
100
AcDbEntity
  8
VLB
100
AcDbLine
 10
10686.577617554
 20
616.4236374491601
 30
0.0
 11
10686.577617554
 21
624.4236374491602
 31
0.0
  0
LINE
  5
F72D
102
{ACAD_REACTORS
330
104ED
102
}
330
2
100
AcDbEntity
  8
VLB
100
AcDbLine
 10
10700.577617554
 20
616.4236374491601
 30
0.0
 11
10700.577617554
 21
624.4236374491602
 31
0.0
  0
LINE
  5
F72E
102
{ACAD_REACTORS
330
104ED
102
}
330
2
100
AcDbEntity
  8
VLB
100
AcDbLine
 10
10697.577617554
 20
616.4236374491601
 30
0.0
 11
10697.577617554
 21
624.4236374491602
 31
0.0
  0
LINE
  5
F72F
102
{ACAD_REACTORS
330
104ED
102
}
330
2
100
AcDbEntity
  8
VLB
100
AcDbLine
 10
10719.577617554
 20
624.4236374491602
 30
0.0
 11
10711.577617554
 21
624.4236374491602
 31
0.0
  0
LINE
  5
F730
102
{ACAD_REACTORS
330
104ED
102
}
330
2
100
AcDbEntity
  8
VLB
100
AcDbLine
 10
10711.577617554
 20
613.4236374491583
 30
0.0
 11
10719.577617554
 21
613.4236374491601
 31
0.0
  0
LINE
  5
F731
102
{ACAD_REACTORS
330
104ED
102
}
330
2
100
AcDbEntity
  8
VLB
100
AcDbLine
 10
10711.577617554
 20
616.4236374491601
 30
0.0
 11
10719.577617554
 21
616.4236374491601
 31
0.0
  0
LINE
  5
F732
102
{ACAD_REACTORS
330
104ED
102
}
330
2
100
AcDbEntity
  8
VLB
100
AcDbLine
 10
10708.577617554
 20
616.4236374491601
 30
0.0
 11
10708.577617554
 21
624.4236374491602
 31
0.0
  0
LINE
  5
F733
102
{ACAD_REACTORS
330
104ED
102
}
330
2
100
AcDbEntity
  8
VLB
100
AcDbLine
 10
10711.577617554
 20
616.4236374491601
 30
0.0
 11
10711.577617554
 21
624.4236374491602
 31
0.0
  0
LINE
  5
F734
102
{ACAD_REACTORS
330
104ED
102
}
330
2
100
AcDbEntity
  8
VLB
100
AcDbLine
 10
10719.577617554
 20
616.4236374491601
 30
0.0
 11
10719.577617554
 21
624.4236374491602
 31
0.0
  0
LINE
  5
F735
102
{ACAD_REACTORS
330
104ED
102
}
330
2
100
AcDbEntity
  8
VLB
100
AcDbLine
 10
10700.577617554
 20
580.4236374491565
 30
0.0
 11
10708.577617554
 21
580.4236374491583
 31
0.0
  0
LINE
  5
F736
102
{ACAD_REACTORS
330
104ED
102
}
330
2
100
AcDbEntity
  8
VLB
100
AcDbLine
 10
10700.577617554
 20
594.4236374491583
 30
0.0
 11
10708.577617554
 21
594.4236374491602
 31
0.0
  0
LINE
  5
F737
102
{ACAD_REACTORS
330
104ED
102
}
330
2
100
AcDbEntity
  8
VLB
100
AcDbLine
 10
10700.577617554
 20
591.4236374491565
 30
0.0
 11
10708.577617554
 21
591.4236374491584
 31
0.0
  0
LINE
  5
F738
102
{ACAD_REACTORS
330
104ED
102
}
330
2
100
AcDbEntity
  8
VLB
100
AcDbLine
 10
10708.577617554
 20
602.4236374491602
 30
0.0
 11
10700.577617554
 21
602.4236374491602
 31
0.0
  0
LINE
  5
F739
102
{ACAD_REACTORS
330
104ED
102
}
330
2
100
AcDbEntity
  8
VLB
100
AcDbLine
 10
10700.577617554
 20
583.4236374491584
 30
0.0
 11
10708.577617554
 21
583.4236374491601
 31
0.0
  0
LINE
  5
F73A
102
{ACAD_REACTORS
330
104ED
102
}
330
2
100
AcDbEntity
  8
VLB
100
AcDbLine
 10
10700.577617554
 20
605.4236374491601
 30
0.0
 11
10708.577617554
 21
605.4236374491601
 31
0.0
  0
LINE
  5
F73B
102
{ACAD_REACTORS
330
104ED
102
}
330
2
100
AcDbEntity
  8
VLB
100
AcDbLine
 10
10686.577617554
 20
594.4236374491583
 30
0.0
 11
10686.577617554
 21
602.4236374491583
 31
0.0
  0
LINE
  5
F73C
102
{ACAD_REACTORS
330
104ED
102
}
330
2
100
AcDbEntity
  8
VLB
100
AcDbLine
 10
10697.577617554
 20
594.4236374491583
 30
0.0
 11
10697.577617554
 21
602.4236374491602
 31
0.0
  0
LINE
  5
F73D
102
{ACAD_REACTORS
330
104ED
102
}
330
2
100
AcDbEntity
  8
VLB
100
AcDbLine
 10
10700.577617554
 20
594.4236374491583
 30
0.0
 11
10700.577617554
 21
602.4236374491602
 31
0.0
  0
LINE
  5
F73E
102
{ACAD_REACTORS
330
104ED
102
}
330
2
100
AcDbEntity
  8
VLB
100
AcDbLine
 10
10689.577617554
 20
594.4236374491583
 30
0.0
 11
10689.577617554
 21
602.4236374491583
 31
0.0
  0
LINE
  5
F73F
102
{ACAD_REACTORS
330
104ED
102
}
330
2
100
AcDbEntity
  8
VLB
100
AcDbLine
 10
10689.577617554
 20
594.4236374491583
 30
0.0
 11
10697.577617554
 21
594.4236374491602
 31
0.0
  0
LINE
  5
F740
102
{ACAD_REACTORS
330
104ED
102
}
330
2
100
AcDbEntity
  8
VLB
100
AcDbLine
 10
10697.577617554
 20
602.4236374491602
 30
0.0
 11
10689.577617554
 21
602.4236374491583
 31
0.0
  0
LINE
  5
F741
102
{ACAD_REACTORS
330
104ED
102
}
330
2
100
AcDbEntity
  8
VLB
100
AcDbLine
 10
10689.577617554
 20
605.4236374491601
 30
0.0
 11
10697.577617554
 21
605.4236374491601
 31
0.0
  0
LINE
  5
F742
102
{ACAD_REACTORS
330
104ED
102
}
330
2
100
AcDbEntity
  8
VLB
100
AcDbLine
 10
10686.577617554
 20
583.4236374491584
 30
0.0
 11
10686.577617554
 21
591.4236374491584
 31
0.0
  0
LINE
  5
F743
102
{ACAD_REACTORS
330
104ED
102
}
330
2
100
AcDbEntity
  8
VLB
100
AcDbLine
 10
10700.577617554
 20
583.4236374491584
 30
0.0
 11
10700.577617554
 21
591.4236374491584
 31
0.0
  0
LINE
  5
F744
102
{ACAD_REACTORS
330
104ED
102
}
330
2
100
AcDbEntity
  8
VLB
100
AcDbLine
 10
10697.577617554
 20
583.4236374491584
 30
0.0
 11
10697.577617554
 21
591.4236374491584
 31
0.0
  0
LINE
  5
F745
102
{ACAD_REACTORS
330
104ED
102
}
330
2
100
AcDbEntity
  8
VLB
100
AcDbLine
 10
10689.577617554
 20
583.4236374491584
 30
0.0
 11
10689.577617554
 21
591.4236374491584
 31
0.0
  0
LINE
  5
F746
102
{ACAD_REACTORS
330
104ED
102
}
330
2
100
AcDbEntity
  8
VLB
100
AcDbLine
 10
10689.577617554
 20
580.4236374491565
 30
0.0
 11
10697.577617554
 21
580.4236374491583
 31
0.0
  0
LINE
  5
F747
102
{ACAD_REACTORS
330
104ED
102
}
330
2
100
AcDbEntity
  8
VLB
100
AcDbLine
 10
10689.577617554
 20
591.4236374491565
 30
0.0
 11
10697.577617554
 21
591.4236374491584
 31
0.0
  0
LINE
  5
F748
102
{ACAD_REACTORS
330
104ED
102
}
330
2
100
AcDbEntity
  8
VLB
100
AcDbLine
 10
10689.577617554
 20
583.4236374491584
 30
0.0
 11
10697.577617554
 21
583.4236374491601
 31
0.0
  0
LINE
  5
F749
102
{ACAD_REACTORS
330
104ED
102
}
330
2
100
AcDbEntity
  8
VLB
100
AcDbLine
 10
10711.577617554
 20
594.4236374491583
 30
0.0
 11
10719.577617554
 21
594.4236374491602
 31
0.0
  0
LINE
  5
F74A
102
{ACAD_REACTORS
330
104ED
102
}
330
2
100
AcDbEntity
  8
VLB
100
AcDbLine
 10
10719.577617554
 20
602.4236374491583
 30
0.0
 11
10711.577617554
 21
602.4236374491583
 31
0.0
  0
LINE
  5
F74B
102
{ACAD_REACTORS
330
104ED
102
}
330
2
100
AcDbEntity
  8
VLB
100
AcDbLine
 10
10719.577617554
 20
594.4236374491583
 30
0.0
 11
10719.577617554
 21
602.4236374491583
 31
0.0
  0
LINE
  5
F74C
102
{ACAD_REACTORS
330
104ED
102
}
330
2
100
AcDbEntity
  8
VLB
100
AcDbLine
 10
10711.577617554
 20
594.4236374491583
 30
0.0
 11
10711.577617554
 21
602.4236374491583
 31
0.0
  0
LINE
  5
F74D
102
{ACAD_REACTORS
330
104ED
102
}
330
2
100
AcDbEntity
  8
VLB
100
AcDbLine
 10
10711.577617554
 20
605.4236374491601
 30
0.0
 11
10719.577617554
 21
605.4236374491601
 31
0.0
  0
LINE
  5
F74E
102
{ACAD_REACTORS
330
104ED
102
}
330
2
100
AcDbEntity
  8
VLB
100
AcDbLine
 10
10708.577617554
 20
594.4236374491583
 30
0.0
 11
10708.577617554
 21
602.4236374491602
 31
0.0
  0
LINE
  5
F74F
102
{ACAD_REACTORS
330
104ED
102
}
330
2
100
AcDbEntity
  8
VLB
100
AcDbLine
 10
10711.577617554
 20
580.4236374491565
 30
0.0
 11
10719.577617554
 21
580.4236374491583
 31
0.0
  0
LINE
  5
F750
102
{ACAD_REACTORS
330
104ED
102
}
330
2
100
AcDbEntity
  8
VLB
100
AcDbLine
 10
10711.577617554
 20
591.4236374491565
 30
0.0
 11
10719.577617554
 21
591.4236374491584
 31
0.0
  0
LINE
  5
F751
102
{ACAD_REACTORS
330
104ED
102
}
330
2
100
AcDbEntity
  8
VLB
100
AcDbLine
 10
10711.577617554
 20
583.4236374491584
 30
0.0
 11
10719.577617554
 21
583.4236374491601
 31
0.0
  0
LINE
  5
F752
102
{ACAD_REACTORS
330
104ED
102
}
330
2
100
AcDbEntity
  8
VLB
100
AcDbLine
 10
10719.577617554
 20
583.4236374491584
 30
0.0
 11
10719.577617554
 21
591.4236374491584
 31
0.0
  0
LINE
  5
F753
102
{ACAD_REACTORS
330
104ED
102
}
330
2
100
AcDbEntity
  8
VLB
100
AcDbLine
 10
10711.577617554
 20
583.4236374491584
 30
0.0
 11
10711.577617554
 21
591.4236374491584
 31
0.0
  0
LINE
  5
F754
102
{ACAD_REACTORS
330
104ED
102
}
330
2
100
AcDbEntity
  8
VLB
100
AcDbLine
 10
10708.577617554
 20
583.4236374491584
 30
0.0
 11
10708.577617554
 21
591.4236374491584
 31
0.0
  0
LINE
  5
F755
102
{ACAD_REACTORS
330
104ED
102
}
330
2
100
AcDbEntity
  8
VLB
100
AcDbLine
 10
10730.577617554
 20
605.4236374491601
 30
0.0
 11
10730.577617554
 21
613.4236374491601
 31
0.0
  0
LINE
  5
F756
102
{ACAD_REACTORS
330
104ED
102
}
330
2
100
AcDbEntity
  8
VLB
100
AcDbLine
 10
10722.577617554
 20
605.4236374491601
 30
0.0
 11
10722.577617554
 21
613.4236374491601
 31
0.0
  0
LINE
  5
F757
102
{ACAD_REACTORS
330
104ED
102
}
330
2
100
AcDbEntity
  8
VLB
100
AcDbLine
 10
10752.577617554
 20
605.4236374491601
 30
0.0
 11
10752.577617554
 21
613.4236374491601
 31
0.0
  0
LINE
  5
F758
102
{ACAD_REACTORS
330
104ED
102
}
330
2
100
AcDbEntity
  8
VLB
100
AcDbLine
 10
10744.577617554
 20
605.4236374491601
 30
0.0
 11
10744.577617554
 21
613.4236374491601
 31
0.0
  0
LINE
  5
F759
102
{ACAD_REACTORS
330
104ED
102
}
330
2
100
AcDbEntity
  8
VLB
100
AcDbLine
 10
10741.577617554
 20
605.4236374491601
 30
0.0
 11
10741.577617554
 21
613.4236374491601
 31
0.0
  0
LINE
  5
F75A
102
{ACAD_REACTORS
330
104ED
102
}
330
2
100
AcDbEntity
  8
VLB
100
AcDbLine
 10
10733.577617554
 20
605.4236374491601
 30
0.0
 11
10733.577617554
 21
613.4236374491601
 31
0.0
  0
LINE
  5
F75B
102
{ACAD_REACTORS
330
104ED
102
}
330
2
100
AcDbEntity
  8
VLB
100
AcDbLine
 10
10741.577617554
 20
624.4236374491602
 30
0.0
 11
10733.577617554
 21
624.4236374491602
 31
0.0
  0
LINE
  5
F75C
102
{ACAD_REACTORS
330
104ED
102
}
330
2
100
AcDbEntity
  8
VLB
100
AcDbLine
 10
10733.577617554
 20
613.4236374491583
 30
0.0
 11
10741.577617554
 21
613.4236374491601
 31
0.0
  0
LINE
  5
F75D
102
{ACAD_REACTORS
330
104ED
102
}
330
2
100
AcDbEntity
  8
VLB
100
AcDbLine
 10
10733.577617554
 20
616.4236374491601
 30
0.0
 11
10741.577617554
 21
616.4236374491601
 31
0.0
  0
LINE
  5
F75E
102
{ACAD_REACTORS
330
104ED
102
}
330
2
100
AcDbEntity
  8
VLB
100
AcDbLine
 10
10730.577617554
 20
624.4236374491602
 30
0.0
 11
10722.577617554
 21
624.4236374491602
 31
0.0
  0
LINE
  5
F75F
102
{ACAD_REACTORS
330
104ED
102
}
330
2
100
AcDbEntity
  8
VLB
100
AcDbLine
 10
10722.577617554
 20
613.4236374491583
 30
0.0
 11
10730.577617554
 21
613.4236374491601
 31
0.0
  0
LINE
  5
F760
102
{ACAD_REACTORS
330
104ED
102
}
330
2
100
AcDbEntity
  8
VLB
100
AcDbLine
 10
10722.577617554
 20
616.4236374491601
 30
0.0
 11
10730.577617554
 21
616.4236374491601
 31
0.0
  0
LINE
  5
F761
102
{ACAD_REACTORS
330
104ED
102
}
330
2
100
AcDbEntity
  8
VLB
100
AcDbLine
 10
10730.577617554
 20
616.4236374491601
 30
0.0
 11
10730.577617554
 21
624.4236374491602
 31
0.0
  0
LINE
  5
F762
102
{ACAD_REACTORS
330
104ED
102
}
330
2
100
AcDbEntity
  8
VLB
100
AcDbLine
 10
10722.577617554
 20
616.4236374491601
 30
0.0
 11
10722.577617554
 21
624.4236374491602
 31
0.0
  0
LINE
  5
F763
102
{ACAD_REACTORS
330
104ED
102
}
330
2
100
AcDbEntity
  8
VLB
100
AcDbLine
 10
10733.577617554
 20
616.4236374491601
 30
0.0
 11
10733.577617554
 21
624.4236374491602
 31
0.0
  0
LINE
  5
F764
102
{ACAD_REACTORS
330
104ED
102
}
330
2
100
AcDbEntity
  8
VLB
100
AcDbLine
 10
10752.577617554
 20
624.4236374491602
 30
0.0
 11
10744.577617554
 21
624.4236374491602
 31
0.0
  0
LINE
  5
F765
102
{ACAD_REACTORS
330
104ED
102
}
330
2
100
AcDbEntity
  8
VLB
100
AcDbLine
 10
10744.577617554
 20
613.4236374491583
 30
0.0
 11
10752.577617554
 21
613.4236374491601
 31
0.0
  0
LINE
  5
F766
102
{ACAD_REACTORS
330
104ED
102
}
330
2
100
AcDbEntity
  8
VLB
100
AcDbLine
 10
10744.577617554
 20
616.4236374491601
 30
0.0
 11
10752.577617554
 21
616.4236374491601
 31
0.0
  0
LINE
  5
F767
102
{ACAD_REACTORS
330
104ED
102
}
330
2
100
AcDbEntity
  8
VLB
100
AcDbLine
 10
10744.577617554
 20
616.4236374491601
 30
0.0
 11
10744.577617554
 21
624.4236374491602
 31
0.0
  0
LINE
  5
F768
102
{ACAD_REACTORS
330
104ED
102
}
330
2
100
AcDbEntity
  8
VLB
100
AcDbLine
 10
10752.577617554
 20
616.4236374491601
 30
0.0
 11
10752.577617554
 21
624.4236374491602
 31
0.0
  0
LINE
  5
F769
102
{ACAD_REACTORS
330
104ED
102
}
330
2
100
AcDbEntity
  8
VLB
100
AcDbLine
 10
10741.577617554
 20
616.4236374491601
 30
0.0
 11
10741.577617554
 21
624.4236374491602
 31
0.0
  0
LINE
  5
F76A
102
{ACAD_REACTORS
330
104ED
102
}
330
2
100
AcDbEntity
  8
VLB
100
AcDbLine
 10
10733.577617554
 20
580.4236374491565
 30
0.0
 11
10741.577617554
 21
580.4236374491583
 31
0.0
  0
LINE
  5
F76B
102
{ACAD_REACTORS
330
104ED
102
}
330
2
100
AcDbEntity
  8
VLB
100
AcDbLine
 10
10733.577617554
 20
594.4236374491583
 30
0.0
 11
10741.577617554
 21
594.4236374491602
 31
0.0
  0
LINE
  5
F76C
102
{ACAD_REACTORS
330
104ED
102
}
330
2
100
AcDbEntity
  8
VLB
100
AcDbLine
 10
10733.577617554
 20
591.4236374491565
 30
0.0
 11
10741.577617554
 21
591.4236374491584
 31
0.0
  0
LINE
  5
F76D
102
{ACAD_REACTORS
330
104ED
102
}
330
2
100
AcDbEntity
  8
VLB
100
AcDbLine
 10
10741.577617554
 20
602.4236374491602
 30
0.0
 11
10733.577617554
 21
602.4236374491602
 31
0.0
  0
LINE
  5
F76E
102
{ACAD_REACTORS
330
104ED
102
}
330
2
100
AcDbEntity
  8
VLB
100
AcDbLine
 10
10733.577617554
 20
583.4236374491584
 30
0.0
 11
10741.577617554
 21
583.4236374491601
 31
0.0
  0
LINE
  5
F76F
102
{ACAD_REACTORS
330
104ED
102
}
330
2
100
AcDbEntity
  8
VLB
100
AcDbLine
 10
10733.577617554
 20
605.4236374491601
 30
0.0
 11
10741.577617554
 21
605.4236374491601
 31
0.0
  0
LINE
  5
F770
102
{ACAD_REACTORS
330
104ED
102
}
330
2
100
AcDbEntity
  8
VLB
100
AcDbLine
 10
10722.577617554
 20
594.4236374491583
 30
0.0
 11
10722.577617554
 21
602.4236374491583
 31
0.0
  0
LINE
  5
F771
102
{ACAD_REACTORS
330
104ED
102
}
330
2
100
AcDbEntity
  8
VLB
100
AcDbLine
 10
10733.577617554
 20
594.4236374491583
 30
0.0
 11
10733.577617554
 21
602.4236374491602
 31
0.0
  0
LINE
  5
F772
102
{ACAD_REACTORS
330
104ED
102
}
330
2
100
AcDbEntity
  8
VLB
100
AcDbLine
 10
10730.577617554
 20
594.4236374491583
 30
0.0
 11
10730.577617554
 21
602.4236374491602
 31
0.0
  0
LINE
  5
F773
102
{ACAD_REACTORS
330
104ED
102
}
330
2
100
AcDbEntity
  8
VLB
100
AcDbLine
 10
10722.577617554
 20
594.4236374491583
 30
0.0
 11
10730.577617554
 21
594.4236374491602
 31
0.0
  0
LINE
  5
F774
102
{ACAD_REACTORS
330
104ED
102
}
330
2
100
AcDbEntity
  8
VLB
100
AcDbLine
 10
10730.577617554
 20
602.4236374491602
 30
0.0
 11
10722.577617554
 21
602.4236374491583
 31
0.0
  0
LINE
  5
F775
102
{ACAD_REACTORS
330
104ED
102
}
330
2
100
AcDbEntity
  8
VLB
100
AcDbLine
 10
10722.577617554
 20
605.4236374491601
 30
0.0
 11
10730.577617554
 21
605.4236374491601
 31
0.0
  0
LINE
  5
F776
102
{ACAD_REACTORS
330
104ED
102
}
330
2
100
AcDbEntity
  8
VLB
100
AcDbLine
 10
10722.577617554
 20
580.4236374491565
 30
0.0
 11
10730.577617554
 21
580.4236374491583
 31
0.0
  0
LINE
  5
F777
102
{ACAD_REACTORS
330
104ED
102
}
330
2
100
AcDbEntity
  8
VLB
100
AcDbLine
 10
10722.577617554
 20
583.4236374491584
 30
0.0
 11
10722.577617554
 21
591.4236374491584
 31
0.0
  0
LINE
  5
F778
102
{ACAD_REACTORS
330
104ED
102
}
330
2
100
AcDbEntity
  8
VLB
100
AcDbLine
 10
10733.577617554
 20
583.4236374491584
 30
0.0
 11
10733.577617554
 21
591.4236374491584
 31
0.0
  0
LINE
  5
F779
102
{ACAD_REACTORS
330
104ED
102
}
330
2
100
AcDbEntity
  8
VLB
100
AcDbLine
 10
10730.577617554
 20
583.4236374491584
 30
0.0
 11
10730.577617554
 21
591.4236374491584
 31
0.0
  0
LINE
  5
F77A
102
{ACAD_REACTORS
330
104ED
102
}
330
2
100
AcDbEntity
  8
VLB
100
AcDbLine
 10
10722.577617554
 20
583.4236374491584
 30
0.0
 11
10730.577617554
 21
583.4236374491601
 31
0.0
  0
LINE
  5
F77B
102
{ACAD_REACTORS
330
104ED
102
}
330
2
100
AcDbEntity
  8
VLB
100
AcDbLine
 10
10722.577617554
 20
591.4236374491565
 30
0.0
 11
10730.577617554
 21
591.4236374491584
 31
0.0
  0
LINE
  5
F77C
102
{ACAD_REACTORS
330
104ED
102
}
330
2
100
AcDbEntity
  8
VLB
100
AcDbLine
 10
10741.577617554
 20
594.4236374491583
 30
0.0
 11
10741.577617554
 21
602.4236374491602
 31
0.0
  0
LINE
  5
F77D
102
{ACAD_REACTORS
330
104ED
102
}
330
2
100
AcDbEntity
  8
VLB
100
AcDbLine
 10
10752.577617554
 20
602.4236374491583
 30
0.0
 11
10744.577617554
 21
602.4236374491583
 31
0.0
  0
LINE
  5
F77E
102
{ACAD_REACTORS
330
104ED
102
}
330
2
100
AcDbEntity
  8
VLB
100
AcDbLine
 10
10744.577617554
 20
594.4236374491583
 30
0.0
 11
10752.577617554
 21
594.4236374491602
 31
0.0
  0
LINE
  5
F77F
102
{ACAD_REACTORS
330
104ED
102
}
330
2
100
AcDbEntity
  8
VLB
100
AcDbLine
 10
10752.577617554
 20
594.4236374491583
 30
0.0
 11
10752.577617554
 21
602.4236374491583
 31
0.0
  0
LINE
  5
F780
102
{ACAD_REACTORS
330
104ED
102
}
330
2
100
AcDbEntity
  8
VLB
100
AcDbLine
 10
10744.577617554
 20
594.4236374491583
 30
0.0
 11
10744.577617554
 21
602.4236374491583
 31
0.0
  0
LINE
  5
F781
102
{ACAD_REACTORS
330
104ED
102
}
330
2
100
AcDbEntity
  8
VLB
100
AcDbLine
 10
10744.577617554
 20
605.4236374491601
 30
0.0
 11
10752.577617554
 21
605.4236374491601
 31
0.0
  0
LINE
  5
F782
102
{ACAD_REACTORS
330
104ED
102
}
330
2
100
AcDbEntity
  8
VLB
100
AcDbLine
 10
10744.577617554
 20
580.4236374491565
 30
0.0
 11
10752.577617554
 21
580.4236374491583
 31
0.0
  0
LINE
  5
F783
102
{ACAD_REACTORS
330
104ED
102
}
330
2
100
AcDbEntity
  8
VLB
100
AcDbLine
 10
10744.577617554
 20
591.4236374491565
 30
0.0
 11
10752.577617554
 21
591.4236374491584
 31
0.0
  0
LINE
  5
F784
102
{ACAD_REACTORS
330
104ED
102
}
330
2
100
AcDbEntity
  8
VLB
100
AcDbLine
 10
10744.577617554
 20
583.4236374491584
 30
0.0
 11
10752.577617554
 21
583.4236374491601
 31
0.0
  0
LINE
  5
F785
102
{ACAD_REACTORS
330
104ED
102
}
330
2
100
AcDbEntity
  8
VLB
100
AcDbLine
 10
10741.577617554
 20
583.4236374491584
 30
0.0
 11
10741.577617554
 21
591.4236374491584
 31
0.0
  0
LINE
  5
F786
102
{ACAD_REACTORS
330
104ED
102
}
330
2
100
AcDbEntity
  8
VLB
100
AcDbLine
 10
10744.577617554
 20
583.4236374491584
 30
0.0
 11
10744.577617554
 21
591.4236374491584
 31
0.0
  0
LINE
  5
F787
102
{ACAD_REACTORS
330
104ED
102
}
330
2
100
AcDbEntity
  8
VLB
100
AcDbLine
 10
10752.577617554
 20
583.4236374491584
 30
0.0
 11
10752.577617554
 21
591.4236374491584
 31
0.0
  0
LINE
  5
F788
102
{ACAD_REACTORS
330
104ED
102
}
330
2
100
AcDbEntity
  8
VLB
100
AcDbLine
 10
10821.577617554
 20
624.4236374491602
 30
0.0
 11
10829.577617554
 21
624.4236374491602
 31
0.0
  0
LINE
  5
F789
102
{ACAD_REACTORS
330
104ED
102
}
330
2
100
AcDbEntity
  8
VLB
100
AcDbLine
 10
10829.577617554
 20
583.4236374491584
 30
0.0
 11
10821.577617554
 21
583.4236374491601
 31
0.0
  0
LINE
  5
F78A
102
{ACAD_REACTORS
330
104ED
102
}
330
2
100
AcDbEntity
  8
VLB
100
AcDbLine
 10
10829.577617554
 20
580.4236374491565
 30
0.0
 11
10821.577617554
 21
580.4236374491583
 31
0.0
  0
LINE
  5
F78B
102
{ACAD_REACTORS
330
104ED
102
}
330
2
100
AcDbEntity
  8
VLB
100
AcDbLine
 10
10821.577617554
 20
602.4236374491602
 30
0.0
 11
10829.577617554
 21
602.4236374491602
 31
0.0
  0
LINE
  5
F78C
102
{ACAD_REACTORS
330
104ED
102
}
330
2
100
AcDbEntity
  8
VLB
100
AcDbLine
 10
10829.577617554
 20
591.4236374491565
 30
0.0
 11
10821.577617554
 21
591.4236374491584
 31
0.0
  0
LINE
  5
F78D
102
{ACAD_REACTORS
330
104ED
102
}
330
2
100
AcDbEntity
  8
VLB
100
AcDbLine
 10
10829.577617554
 20
594.4236374491583
 30
0.0
 11
10821.577617554
 21
594.4236374491602
 31
0.0
  0
LINE
  5
F78E
102
{ACAD_REACTORS
330
104ED
102
}
330
2
100
AcDbEntity
  8
VLB
100
AcDbLine
 10
10829.577617554
 20
613.4236374491583
 30
0.0
 11
10821.577617554
 21
613.4236374491601
 31
0.0
  0
LINE
  5
F78F
102
{ACAD_REACTORS
330
104ED
102
}
330
2
100
AcDbEntity
  8
VLB
100
AcDbLine
 10
10829.577617554
 20
605.4236374491601
 30
0.0
 11
10821.577617554
 21
605.4236374491601
 31
0.0
  0
LINE
  5
F790
102
{ACAD_REACTORS
330
104ED
102
}
330
2
100
AcDbEntity
  8
VLB
100
AcDbLine
 10
10829.577617554
 20
616.4236374491601
 30
0.0
 11
10821.577617554
 21
616.4236374491601
 31
0.0
  0
LINE
  5
F795
102
{ACAD_REACTORS
330
104ED
102
}
330
2
100
AcDbEntity
  8
VLB
100
AcDbLine
 10
10755.577617554
 20
605.4236374491601
 30
0.0
 11
10755.577617554
 21
613.4236374491601
 31
0.0
  0
LINE
  5
F796
102
{ACAD_REACTORS
330
104ED
102
}
330
2
100
AcDbEntity
  8
VLB
100
AcDbLine
 10
10763.577617554
 20
605.4236374491601
 30
0.0
 11
10763.577617554
 21
613.4236374491601
 31
0.0
  0
LINE
  5
F79A
102
{ACAD_REACTORS
330
104ED
102
}
330
2
100
AcDbEntity
  8
VLB
100
AcDbLine
 10
10763.577617554
 20
624.4236374491602
 30
0.0
 11
10755.577617554
 21
624.4236374491602
 31
0.0
  0
LINE
  5
F79B
102
{ACAD_REACTORS
330
104ED
102
}
330
2
100
AcDbEntity
  8
VLB
100
AcDbLine
 10
10755.577617554
 20
613.4236374491583
 30
0.0
 11
10763.577617554
 21
613.4236374491601
 31
0.0
  0
LINE
  5
F79C
102
{ACAD_REACTORS
330
104ED
102
}
330
2
100
AcDbEntity
  8
VLB
100
AcDbLine
 10
10755.577617554
 20
616.4236374491601
 30
0.0
 11
10763.577617554
 21
616.4236374491601
 31
0.0
  0
LINE
  5
F79D
102
{ACAD_REACTORS
330
104ED
102
}
330
2
100
AcDbEntity
  8
VLB
100
AcDbLine
 10
10755.577617554
 20
616.4236374491601
 30
0.0
 11
10755.577617554
 21
624.4236374491602
 31
0.0
  0
LINE
  5
F79E
102
{ACAD_REACTORS
330
104ED
102
}
330
2
100
AcDbEntity
  8
VLB
100
AcDbLine
 10
10763.577617554
 20
616.4236374491601
 30
0.0
 11
10763.577617554
 21
624.4236374491602
 31
0.0
  0
LINE
  5
F7AD
102
{ACAD_REACTORS
330
104ED
102
}
330
2
100
AcDbEntity
  8
VLB
100
AcDbLine
 10
10763.577617554
 20
602.4236374491602
 30
0.0
 11
10755.577617554
 21
602.4236374491583
 31
0.0
  0
LINE
  5
F7AE
102
{ACAD_REACTORS
330
104ED
102
}
330
2
100
AcDbEntity
  8
VLB
100
AcDbLine
 10
10755.577617554
 20
594.4236374491583
 30
0.0
 11
10763.577617554
 21
594.4236374491602
 31
0.0
  0
LINE
  5
F7AF
102
{ACAD_REACTORS
330
104ED
102
}
330
2
100
AcDbEntity
  8
VLB
100
AcDbLine
 10
10763.577617554
 20
594.4236374491583
 30
0.0
 11
10763.577617554
 21
602.4236374491602
 31
0.0
  0
LINE
  5
F7B0
102
{ACAD_REACTORS
330
104ED
102
}
330
2
100
AcDbEntity
  8
VLB
100
AcDbLine
 10
10755.577617554
 20
594.4236374491583
 30
0.0
 11
10755.577617554
 21
602.4236374491583
 31
0.0
  0
LINE
  5
F7B1
102
{ACAD_REACTORS
330
104ED
102
}
330
2
100
AcDbEntity
  8
VLB
100
AcDbLine
 10
10755.577617554
 20
605.4236374491601
 30
0.0
 11
10763.577617554
 21
605.4236374491601
 31
0.0
  0
LINE
  5
F7B3
102
{ACAD_REACTORS
330
104ED
102
}
330
2
100
AcDbEntity
  8
VLB
100
AcDbLine
 10
10755.577617554
 20
591.4236374491565
 30
0.0
 11
10763.577617554
 21
591.4236374491584
 31
0.0
  0
LINE
  5
F7B4
102
{ACAD_REACTORS
330
104ED
102
}
330
2
100
AcDbEntity
  8
VLB
100
AcDbLine
 10
10755.577617554
 20
583.4236374491584
 30
0.0
 11
10763.577617554
 21
583.4236374491601
 31
0.0
  0
LINE
  5
F7B5
102
{ACAD_REACTORS
330
104ED
102
}
330
2
100
AcDbEntity
  8
VLB
100
AcDbLine
 10
10755.577617554
 20
580.4236374491565
 30
0.0
 11
10763.577617554
 21
580.4236374491583
 31
0.0
  0
LINE
  5
F7B6
102
{ACAD_REACTORS
330
104ED
102
}
330
2
100
AcDbEntity
  8
VLB
100
AcDbLine
 10
10763.577617554
 20
583.4236374491584
 30
0.0
 11
10763.577617554
 21
591.4236374491584
 31
0.0
  0
LINE
  5
F7B7
102
{ACAD_REACTORS
330
104ED
102
}
330
2
100
AcDbEntity
  8
VLB
100
AcDbLine
 10
10755.577617554
 20
583.4236374491584
 30
0.0
 11
10755.577617554
 21
591.4236374491584
 31
0.0
  0
LINE
  5
F7C4
102
{ACAD_REACTORS
330
104ED
102
}
330
2
100
AcDbEntity
  8
VLB
100
AcDbLine
 10
10821.577617554
 20
605.4236374491601
 30
0.0
 11
10821.577617554
 21
613.4236374491601
 31
0.0
  0
LINE
  5
F7C6
102
{ACAD_REACTORS
330
104ED
102
}
330
2
100
AcDbEntity
  8
VLB
100
AcDbLine
 10
10799.577617554
 20
605.4236374491601
 30
0.0
 11
10799.577617554
 21
613.4236374491601
 31
0.0
  0
LINE
  5
F7C7
102
{ACAD_REACTORS
330
104ED
102
}
330
2
100
AcDbEntity
  8
VLB
100
AcDbLine
 10
10807.577617554
 20
605.4236374491601
 30
0.0
 11
10807.577617554
 21
613.4236374491601
 31
0.0
  0
LINE
  5
F7C8
102
{ACAD_REACTORS
330
104ED
102
}
330
2
100
AcDbEntity
  8
VLB
100
AcDbLine
 10
10810.577617554
 20
605.4236374491601
 30
0.0
 11
10810.577617554
 21
613.4236374491601
 31
0.0
  0
LINE
  5
F7CA
102
{ACAD_REACTORS
330
104ED
102
}
330
2
100
AcDbEntity
  8
VLB
100
AcDbLine
 10
10818.577617554
 20
605.4236374491601
 30
0.0
 11
10818.577617554
 21
613.4236374491601
 31
0.0
  0
LINE
  5
F7CB
102
{ACAD_REACTORS
330
104ED
102
}
330
2
100
AcDbEntity
  8
VLB
100
AcDbLine
 10
10799.577617554
 20
624.4236374491602
 30
0.0
 11
10807.577617554
 21
624.4236374491602
 31
0.0
  0
LINE
  5
F7CC
102
{ACAD_REACTORS
330
104ED
102
}
330
2
100
AcDbEntity
  8
VLB
100
AcDbLine
 10
10807.577617554
 20
613.4236374491583
 30
0.0
 11
10799.577617554
 21
613.4236374491601
 31
0.0
  0
LINE
  5
F7CD
102
{ACAD_REACTORS
330
104ED
102
}
330
2
100
AcDbEntity
  8
VLB
100
AcDbLine
 10
10807.577617554
 20
616.4236374491601
 30
0.0
 11
10799.577617554
 21
616.4236374491601
 31
0.0
  0
LINE
  5
F7D3
102
{ACAD_REACTORS
330
104ED
102
}
330
2
100
AcDbEntity
  8
VLB
100
AcDbLine
 10
10799.577617554
 20
616.4236374491601
 30
0.0
 11
10799.577617554
 21
624.4236374491602
 31
0.0
  0
LINE
  5
F7D4
102
{ACAD_REACTORS
330
104ED
102
}
330
2
100
AcDbEntity
  8
VLB
100
AcDbLine
 10
10810.577617554
 20
624.4236374491602
 30
0.0
 11
10818.577617554
 21
624.4236374491602
 31
0.0
  0
LINE
  5
F7D5
102
{ACAD_REACTORS
330
104ED
102
}
330
2
100
AcDbEntity
  8
VLB
100
AcDbLine
 10
10818.577617554
 20
613.4236374491583
 30
0.0
 11
10810.577617554
 21
613.4236374491601
 31
0.0
  0
LINE
  5
F7D6
102
{ACAD_REACTORS
330
104ED
102
}
330
2
100
AcDbEntity
  8
VLB
100
AcDbLine
 10
10818.577617554
 20
616.4236374491601
 30
0.0
 11
10810.577617554
 21
616.4236374491601
 31
0.0
  0
LINE
  5
F7D7
102
{ACAD_REACTORS
330
104ED
102
}
330
2
100
AcDbEntity
  8
VLB
100
AcDbLine
 10
10807.577617554
 20
616.4236374491601
 30
0.0
 11
10807.577617554
 21
624.4236374491602
 31
0.0
  0
LINE
  5
F7D8
102
{ACAD_REACTORS
330
104ED
102
}
330
2
100
AcDbEntity
  8
VLB
100
AcDbLine
 10
10810.577617554
 20
616.4236374491601
 30
0.0
 11
10810.577617554
 21
624.4236374491602
 31
0.0
  0
LINE
  5
F7D9
102
{ACAD_REACTORS
330
104ED
102
}
330
2
100
AcDbEntity
  8
VLB
100
AcDbLine
 10
10821.577617554
 20
616.4236374491601
 30
0.0
 11
10821.577617554
 21
624.4236374491602
 31
0.0
  0
LINE
  5
F7DA
102
{ACAD_REACTORS
330
104ED
102
}
330
2
100
AcDbEntity
  8
VLB
100
AcDbLine
 10
10818.577617554
 20
616.4236374491601
 30
0.0
 11
10818.577617554
 21
624.4236374491602
 31
0.0
  0
LINE
  5
F7DB
102
{ACAD_REACTORS
330
104ED
102
}
330
2
100
AcDbEntity
  8
VLB
100
AcDbLine
 10
10807.577617554
 20
580.4236374491565
 30
0.0
 11
10799.577617554
 21
580.4236374491583
 31
0.0
  0
LINE
  5
F7DC
102
{ACAD_REACTORS
330
104ED
102
}
330
2
100
AcDbEntity
  8
VLB
100
AcDbLine
 10
10807.577617554
 20
583.4236374491584
 30
0.0
 11
10799.577617554
 21
583.4236374491601
 31
0.0
  0
LINE
  5
F7DD
102
{ACAD_REACTORS
330
104ED
102
}
330
2
100
AcDbEntity
  8
VLB
100
AcDbLine
 10
10807.577617554
 20
594.4236374491583
 30
0.0
 11
10799.577617554
 21
594.4236374491602
 31
0.0
  0
LINE
  5
F7DE
102
{ACAD_REACTORS
330
104ED
102
}
330
2
100
AcDbEntity
  8
VLB
100
AcDbLine
 10
10807.577617554
 20
591.4236374491565
 30
0.0
 11
10799.577617554
 21
591.4236374491584
 31
0.0
  0
LINE
  5
F7DF
102
{ACAD_REACTORS
330
104ED
102
}
330
2
100
AcDbEntity
  8
VLB
100
AcDbLine
 10
10799.577617554
 20
602.4236374491602
 30
0.0
 11
10807.577617554
 21
602.4236374491583
 31
0.0
  0
LINE
  5
F7E0
102
{ACAD_REACTORS
330
104ED
102
}
330
2
100
AcDbEntity
  8
VLB
100
AcDbLine
 10
10807.577617554
 20
605.4236374491601
 30
0.0
 11
10799.577617554
 21
605.4236374491601
 31
0.0
  0
LINE
  5
F7E4
102
{ACAD_REACTORS
330
104ED
102
}
330
2
100
AcDbEntity
  8
VLB
100
AcDbLine
 10
10799.577617554
 20
594.4236374491583
 30
0.0
 11
10799.577617554
 21
602.4236374491602
 31
0.0
  0
LINE
  5
F7E9
102
{ACAD_REACTORS
330
104ED
102
}
330
2
100
AcDbEntity
  8
VLB
100
AcDbLine
 10
10799.577617554
 20
583.4236374491584
 30
0.0
 11
10799.577617554
 21
591.4236374491584
 31
0.0
  0
LINE
  5
F7ED
102
{ACAD_REACTORS
330
104ED
102
}
330
2
100
AcDbEntity
  8
VLB
100
AcDbLine
 10
10821.577617554
 20
594.4236374491583
 30
0.0
 11
10821.577617554
 21
602.4236374491602
 31
0.0
  0
LINE
  5
F7EE
102
{ACAD_REACTORS
330
104ED
102
}
330
2
100
AcDbEntity
  8
VLB
100
AcDbLine
 10
10818.577617554
 20
594.4236374491583
 30
0.0
 11
10818.577617554
 21
602.4236374491583
 31
0.0
  0
LINE
  5
F7EF
102
{ACAD_REACTORS
330
104ED
102
}
330
2
100
AcDbEntity
  8
VLB
100
AcDbLine
 10
10810.577617554
 20
594.4236374491583
 30
0.0
 11
10810.577617554
 21
602.4236374491583
 31
0.0
  0
LINE
  5
F7F0
102
{ACAD_REACTORS
330
104ED
102
}
330
2
100
AcDbEntity
  8
VLB
100
AcDbLine
 10
10807.577617554
 20
594.4236374491583
 30
0.0
 11
10807.577617554
 21
602.4236374491583
 31
0.0
  0
LINE
  5
F7F1
102
{ACAD_REACTORS
330
104ED
102
}
330
2
100
AcDbEntity
  8
VLB
100
AcDbLine
 10
10818.577617554
 20
594.4236374491583
 30
0.0
 11
10810.577617554
 21
594.4236374491602
 31
0.0
  0
LINE
  5
F7F2
102
{ACAD_REACTORS
330
104ED
102
}
330
2
100
AcDbEntity
  8
VLB
100
AcDbLine
 10
10810.577617554
 20
602.4236374491583
 30
0.0
 11
10818.577617554
 21
602.4236374491583
 31
0.0
  0
LINE
  5
F7F3
102
{ACAD_REACTORS
330
104ED
102
}
330
2
100
AcDbEntity
  8
VLB
100
AcDbLine
 10
10818.577617554
 20
605.4236374491601
 30
0.0
 11
10810.577617554
 21
605.4236374491601
 31
0.0
  0
LINE
  5
F7F4
102
{ACAD_REACTORS
330
104ED
102
}
330
2
100
AcDbEntity
  8
VLB
100
AcDbLine
 10
10821.577617554
 20
583.4236374491584
 30
0.0
 11
10821.577617554
 21
591.4236374491584
 31
0.0
  0
LINE
  5
F7F5
102
{ACAD_REACTORS
330
104ED
102
}
330
2
100
AcDbEntity
  8
VLB
100
AcDbLine
 10
10810.577617554
 20
583.4236374491584
 30
0.0
 11
10810.577617554
 21
591.4236374491584
 31
0.0
  0
LINE
  5
F7F6
102
{ACAD_REACTORS
330
104ED
102
}
330
2
100
AcDbEntity
  8
VLB
100
AcDbLine
 10
10807.577617554
 20
583.4236374491584
 30
0.0
 11
10807.577617554
 21
591.4236374491584
 31
0.0
  0
LINE
  5
F7F7
102
{ACAD_REACTORS
330
104ED
102
}
330
2
100
AcDbEntity
  8
VLB
100
AcDbLine
 10
10818.577617554
 20
583.4236374491584
 30
0.0
 11
10818.577617554
 21
591.4236374491584
 31
0.0
  0
LINE
  5
F7F8
102
{ACAD_REACTORS
330
104ED
102
}
330
2
100
AcDbEntity
  8
VLB
100
AcDbLine
 10
10818.577617554
 20
580.4236374491565
 30
0.0
 11
10810.577617554
 21
580.4236374491583
 31
0.0
  0
LINE
  5
F7F9
102
{ACAD_REACTORS
330
104ED
102
}
330
2
100
AcDbEntity
  8
VLB
100
AcDbLine
 10
10818.577617554
 20
583.4236374491584
 30
0.0
 11
10810.577617554
 21
583.4236374491601
 31
0.0
  0
LINE
  5
F7FA
102
{ACAD_REACTORS
330
104ED
102
}
330
2
100
AcDbEntity
  8
VLB
100
AcDbLine
 10
10818.577617554
 20
591.4236374491565
 30
0.0
 11
10810.577617554
 21
591.4236374491584
 31
0.0
  0
LINE
  5
F7FB
102
{ACAD_REACTORS
330
104ED
102
}
330
2
100
AcDbEntity
  8
VLB
100
AcDbLine
 10
10854.577617554
 20
624.4236374491602
 30
0.0
 11
10862.577617554
 21
624.4236374491602
 31
0.0
  0
LINE
  5
F7FC
102
{ACAD_REACTORS
330
104ED
102
}
330
2
100
AcDbEntity
  8
VLB
100
AcDbLine
 10
10862.577617554
 20
583.4236374491584
 30
0.0
 11
10854.577617554
 21
583.4236374491584
 31
0.0
  0
LINE
  5
F7FD
102
{ACAD_REACTORS
330
104ED
102
}
330
2
100
AcDbEntity
  8
VLB
100
AcDbLine
 10
10862.577617554
 20
580.4236374491565
 30
0.0
 11
10854.577617554
 21
580.4236374491583
 31
0.0
  0
LINE
  5
F7FE
102
{ACAD_REACTORS
330
104ED
102
}
330
2
100
AcDbEntity
  8
VLB
100
AcDbLine
 10
10854.577617554
 20
602.4236374491583
 30
0.0
 11
10862.577617554
 21
602.4236374491583
 31
0.0
  0
LINE
  5
F7FF
102
{ACAD_REACTORS
330
104ED
102
}
330
2
100
AcDbEntity
  8
VLB
100
AcDbLine
 10
10862.577617554
 20
591.4236374491565
 30
0.0
 11
10854.577617554
 21
591.4236374491584
 31
0.0
  0
LINE
  5
F800
102
{ACAD_REACTORS
330
104ED
102
}
330
2
100
AcDbEntity
  8
VLB
100
AcDbLine
 10
10862.577617554
 20
594.4236374491583
 30
0.0
 11
10854.577617554
 21
594.4236374491583
 31
0.0
  0
LINE
  5
F801
102
{ACAD_REACTORS
330
104ED
102
}
330
2
100
AcDbEntity
  8
VLB
100
AcDbLine
 10
10862.577617554
 20
616.4236374491584
 30
0.0
 11
10854.577617554
 21
616.4236374491601
 31
0.0
  0
LINE
  5
F802
102
{ACAD_REACTORS
330
104ED
102
}
330
2
100
AcDbEntity
  8
VLB
100
AcDbLine
 10
10862.577617554
 20
613.4236374491583
 30
0.0
 11
10854.577617554
 21
613.4236374491583
 31
0.0
  0
LINE
  5
F803
102
{ACAD_REACTORS
330
104ED
102
}
330
2
100
AcDbEntity
  8
VLB
100
AcDbLine
 10
10862.577617554
 20
605.4236374491583
 30
0.0
 11
10854.577617554
 21
605.4236374491601
 31
0.0
  0
LINE
  5
F804
102
{ACAD_REACTORS
330
104ED
102
}
330
2
100
AcDbEntity
  8
VLB
100
AcDbLine
 10
10829.577617554
 20
605.4236374491601
 30
0.0
 11
10829.577617554
 21
613.4236374491601
 31
0.0
  0
LINE
  5
F805
102
{ACAD_REACTORS
330
104ED
102
}
330
2
100
AcDbEntity
  8
VLB
100
AcDbLine
 10
10832.577617554
 20
605.4236374491601
 30
0.0
 11
10832.577617554
 21
613.4236374491601
 31
0.0
  0
LINE
  5
F806
102
{ACAD_REACTORS
330
104ED
102
}
330
2
100
AcDbEntity
  8
VLB
100
AcDbLine
 10
10854.577617554
 20
605.4236374491583
 30
0.0
 11
10854.577617554
 21
613.4236374491583
 31
0.0
  0
LINE
  5
F807
102
{ACAD_REACTORS
330
104ED
102
}
330
2
100
AcDbEntity
  8
VLB
100
AcDbLine
 10
10843.577617554
 20
605.4236374491583
 30
0.0
 11
10843.577617554
 21
613.4236374491583
 31
0.0
  0
LINE
  5
F808
102
{ACAD_REACTORS
330
104ED
102
}
330
2
100
AcDbEntity
  8
VLB
100
AcDbLine
 10
10840.577617554
 20
605.4236374491583
 30
0.0
 11
10840.577617554
 21
613.4236374491583
 31
0.0
  0
LINE
  5
F809
102
{ACAD_REACTORS
330
104ED
102
}
330
2
100
AcDbEntity
  8
VLB
100
AcDbLine
 10
10851.577617554
 20
605.4236374491583
 30
0.0
 11
10851.577617554
 21
613.4236374491583
 31
0.0
  0
LINE
  5
F80A
102
{ACAD_REACTORS
330
104ED
102
}
330
2
100
AcDbEntity
  8
VLB
100
AcDbLine
 10
10832.577617554
 20
624.4236374491602
 30
0.0
 11
10840.577617554
 21
624.4236374491584
 31
0.0
  0
LINE
  5
F80B
102
{ACAD_REACTORS
330
104ED
102
}
330
2
100
AcDbEntity
  8
VLB
100
AcDbLine
 10
10840.577617554
 20
613.4236374491583
 30
0.0
 11
10832.577617554
 21
613.4236374491601
 31
0.0
  0
LINE
  5
F80C
102
{ACAD_REACTORS
330
104ED
102
}
330
2
100
AcDbEntity
  8
VLB
100
AcDbLine
 10
10840.577617554
 20
616.4236374491584
 30
0.0
 11
10832.577617554
 21
616.4236374491601
 31
0.0
  0
LINE
  5
F80D
102
{ACAD_REACTORS
330
104ED
102
}
330
2
100
AcDbEntity
  8
VLB
100
AcDbLine
 10
10829.577617554
 20
616.4236374491601
 30
0.0
 11
10829.577617554
 21
624.4236374491602
 31
0.0
  0
LINE
  5
F80E
102
{ACAD_REACTORS
330
104ED
102
}
330
2
100
AcDbEntity
  8
VLB
100
AcDbLine
 10
10832.577617554
 20
616.4236374491601
 30
0.0
 11
10832.577617554
 21
624.4236374491602
 31
0.0
  0
LINE
  5
F80F
102
{ACAD_REACTORS
330
104ED
102
}
330
2
100
AcDbEntity
  8
VLB
100
AcDbLine
 10
10843.577617554
 20
624.4236374491584
 30
0.0
 11
10851.577617554
 21
624.4236374491584
 31
0.0
  0
LINE
  5
F810
102
{ACAD_REACTORS
330
104ED
102
}
330
2
100
AcDbEntity
  8
VLB
100
AcDbLine
 10
10851.577617554
 20
613.4236374491583
 30
0.0
 11
10843.577617554
 21
613.4236374491583
 31
0.0
  0
LINE
  5
F811
102
{ACAD_REACTORS
330
104ED
102
}
330
2
100
AcDbEntity
  8
VLB
100
AcDbLine
 10
10851.577617554
 20
616.4236374491584
 30
0.0
 11
10843.577617554
 21
616.4236374491601
 31
0.0
  0
LINE
  5
F812
102
{ACAD_REACTORS
330
104ED
102
}
330
2
100
AcDbEntity
  8
VLB
100
AcDbLine
 10
10854.577617554
 20
616.4236374491584
 30
0.0
 11
10854.577617554
 21
624.4236374491602
 31
0.0
  0
LINE
  5
F813
102
{ACAD_REACTORS
330
104ED
102
}
330
2
100
AcDbEntity
  8
VLB
100
AcDbLine
 10
10851.577617554
 20
616.4236374491584
 30
0.0
 11
10851.577617554
 21
624.4236374491584
 31
0.0
  0
LINE
  5
F814
102
{ACAD_REACTORS
330
104ED
102
}
330
2
100
AcDbEntity
  8
VLB
100
AcDbLine
 10
10843.577617554
 20
616.4236374491584
 30
0.0
 11
10843.577617554
 21
624.4236374491584
 31
0.0
  0
LINE
  5
F815
102
{ACAD_REACTORS
330
104ED
102
}
330
2
100
AcDbEntity
  8
VLB
100
AcDbLine
 10
10840.577617554
 20
616.4236374491584
 30
0.0
 11
10840.577617554
 21
624.4236374491584
 31
0.0
  0
LINE
  5
F816
102
{ACAD_REACTORS
330
104ED
102
}
330
2
100
AcDbEntity
  8
VLB
100
AcDbLine
 10
10832.577617554
 20
602.4236374491602
 30
0.0
 11
10840.577617554
 21
602.4236374491583
 31
0.0
  0
LINE
  5
F817
102
{ACAD_REACTORS
330
104ED
102
}
330
2
100
AcDbEntity
  8
VLB
100
AcDbLine
 10
10840.577617554
 20
591.4236374491565
 30
0.0
 11
10832.577617554
 21
591.4236374491584
 31
0.0
  0
LINE
  5
F818
102
{ACAD_REACTORS
330
104ED
102
}
330
2
100
AcDbEntity
  8
VLB
100
AcDbLine
 10
10840.577617554
 20
594.4236374491583
 30
0.0
 11
10832.577617554
 21
594.4236374491602
 31
0.0
  0
LINE
  5
F819
102
{ACAD_REACTORS
330
104ED
102
}
330
2
100
AcDbEntity
  8
VLB
100
AcDbLine
 10
10840.577617554
 20
583.4236374491584
 30
0.0
 11
10832.577617554
 21
583.4236374491601
 31
0.0
  0
LINE
  5
F81A
102
{ACAD_REACTORS
330
104ED
102
}
330
2
100
AcDbEntity
  8
VLB
100
AcDbLine
 10
10840.577617554
 20
580.4236374491565
 30
0.0
 11
10832.577617554
 21
580.4236374491583
 31
0.0
  0
LINE
  5
F81B
102
{ACAD_REACTORS
330
104ED
102
}
330
2
100
AcDbEntity
  8
VLB
100
AcDbLine
 10
10840.577617554
 20
605.4236374491583
 30
0.0
 11
10832.577617554
 21
605.4236374491601
 31
0.0
  0
LINE
  5
F81C
102
{ACAD_REACTORS
330
104ED
102
}
330
2
100
AcDbEntity
  8
VLB
100
AcDbLine
 10
10832.577617554
 20
594.4236374491583
 30
0.0
 11
10832.577617554
 21
602.4236374491602
 31
0.0
  0
LINE
  5
F81D
102
{ACAD_REACTORS
330
104ED
102
}
330
2
100
AcDbEntity
  8
VLB
100
AcDbLine
 10
10829.577617554
 20
594.4236374491583
 30
0.0
 11
10829.577617554
 21
602.4236374491602
 31
0.0
  0
LINE
  5
F81E
102
{ACAD_REACTORS
330
104ED
102
}
330
2
100
AcDbEntity
  8
VLB
100
AcDbLine
 10
10832.577617554
 20
583.4236374491584
 30
0.0
 11
10832.577617554
 21
591.4236374491584
 31
0.0
  0
LINE
  5
F81F
102
{ACAD_REACTORS
330
104ED
102
}
330
2
100
AcDbEntity
  8
VLB
100
AcDbLine
 10
10829.577617554
 20
583.4236374491584
 30
0.0
 11
10829.577617554
 21
591.4236374491584
 31
0.0
  0
LINE
  5
F820
102
{ACAD_REACTORS
330
104ED
102
}
330
2
100
AcDbEntity
  8
VLB
100
AcDbLine
 10
10843.577617554
 20
602.4236374491583
 30
0.0
 11
10851.577617554
 21
602.4236374491583
 31
0.0
  0
LINE
  5
F821
102
{ACAD_REACTORS
330
104ED
102
}
330
2
100
AcDbEntity
  8
VLB
100
AcDbLine
 10
10851.577617554
 20
594.4236374491583
 30
0.0
 11
10843.577617554
 21
594.4236374491583
 31
0.0
  0
LINE
  5
F822
102
{ACAD_REACTORS
330
104ED
102
}
330
2
100
AcDbEntity
  8
VLB
100
AcDbLine
 10
10840.577617554
 20
594.4236374491583
 30
0.0
 11
10840.577617554
 21
602.4236374491583
 31
0.0
  0
LINE
  5
F823
102
{ACAD_REACTORS
330
104ED
102
}
330
2
100
AcDbEntity
  8
VLB
100
AcDbLine
 10
10843.577617554
 20
594.4236374491583
 30
0.0
 11
10843.577617554
 21
602.4236374491583
 31
0.0
  0
LINE
  5
F824
102
{ACAD_REACTORS
330
104ED
102
}
330
2
100
AcDbEntity
  8
VLB
100
AcDbLine
 10
10851.577617554
 20
594.4236374491583
 30
0.0
 11
10851.577617554
 21
602.4236374491583
 31
0.0
  0
LINE
  5
F825
102
{ACAD_REACTORS
330
104ED
102
}
330
2
100
AcDbEntity
  8
VLB
100
AcDbLine
 10
10854.577617554
 20
594.4236374491583
 30
0.0
 11
10854.577617554
 21
602.4236374491583
 31
0.0
  0
LINE
  5
F826
102
{ACAD_REACTORS
330
104ED
102
}
330
2
100
AcDbEntity
  8
VLB
100
AcDbLine
 10
10851.577617554
 20
605.4236374491583
 30
0.0
 11
10843.577617554
 21
605.4236374491601
 31
0.0
  0
LINE
  5
F827
102
{ACAD_REACTORS
330
104ED
102
}
330
2
100
AcDbEntity
  8
VLB
100
AcDbLine
 10
10851.577617554
 20
583.4236374491584
 30
0.0
 11
10851.577617554
 21
591.4236374491584
 31
0.0
  0
LINE
  5
F828
102
{ACAD_REACTORS
330
104ED
102
}
330
2
100
AcDbEntity
  8
VLB
100
AcDbLine
 10
10840.577617554
 20
583.4236374491584
 30
0.0
 11
10840.577617554
 21
591.4236374491584
 31
0.0
  0
LINE
  5
F829
102
{ACAD_REACTORS
330
104ED
102
}
330
2
100
AcDbEntity
  8
VLB
100
AcDbLine
 10
10843.577617554
 20
583.4236374491584
 30
0.0
 11
10843.577617554
 21
591.4236374491584
 31
0.0
  0
LINE
  5
F82A
102
{ACAD_REACTORS
330
104ED
102
}
330
2
100
AcDbEntity
  8
VLB
100
AcDbLine
 10
10854.577617554
 20
583.4236374491584
 30
0.0
 11
10854.577617554
 21
591.4236374491584
 31
0.0
  0
LINE
  5
F82B
102
{ACAD_REACTORS
330
104ED
102
}
330
2
100
AcDbEntity
  8
VLB
100
AcDbLine
 10
10851.577617554
 20
583.4236374491584
 30
0.0
 11
10843.577617554
 21
583.4236374491584
 31
0.0
  0
LINE
  5
F82C
102
{ACAD_REACTORS
330
104ED
102
}
330
2
100
AcDbEntity
  8
VLB
100
AcDbLine
 10
10851.577617554
 20
580.4236374491565
 30
0.0
 11
10843.577617554
 21
580.4236374491583
 31
0.0
  0
LINE
  5
F82D
102
{ACAD_REACTORS
330
104ED
102
}
330
2
100
AcDbEntity
  8
VLB
100
AcDbLine
 10
10851.577617554
 20
591.4236374491565
 30
0.0
 11
10843.577617554
 21
591.4236374491584
 31
0.0
  0
LINE
  5
F82E
102
{ACAD_REACTORS
330
104ED
102
}
330
2
100
AcDbEntity
  8
VLB
100
AcDbLine
 10
10876.577617554
 20
605.4236374491583
 30
0.0
 11
10876.577617554
 21
613.4236374491583
 31
0.0
  0
LINE
  5
F82F
102
{ACAD_REACTORS
330
104ED
102
}
330
2
100
AcDbEntity
  8
VLB
100
AcDbLine
 10
10884.577617554
 20
605.4236374491583
 30
0.0
 11
10884.577617554
 21
613.4236374491583
 31
0.0
  0
LINE
  5
F830
102
{ACAD_REACTORS
330
104ED
102
}
330
2
100
AcDbEntity
  8
VLB
100
AcDbLine
 10
10887.577617554
 20
605.4236374491583
 30
0.0
 11
10887.577617554
 21
613.4236374491583
 31
0.0
  0
LINE
  5
F831
102
{ACAD_REACTORS
330
104ED
102
}
330
2
100
AcDbEntity
  8
VLB
100
AcDbLine
 10
10873.577617554
 20
605.4236374491583
 30
0.0
 11
10873.577617554
 21
613.4236374491583
 31
0.0
  0
LINE
  5
F832
102
{ACAD_REACTORS
330
104ED
102
}
330
2
100
AcDbEntity
  8
VLB
100
AcDbLine
 10
10862.577617554
 20
605.4236374491583
 30
0.0
 11
10862.577617554
 21
613.4236374491583
 31
0.0
  0
LINE
  5
F833
102
{ACAD_REACTORS
330
104ED
102
}
330
2
100
AcDbEntity
  8
VLB
100
AcDbLine
 10
10865.577617554
 20
605.4236374491583
 30
0.0
 11
10865.577617554
 21
613.4236374491583
 31
0.0
  0
LINE
  5
F834
102
{ACAD_REACTORS
330
104ED
102
}
330
2
100
AcDbEntity
  8
VLB
100
AcDbLine
 10
10865.577617554
 20
624.4236374491602
 30
0.0
 11
10873.577617554
 21
624.4236374491584
 31
0.0
  0
LINE
  5
F835
102
{ACAD_REACTORS
330
104ED
102
}
330
2
100
AcDbEntity
  8
VLB
100
AcDbLine
 10
10873.577617554
 20
613.4236374491583
 30
0.0
 11
10865.577617554
 21
613.4236374491583
 31
0.0
  0
LINE
  5
F836
102
{ACAD_REACTORS
330
104ED
102
}
330
2
100
AcDbEntity
  8
VLB
100
AcDbLine
 10
10873.577617554
 20
616.4236374491584
 30
0.0
 11
10865.577617554
 21
616.4236374491601
 31
0.0
  0
LINE
  5
F837
102
{ACAD_REACTORS
330
104ED
102
}
330
2
100
AcDbEntity
  8
VLB
100
AcDbLine
 10
10865.577617554
 20
616.4236374491584
 30
0.0
 11
10865.577617554
 21
624.4236374491602
 31
0.0
  0
LINE
  5
F838
102
{ACAD_REACTORS
330
104ED
102
}
330
2
100
AcDbEntity
  8
VLB
100
AcDbLine
 10
10862.577617554
 20
616.4236374491584
 30
0.0
 11
10862.577617554
 21
624.4236374491602
 31
0.0
  0
LINE
  5
F839
102
{ACAD_REACTORS
330
104ED
102
}
330
2
100
AcDbEntity
  8
VLB
100
AcDbLine
 10
10876.577617554
 20
624.4236374491584
 30
0.0
 11
10884.577617554
 21
624.4236374491584
 31
0.0
  0
LINE
  5
F83A
102
{ACAD_REACTORS
330
104ED
102
}
330
2
100
AcDbEntity
  8
VLB
100
AcDbLine
 10
10884.577617554
 20
613.4236374491583
 30
0.0
 11
10876.577617554
 21
613.4236374491583
 31
0.0
  0
LINE
  5
F83B
102
{ACAD_REACTORS
330
104ED
102
}
330
2
100
AcDbEntity
  8
VLB
100
AcDbLine
 10
10884.577617554
 20
616.4236374491584
 30
0.0
 11
10876.577617554
 21
616.4236374491601
 31
0.0
  0
LINE
  5
F83C
102
{ACAD_REACTORS
330
104ED
102
}
330
2
100
AcDbEntity
  8
VLB
100
AcDbLine
 10
10876.577617554
 20
616.4236374491584
 30
0.0
 11
10876.577617554
 21
624.4236374491584
 31
0.0
  0
LINE
  5
F83D
102
{ACAD_REACTORS
330
104ED
102
}
330
2
100
AcDbEntity
  8
VLB
100
AcDbLine
 10
10884.577617554
 20
616.4236374491584
 30
0.0
 11
10884.577617554
 21
624.4236374491584
 31
0.0
  0
LINE
  5
F83E
102
{ACAD_REACTORS
330
104ED
102
}
330
2
100
AcDbEntity
  8
VLB
100
AcDbLine
 10
10887.577617554
 20
616.4236374491584
 30
0.0
 11
10887.577617554
 21
624.4236374491602
 31
0.0
  0
LINE
  5
F83F
102
{ACAD_REACTORS
330
104ED
102
}
330
2
100
AcDbEntity
  8
VLB
100
AcDbLine
 10
10873.577617554
 20
616.4236374491584
 30
0.0
 11
10873.577617554
 21
624.4236374491584
 31
0.0
  0
LINE
  5
F840
102
{ACAD_REACTORS
330
104ED
102
}
330
2
100
AcDbEntity
  8
VLB
100
AcDbLine
 10
10873.577617554
 20
583.4236374491584
 30
0.0
 11
10865.577617554
 21
583.4236374491584
 31
0.0
  0
LINE
  5
F841
102
{ACAD_REACTORS
330
104ED
102
}
330
2
100
AcDbEntity
  8
VLB
100
AcDbLine
 10
10873.577617554
 20
580.4236374491565
 30
0.0
 11
10865.577617554
 21
580.4236374491583
 31
0.0
  0
LINE
  5
F842
102
{ACAD_REACTORS
330
104ED
102
}
330
2
100
AcDbEntity
  8
VLB
100
AcDbLine
 10
10865.577617554
 20
602.4236374491583
 30
0.0
 11
10873.577617554
 21
602.4236374491583
 31
0.0
  0
LINE
  5
F843
102
{ACAD_REACTORS
330
104ED
102
}
330
2
100
AcDbEntity
  8
VLB
100
AcDbLine
 10
10873.577617554
 20
591.4236374491565
 30
0.0
 11
10865.577617554
 21
591.4236374491584
 31
0.0
  0
LINE
  5
F844
102
{ACAD_REACTORS
330
104ED
102
}
330
2
100
AcDbEntity
  8
VLB
100
AcDbLine
 10
10873.577617554
 20
594.4236374491583
 30
0.0
 11
10865.577617554
 21
594.4236374491583
 31
0.0
  0
LINE
  5
F845
102
{ACAD_REACTORS
330
104ED
102
}
330
2
100
AcDbEntity
  8
VLB
100
AcDbLine
 10
10873.577617554
 20
605.4236374491583
 30
0.0
 11
10865.577617554
 21
605.4236374491601
 31
0.0
  0
LINE
  5
F846
102
{ACAD_REACTORS
330
104ED
102
}
330
2
100
AcDbEntity
  8
VLB
100
AcDbLine
 10
10862.577617554
 20
594.4236374491583
 30
0.0
 11
10862.577617554
 21
602.4236374491583
 31
0.0
  0
LINE
  5
F847
102
{ACAD_REACTORS
330
104ED
102
}
330
2
100
AcDbEntity
  8
VLB
100
AcDbLine
 10
10865.577617554
 20
594.4236374491583
 30
0.0
 11
10865.577617554
 21
602.4236374491583
 31
0.0
  0
LINE
  5
F848
102
{ACAD_REACTORS
330
104ED
102
}
330
2
100
AcDbEntity
  8
VLB
100
AcDbLine
 10
10865.577617554
 20
583.4236374491584
 30
0.0
 11
10865.577617554
 21
591.4236374491584
 31
0.0
  0
LINE
  5
F849
102
{ACAD_REACTORS
330
104ED
102
}
330
2
100
AcDbEntity
  8
VLB
100
AcDbLine
 10
10862.577617554
 20
583.4236374491584
 30
0.0
 11
10862.577617554
 21
591.4236374491584
 31
0.0
  0
LINE
  5
F84A
102
{ACAD_REACTORS
330
104ED
102
}
330
2
100
AcDbEntity
  8
VLB
100
AcDbLine
 10
10876.577617554
 20
602.4236374491583
 30
0.0
 11
10884.577617554
 21
602.4236374491583
 31
0.0
  0
LINE
  5
F84B
102
{ACAD_REACTORS
330
104ED
102
}
330
2
100
AcDbEntity
  8
VLB
100
AcDbLine
 10
10884.577617554
 20
594.4236374491583
 30
0.0
 11
10876.577617554
 21
594.4236374491583
 31
0.0
  0
LINE
  5
F84C
102
{ACAD_REACTORS
330
104ED
102
}
330
2
100
AcDbEntity
  8
VLB
100
AcDbLine
 10
10876.577617554
 20
594.4236374491583
 30
0.0
 11
10876.577617554
 21
602.4236374491583
 31
0.0
  0
LINE
  5
F84D
102
{ACAD_REACTORS
330
104ED
102
}
330
2
100
AcDbEntity
  8
VLB
100
AcDbLine
 10
10887.577617554
 20
594.4236374491583
 30
0.0
 11
10887.577617554
 21
602.4236374491583
 31
0.0
  0
LINE
  5
F84E
102
{ACAD_REACTORS
330
104ED
102
}
330
2
100
AcDbEntity
  8
VLB
100
AcDbLine
 10
10884.577617554
 20
594.4236374491583
 30
0.0
 11
10884.577617554
 21
602.4236374491583
 31
0.0
  0
LINE
  5
F84F
102
{ACAD_REACTORS
330
104ED
102
}
330
2
100
AcDbEntity
  8
VLB
100
AcDbLine
 10
10884.577617554
 20
605.4236374491583
 30
0.0
 11
10876.577617554
 21
605.4236374491601
 31
0.0
  0
LINE
  5
F850
102
{ACAD_REACTORS
330
104ED
102
}
330
2
100
AcDbEntity
  8
VLB
100
AcDbLine
 10
10873.577617554
 20
594.4236374491583
 30
0.0
 11
10873.577617554
 21
602.4236374491583
 31
0.0
  0
LINE
  5
F851
102
{ACAD_REACTORS
330
104ED
102
}
330
2
100
AcDbEntity
  8
VLB
100
AcDbLine
 10
10887.577617554
 20
583.4236374491584
 30
0.0
 11
10887.577617554
 21
591.4236374491584
 31
0.0
  0
LINE
  5
F852
102
{ACAD_REACTORS
330
104ED
102
}
330
2
100
AcDbEntity
  8
VLB
100
AcDbLine
 10
10884.577617554
 20
583.4236374491584
 30
0.0
 11
10884.577617554
 21
591.4236374491584
 31
0.0
  0
LINE
  5
F853
102
{ACAD_REACTORS
330
104ED
102
}
330
2
100
AcDbEntity
  8
VLB
100
AcDbLine
 10
10876.577617554
 20
583.4236374491584
 30
0.0
 11
10876.577617554
 21
591.4236374491584
 31
0.0
  0
LINE
  5
F854
102
{ACAD_REACTORS
330
104ED
102
}
330
2
100
AcDbEntity
  8
VLB
100
AcDbLine
 10
10884.577617554
 20
583.4236374491584
 30
0.0
 11
10876.577617554
 21
583.4236374491584
 31
0.0
  0
LINE
  5
F855
102
{ACAD_REACTORS
330
104ED
102
}
330
2
100
AcDbEntity
  8
VLB
100
AcDbLine
 10
10884.577617554
 20
580.4236374491565
 30
0.0
 11
10876.577617554
 21
580.4236374491583
 31
0.0
  0
LINE
  5
F856
102
{ACAD_REACTORS
330
104ED
102
}
330
2
100
AcDbEntity
  8
VLB
100
AcDbLine
 10
10884.577617554
 20
591.4236374491565
 30
0.0
 11
10876.577617554
 21
591.4236374491584
 31
0.0
  0
LINE
  5
F857
102
{ACAD_REACTORS
330
104ED
102
}
330
2
100
AcDbEntity
  8
VLB
100
AcDbLine
 10
10873.577617554
 20
583.4236374491584
 30
0.0
 11
10873.577617554
 21
591.4236374491584
 31
0.0
  0
LINE
  5
F858
102
{ACAD_REACTORS
330
104ED
102
}
330
2
100
AcDbEntity
  8
VLB
100
AcDbLine
 10
10678.577617554
 20
572.4236374491583
 30
0.0
 11
10686.577617554
 21
572.4236374491602
 31
0.0
  0
LINE
  5
F859
102
{ACAD_REACTORS
330
104ED
102
}
330
2
100
AcDbEntity
  8
VLB
100
AcDbLine
 10
10645.577617554
 20
572.4236374491583
 30
0.0
 11
10653.577617554
 21
572.4236374491602
 31
0.0
  0
LINE
  5
F85A
102
{ACAD_REACTORS
330
104ED
102
}
330
2
100
AcDbEntity
  8
VLB
100
AcDbLine
 10
10634.577617554
 20
572.4236374491583
 30
0.0
 11
10642.577617554
 21
572.4236374491602
 31
0.0
  0
LINE
  5
F85B
102
{ACAD_REACTORS
330
104ED
102
}
330
2
100
AcDbEntity
  8
VLB
100
AcDbLine
 10
10667.577617554
 20
572.4236374491583
 30
0.0
 11
10675.577617554
 21
572.4236374491602
 31
0.0
  0
LINE
  5
F85C
102
{ACAD_REACTORS
330
104ED
102
}
330
2
100
AcDbEntity
  8
VLB
100
AcDbLine
 10
10656.577617554
 20
572.4236374491583
 30
0.0
 11
10664.577617554
 21
572.4236374491602
 31
0.0
  0
LINE
  5
F85D
102
{ACAD_REACTORS
330
104ED
102
}
330
2
100
AcDbEntity
  8
VLB
100
AcDbLine
 10
10700.577617554
 20
572.4236374491583
 30
0.0
 11
10708.577617554
 21
572.4236374491602
 31
0.0
  0
LINE
  5
F85E
102
{ACAD_REACTORS
330
104ED
102
}
330
2
100
AcDbEntity
  8
VLB
100
AcDbLine
 10
10689.577617554
 20
572.4236374491583
 30
0.0
 11
10697.577617554
 21
572.4236374491602
 31
0.0
  0
LINE
  5
F85F
102
{ACAD_REACTORS
330
104ED
102
}
330
2
100
AcDbEntity
  8
VLB
100
AcDbLine
 10
10711.577617554
 20
572.4236374491583
 30
0.0
 11
10719.577617554
 21
572.4236374491602
 31
0.0
  0
LINE
  5
F860
102
{ACAD_REACTORS
330
104ED
102
}
330
2
100
AcDbEntity
  8
VLB
100
AcDbLine
 10
10733.577617554
 20
572.4236374491583
 30
0.0
 11
10741.577617554
 21
572.4236374491602
 31
0.0
  0
LINE
  5
F861
102
{ACAD_REACTORS
330
104ED
102
}
330
2
100
AcDbEntity
  8
VLB
100
AcDbLine
 10
10722.577617554
 20
572.4236374491583
 30
0.0
 11
10730.577617554
 21
572.4236374491602
 31
0.0
  0
LINE
  5
F862
102
{ACAD_REACTORS
330
104ED
102
}
330
2
100
AcDbEntity
  8
VLB
100
AcDbLine
 10
10744.577617554
 20
572.4236374491583
 30
0.0
 11
10752.577617554
 21
572.4236374491602
 31
0.0
  0
LINE
  5
F863
102
{ACAD_REACTORS
330
104ED
102
}
330
2
100
AcDbEntity
  8
VLB
100
AcDbLine
 10
10829.577617554
 20
572.4236374491583
 30
0.0
 11
10821.577617554
 21
572.4236374491602
 31
0.0
  0
LINE
  5
F865
102
{ACAD_REACTORS
330
104ED
102
}
330
2
100
AcDbEntity
  8
VLB
100
AcDbLine
 10
10755.577617554
 20
572.4236374491583
 30
0.0
 11
10763.577617554
 21
572.4236374491602
 31
0.0
  0
LINE
  5
F867
102
{ACAD_REACTORS
330
104ED
102
}
330
2
100
AcDbEntity
  8
VLB
100
AcDbLine
 10
10807.577617554
 20
572.4236374491583
 30
0.0
 11
10799.577617554
 21
572.4236374491602
 31
0.0
  0
LINE
  5
F869
102
{ACAD_REACTORS
330
104ED
102
}
330
2
100
AcDbEntity
  8
VLB
100
AcDbLine
 10
10818.577617554
 20
572.4236374491583
 30
0.0
 11
10810.577617554
 21
572.4236374491602
 31
0.0
  0
LINE
  5
F86A
102
{ACAD_REACTORS
330
104ED
102
}
330
2
100
AcDbEntity
  8
VLB
100
AcDbLine
 10
10862.577617554
 20
572.4236374491583
 30
0.0
 11
10854.577617554
 21
572.4236374491583
 31
0.0
  0
LINE
  5
F86B
102
{ACAD_REACTORS
330
104ED
102
}
330
2
100
AcDbEntity
  8
VLB
100
AcDbLine
 10
10840.577617554
 20
572.4236374491583
 30
0.0
 11
10832.577617554
 21
572.4236374491602
 31
0.0
  0
LINE
  5
F86C
102
{ACAD_REACTORS
330
104ED
102
}
330
2
100
AcDbEntity
  8
VLB
100
AcDbLine
 10
10851.577617554
 20
572.4236374491583
 30
0.0
 11
10843.577617554
 21
572.4236374491583
 31
0.0
  0
LINE
  5
F86D
102
{ACAD_REACTORS
330
104ED
102
}
330
2
100
AcDbEntity
  8
VLB
100
AcDbLine
 10
10873.577617554
 20
572.4236374491583
 30
0.0
 11
10865.577617554
 21
572.4236374491583
 31
0.0
  0
LINE
  5
F86E
102
{ACAD_REACTORS
330
104ED
102
}
330
2
100
AcDbEntity
  8
VLB
100
AcDbLine
 10
10884.577617554
 20
572.4236374491583
 30
0.0
 11
10876.577617554
 21
572.4236374491583
 31
0.0
  0
LINE
  5
F86F
102
{ACAD_REACTORS
330
104ED
102
}
330
2
100
AcDbEntity
  8
VLB
100
AcDbLine
 10
10928.577617554
 20
572.4236374491583
 30
0.0
 11
10928.577617554
 21
580.4236374491583
 31
0.0
  0
LINE
  5
F870
102
{ACAD_REACTORS
330
104ED
102
}
330
2
100
AcDbEntity
  8
VLB
100
AcDbLine
 10
10895.577617554
 20
572.4236374491583
 30
0.0
 11
10895.577617554
 21
580.4236374491583
 31
0.0
  0
LINE
  5
F871
102
{ACAD_REACTORS
330
104ED
102
}
330
2
100
AcDbEntity
  8
VLB
100
AcDbLine
 10
10906.577617554
 20
572.4236374491583
 30
0.0
 11
10906.577617554
 21
580.4236374491583
 31
0.0
  0
LINE
  5
F872
102
{ACAD_REACTORS
330
104ED
102
}
330
2
100
AcDbEntity
  8
VLB
100
AcDbLine
 10
10898.577617554
 20
572.4236374491583
 30
0.0
 11
10898.577617554
 21
580.4236374491583
 31
0.0
  0
LINE
  5
F873
102
{ACAD_REACTORS
330
104ED
102
}
330
2
100
AcDbEntity
  8
VLB
100
AcDbLine
 10
10909.577617554
 20
572.4236374491583
 30
0.0
 11
10909.577617554
 21
580.4236374491583
 31
0.0
  0
LINE
  5
F874
102
{ACAD_REACTORS
330
104ED
102
}
330
2
100
AcDbEntity
  8
VLB
100
AcDbLine
 10
10920.577617554
 20
572.4236374491583
 30
0.0
 11
10920.577617554
 21
580.4236374491583
 31
0.0
  0
LINE
  5
F875
102
{ACAD_REACTORS
330
104ED
102
}
330
2
100
AcDbEntity
  8
VLB
100
AcDbLine
 10
10917.577617554
 20
572.4236374491583
 30
0.0
 11
10917.577617554
 21
580.4236374491583
 31
0.0
  0
ARC
  5
F876
102
{ACAD_REACTORS
330
104ED
102
}
330
2
100
AcDbEntity
  8
VLB
100
AcDbCircle
 10
10926.57761755401
 20
575.4236374491511
 30
0.0
 40
6.0
100
AcDbArc
 50
270.0
 51
0.0
  0
LINE
  5
F877
102
{ACAD_REACTORS
330
104ED
102
}
330
2
100
AcDbEntity
  8
VLB
100
AcDbLine
 10
10920.577617554
 20
624.4236374491584
 30
0.0
 11
10928.577617554
 21
624.4236374491584
 31
0.0
  0
LINE
  5
F878
102
{ACAD_REACTORS
330
104ED
102
}
330
2
100
AcDbEntity
  8
VLB
100
AcDbLine
 10
10928.577617554
 20
583.4236374491584
 30
0.0
 11
10920.577617554
 21
583.4236374491584
 31
0.0
  0
LINE
  5
F879
102
{ACAD_REACTORS
330
104ED
102
}
330
2
100
AcDbEntity
  8
VLB
100
AcDbLine
 10
10928.577617554
 20
580.4236374491565
 30
0.0
 11
10920.577617554
 21
580.4236374491583
 31
0.0
  0
LINE
  5
F87A
102
{ACAD_REACTORS
330
104ED
102
}
330
2
100
AcDbEntity
  8
VLB
100
AcDbLine
 10
10920.577617554
 20
602.4236374491583
 30
0.0
 11
10928.577617554
 21
602.4236374491583
 31
0.0
  0
LINE
  5
F87B
102
{ACAD_REACTORS
330
104ED
102
}
330
2
100
AcDbEntity
  8
VLB
100
AcDbLine
 10
10928.577617554
 20
591.4236374491565
 30
0.0
 11
10920.577617554
 21
591.4236374491584
 31
0.0
  0
LINE
  5
F87C
102
{ACAD_REACTORS
330
104ED
102
}
330
2
100
AcDbEntity
  8
VLB
100
AcDbLine
 10
10928.577617554
 20
594.4236374491583
 30
0.0
 11
10920.577617554
 21
594.4236374491583
 31
0.0
  0
LINE
  5
F87D
102
{ACAD_REACTORS
330
104ED
102
}
330
2
100
AcDbEntity
  8
VLB
100
AcDbLine
 10
10928.577617554
 20
613.4236374491583
 30
0.0
 11
10920.577617554
 21
613.4236374491583
 31
0.0
  0
LINE
  5
F87E
102
{ACAD_REACTORS
330
104ED
102
}
330
2
100
AcDbEntity
  8
VLB
100
AcDbLine
 10
10928.577617554
 20
605.4236374491583
 30
0.0
 11
10920.577617554
 21
605.4236374491601
 31
0.0
  0
LINE
  5
F87F
102
{ACAD_REACTORS
330
104ED
102
}
330
2
100
AcDbEntity
  8
VLB
100
AcDbLine
 10
10928.577617554
 20
616.4236374491584
 30
0.0
 11
10920.577617554
 21
616.4236374491601
 31
0.0
  0
LINE
  5
F880
102
{ACAD_REACTORS
330
104ED
102
}
330
2
100
AcDbEntity
  8
VLB
100
AcDbLine
 10
10898.577617554
 20
605.4236374491583
 30
0.0
 11
10898.577617554
 21
613.4236374491583
 31
0.0
  0
LINE
  5
F881
102
{ACAD_REACTORS
330
104ED
102
}
330
2
100
AcDbEntity
  8
VLB
100
AcDbLine
 10
10895.577617554
 20
605.4236374491583
 30
0.0
 11
10895.577617554
 21
613.4236374491583
 31
0.0
  0
LINE
  5
F882
102
{ACAD_REACTORS
330
104ED
102
}
330
2
100
AcDbEntity
  8
VLB
100
AcDbLine
 10
10917.577617554
 20
605.4236374491583
 30
0.0
 11
10917.577617554
 21
613.4236374491583
 31
0.0
  0
LINE
  5
F883
102
{ACAD_REACTORS
330
104ED
102
}
330
2
100
AcDbEntity
  8
VLB
100
AcDbLine
 10
10909.577617554
 20
605.4236374491583
 30
0.0
 11
10909.577617554
 21
613.4236374491583
 31
0.0
  0
LINE
  5
F884
102
{ACAD_REACTORS
330
104ED
102
}
330
2
100
AcDbEntity
  8
VLB
100
AcDbLine
 10
10906.577617554
 20
605.4236374491583
 30
0.0
 11
10906.577617554
 21
613.4236374491583
 31
0.0
  0
LINE
  5
F885
102
{ACAD_REACTORS
330
104ED
102
}
330
2
100
AcDbEntity
  8
VLB
100
AcDbLine
 10
10920.577617554
 20
605.4236374491583
 30
0.0
 11
10920.577617554
 21
613.4236374491583
 31
0.0
  0
LINE
  5
F886
102
{ACAD_REACTORS
330
104ED
102
}
330
2
100
AcDbEntity
  8
VLB
100
AcDbLine
 10
10898.577617554
 20
624.4236374491602
 30
0.0
 11
10906.577617554
 21
624.4236374491584
 31
0.0
  0
LINE
  5
F887
102
{ACAD_REACTORS
330
104ED
102
}
330
2
100
AcDbEntity
  8
VLB
100
AcDbLine
 10
10906.577617554
 20
613.4236374491583
 30
0.0
 11
10898.577617554
 21
613.4236374491583
 31
0.0
  0
LINE
  5
F888
102
{ACAD_REACTORS
330
104ED
102
}
330
2
100
AcDbEntity
  8
VLB
100
AcDbLine
 10
10906.577617554
 20
616.4236374491584
 30
0.0
 11
10898.577617554
 21
616.4236374491601
 31
0.0
  0
LINE
  5
F889
102
{ACAD_REACTORS
330
104ED
102
}
330
2
100
AcDbEntity
  8
VLB
100
AcDbLine
 10
10898.577617554
 20
616.4236374491584
 30
0.0
 11
10898.577617554
 21
624.4236374491602
 31
0.0
  0
LINE
  5
F88A
102
{ACAD_REACTORS
330
104ED
102
}
330
2
100
AcDbEntity
  8
VLB
100
AcDbLine
 10
10895.577617554
 20
616.4236374491584
 30
0.0
 11
10895.577617554
 21
624.4236374491602
 31
0.0
  0
LINE
  5
F88B
102
{ACAD_REACTORS
330
104ED
102
}
330
2
100
AcDbEntity
  8
VLB
100
AcDbLine
 10
10906.577617554
 20
616.4236374491584
 30
0.0
 11
10906.577617554
 21
624.4236374491584
 31
0.0
  0
LINE
  5
F88C
102
{ACAD_REACTORS
330
104ED
102
}
330
2
100
AcDbEntity
  8
VLB
100
AcDbLine
 10
10909.577617554
 20
624.4236374491584
 30
0.0
 11
10917.577617554
 21
624.4236374491584
 31
0.0
  0
LINE
  5
F88D
102
{ACAD_REACTORS
330
104ED
102
}
330
2
100
AcDbEntity
  8
VLB
100
AcDbLine
 10
10917.577617554
 20
613.4236374491583
 30
0.0
 11
10909.577617554
 21
613.4236374491583
 31
0.0
  0
LINE
  5
F88E
102
{ACAD_REACTORS
330
104ED
102
}
330
2
100
AcDbEntity
  8
VLB
100
AcDbLine
 10
10917.577617554
 20
616.4236374491584
 30
0.0
 11
10909.577617554
 21
616.4236374491601
 31
0.0
  0
LINE
  5
F88F
102
{ACAD_REACTORS
330
104ED
102
}
330
2
100
AcDbEntity
  8
VLB
100
AcDbLine
 10
10917.577617554
 20
616.4236374491584
 30
0.0
 11
10917.577617554
 21
624.4236374491584
 31
0.0
  0
LINE
  5
F890
102
{ACAD_REACTORS
330
104ED
102
}
330
2
100
AcDbEntity
  8
VLB
100
AcDbLine
 10
10909.577617554
 20
616.4236374491584
 30
0.0
 11
10909.577617554
 21
624.4236374491584
 31
0.0
  0
LINE
  5
F891
102
{ACAD_REACTORS
330
104ED
102
}
330
2
100
AcDbEntity
  8
VLB
100
AcDbLine
 10
10920.577617554
 20
616.4236374491584
 30
0.0
 11
10920.577617554
 21
624.4236374491584
 31
0.0
  0
LINE
  5
F892
102
{ACAD_REACTORS
330
104ED
102
}
330
2
100
AcDbEntity
  8
VLB
100
AcDbLine
 10
10895.577617554
 20
594.4236374491583
 30
0.0
 11
10895.577617554
 21
602.4236374491583
 31
0.0
  0
LINE
  5
F893
102
{ACAD_REACTORS
330
104ED
102
}
330
2
100
AcDbEntity
  8
VLB
100
AcDbLine
 10
10906.577617554
 20
594.4236374491583
 30
0.0
 11
10906.577617554
 21
602.4236374491583
 31
0.0
  0
LINE
  5
F894
102
{ACAD_REACTORS
330
104ED
102
}
330
2
100
AcDbEntity
  8
VLB
100
AcDbLine
 10
10898.577617554
 20
594.4236374491583
 30
0.0
 11
10898.577617554
 21
602.4236374491583
 31
0.0
  0
LINE
  5
F895
102
{ACAD_REACTORS
330
104ED
102
}
330
2
100
AcDbEntity
  8
VLB
100
AcDbLine
 10
10906.577617554
 20
594.4236374491583
 30
0.0
 11
10898.577617554
 21
594.4236374491583
 31
0.0
  0
LINE
  5
F896
102
{ACAD_REACTORS
330
104ED
102
}
330
2
100
AcDbEntity
  8
VLB
100
AcDbLine
 10
10898.577617554
 20
602.4236374491583
 30
0.0
 11
10906.577617554
 21
602.4236374491583
 31
0.0
  0
LINE
  5
F897
102
{ACAD_REACTORS
330
104ED
102
}
330
2
100
AcDbEntity
  8
VLB
100
AcDbLine
 10
10906.577617554
 20
605.4236374491583
 30
0.0
 11
10898.577617554
 21
605.4236374491601
 31
0.0
  0
LINE
  5
F898
102
{ACAD_REACTORS
330
104ED
102
}
330
2
100
AcDbEntity
  8
VLB
100
AcDbLine
 10
10895.577617554
 20
583.4236374491584
 30
0.0
 11
10895.577617554
 21
591.4236374491584
 31
0.0
  0
LINE
  5
F899
102
{ACAD_REACTORS
330
104ED
102
}
330
2
100
AcDbEntity
  8
VLB
100
AcDbLine
 10
10906.577617554
 20
583.4236374491584
 30
0.0
 11
10906.577617554
 21
591.4236374491584
 31
0.0
  0
LINE
  5
F89A
102
{ACAD_REACTORS
330
104ED
102
}
330
2
100
AcDbEntity
  8
VLB
100
AcDbLine
 10
10898.577617554
 20
583.4236374491584
 30
0.0
 11
10898.577617554
 21
591.4236374491584
 31
0.0
  0
LINE
  5
F89B
102
{ACAD_REACTORS
330
104ED
102
}
330
2
100
AcDbEntity
  8
VLB
100
AcDbLine
 10
10906.577617554
 20
580.4236374491565
 30
0.0
 11
10898.577617554
 21
580.4236374491583
 31
0.0
  0
LINE
  5
F89C
102
{ACAD_REACTORS
330
104ED
102
}
330
2
100
AcDbEntity
  8
VLB
100
AcDbLine
 10
10906.577617554
 20
583.4236374491584
 30
0.0
 11
10898.577617554
 21
583.4236374491584
 31
0.0
  0
LINE
  5
F89D
102
{ACAD_REACTORS
330
104ED
102
}
330
2
100
AcDbEntity
  8
VLB
100
AcDbLine
 10
10906.577617554
 20
591.4236374491565
 30
0.0
 11
10898.577617554
 21
591.4236374491584
 31
0.0
  0
LINE
  5
F89E
102
{ACAD_REACTORS
330
104ED
102
}
330
2
100
AcDbEntity
  8
VLB
100
AcDbLine
 10
10917.577617554
 20
594.4236374491583
 30
0.0
 11
10909.577617554
 21
594.4236374491583
 31
0.0
  0
LINE
  5
F89F
102
{ACAD_REACTORS
330
104ED
102
}
330
2
100
AcDbEntity
  8
VLB
100
AcDbLine
 10
10909.577617554
 20
602.4236374491583
 30
0.0
 11
10917.577617554
 21
602.4236374491583
 31
0.0
  0
LINE
  5
F8A0
102
{ACAD_REACTORS
330
104ED
102
}
330
2
100
AcDbEntity
  8
VLB
100
AcDbLine
 10
10909.577617554
 20
594.4236374491583
 30
0.0
 11
10909.577617554
 21
602.4236374491583
 31
0.0
  0
LINE
  5
F8A1
102
{ACAD_REACTORS
330
104ED
102
}
330
2
100
AcDbEntity
  8
VLB
100
AcDbLine
 10
10920.577617554
 20
594.4236374491583
 30
0.0
 11
10920.577617554
 21
602.4236374491583
 31
0.0
  0
LINE
  5
F8A2
102
{ACAD_REACTORS
330
104ED
102
}
330
2
100
AcDbEntity
  8
VLB
100
AcDbLine
 10
10917.577617554
 20
594.4236374491583
 30
0.0
 11
10917.577617554
 21
602.4236374491583
 31
0.0
  0
LINE
  5
F8A3
102
{ACAD_REACTORS
330
104ED
102
}
330
2
100
AcDbEntity
  8
VLB
100
AcDbLine
 10
10917.577617554
 20
605.4236374491583
 30
0.0
 11
10909.577617554
 21
605.4236374491601
 31
0.0
  0
LINE
  5
F8A4
102
{ACAD_REACTORS
330
104ED
102
}
330
2
100
AcDbEntity
  8
VLB
100
AcDbLine
 10
10917.577617554
 20
580.4236374491565
 30
0.0
 11
10909.577617554
 21
580.4236374491583
 31
0.0
  0
LINE
  5
F8A5
102
{ACAD_REACTORS
330
104ED
102
}
330
2
100
AcDbEntity
  8
VLB
100
AcDbLine
 10
10917.577617554
 20
583.4236374491584
 30
0.0
 11
10909.577617554
 21
583.4236374491584
 31
0.0
  0
LINE
  5
F8A6
102
{ACAD_REACTORS
330
104ED
102
}
330
2
100
AcDbEntity
  8
VLB
100
AcDbLine
 10
10917.577617554
 20
591.4236374491565
 30
0.0
 11
10909.577617554
 21
591.4236374491584
 31
0.0
  0
LINE
  5
F8A7
102
{ACAD_REACTORS
330
104ED
102
}
330
2
100
AcDbEntity
  8
VLB
100
AcDbLine
 10
10909.577617554
 20
583.4236374491584
 30
0.0
 11
10909.577617554
 21
591.4236374491584
 31
0.0
  0
LINE
  5
F8A8
102
{ACAD_REACTORS
330
104ED
102
}
330
2
100
AcDbEntity
  8
VLB
100
AcDbLine
 10
10920.577617554
 20
583.4236374491584
 30
0.0
 11
10920.577617554
 21
591.4236374491584
 31
0.0
  0
LINE
  5
F8A9
102
{ACAD_REACTORS
330
104ED
102
}
330
2
100
AcDbEntity
  8
VLB
100
AcDbLine
 10
10917.577617554
 20
583.4236374491584
 30
0.0
 11
10917.577617554
 21
591.4236374491584
 31
0.0
  0
LINE
  5
F8AA
102
{ACAD_REACTORS
330
104ED
102
}
330
2
100
AcDbEntity
  8
VLB
100
AcDbLine
 10
10928.577617554
 20
605.4236374491583
 30
0.0
 11
10928.577617554
 21
613.4236374491583
 31
0.0
  0
LINE
  5
F8AB
102
{ACAD_REACTORS
330
104ED
102
}
330
2
100
AcDbEntity
  8
VLB
100
AcDbLine
 10
10932.577617554
 20
575.4236374491511
 30
0.0
 11
10932.577617554
 21
628.9236374491584
 31
0.0
  0
LINE
  5
F8AC
102
{ACAD_REACTORS
330
104ED
102
}
330
2
100
AcDbEntity
  8
SPS
100
AcDbLine
 10
10943.077617554
 20
619.4236374491583
 30
0.0
 11
10931.577617554
 21
619.4236374491583
 31
0.0
  0
LINE
  5
F8AD
102
{ACAD_REACTORS
330
104ED
102
}
330
2
100
AcDbEntity
  8
VLB
100
AcDbLine
 10
10938.077617554
 20
628.9236374491584
 30
0.0
 11
10938.077617554
 21
612.4236374491584
 31
0.0
  0
LINE
  5
F8AE
102
{ACAD_REACTORS
330
104ED
102
}
330
2
100
AcDbEntity
  8
VLB
100
AcDbLine
 10
10936.577617554
 20
612.4236374491584
 30
0.0
 11
10936.577617554
 21
627.4236374491583
 31
0.0
  0
LINE
  5
F8AF
102
{ACAD_REACTORS
330
104ED
102
}
330
2
100
AcDbEntity
  8
VLB
100
AcDbLine
 10
10936.577617554
 20
627.4236374491583
 30
0.0
 11
10932.577617554
 21
627.4236374491583
 31
0.0
  0
LINE
  5
F8B0
102
{ACAD_REACTORS
330
104ED
102
}
330
2
100
AcDbEntity
  8
VLB
100
AcDbLine
 10
10938.077617554
 20
612.4236374491584
 30
0.0
 11
10936.577617554
 21
612.4236374491584
 31
0.0
  0
LINE
  5
F8B1
102
{ACAD_REACTORS
330
104ED
102
}
330
2
100
AcDbEntity
  8
VLB
100
AcDbLine
 10
10928.577617554
 20
616.4236374491584
 30
0.0
 11
10928.577617554
 21
624.4236374491584
 31
0.0
  0
LINE
  5
F8B2
102
{ACAD_REACTORS
330
104ED
102
}
330
2
100
AcDbEntity
  8
VLB
100
AcDbLine
 10
10928.577617554
 20
594.4236374491583
 30
0.0
 11
10928.577617554
 21
602.4236374491583
 31
0.0
  0
LINE
  5
F8B3
102
{ACAD_REACTORS
330
104ED
102
}
330
2
100
AcDbEntity
  8
VLB
100
AcDbLine
 10
10928.577617554
 20
583.4236374491584
 30
0.0
 11
10928.577617554
 21
591.4236374491584
 31
0.0
  0
LINE
  5
F8B4
102
{ACAD_REACTORS
330
104ED
102
}
330
2
100
AcDbEntity
  8
VLB
100
AcDbLine
 10
10928.577617554
 20
572.4236374491583
 30
0.0
 11
10920.577617554
 21
572.4236374491583
 31
0.0
  0
LINE
  5
F8B5
102
{ACAD_REACTORS
330
104ED
102
}
330
2
100
AcDbEntity
  8
VLB
100
AcDbLine
 10
10906.577617554
 20
572.4236374491583
 30
0.0
 11
10898.577617554
 21
572.4236374491583
 31
0.0
  0
LINE
  5
F8B6
102
{ACAD_REACTORS
330
104ED
102
}
330
2
100
AcDbEntity
  8
VLB
100
AcDbLine
 10
10917.577617554
 20
572.4236374491583
 30
0.0
 11
10909.577617554
 21
572.4236374491583
 31
0.0
  0
LINE
  5
F927
102
{ACAD_REACTORS
330
F930
102
}
330
2
100
AcDbEntity
  8
VLB
100
AcDbLine
 10
10933.41237621865
 20
562.4236374491584
 30
0.0
 11
10933.41237621865
 21
627.4236374491583
 31
0.0
  0
LINE
  5
F928
102
{ACAD_REACTORS
330
F930
102
}
330
2
100
AcDbEntity
  8
VLB
100
AcDbLine
 10
10935.91237621865
 20
564.9236374491583
 30
0.0
 11
10935.91237621865
 21
627.4236374491583
 31
0.0
  0
LINE
  5
F929
102
{ACAD_REACTORS
330
F930
102
}
330
2
100
AcDbEntity
  8
VLB
100
AcDbLine
 10
10933.41237621865
 20
562.4236374491584
 30
0.0
 11
10963.41237621865
 21
562.4236374491584
 31
0.0
  0
LINE
  5
F92A
102
{ACAD_REACTORS
330
F930
102
}
330
2
100
AcDbEntity
  8
VLB
100
AcDbLine
 10
10935.91237621865
 20
564.9236374491583
 30
0.0
 11
10963.41237621865
 21
564.9236374491583
 31
0.0
  0
LINE
  5
F92B
102
{ACAD_REACTORS
330
F930
102
}
330
2
100
AcDbEntity
  8
SPS
100
AcDbLine
 10
10948.41237621865
 20
569.9236374491583
 30
0.0
 11
10948.41237621865
 21
557.5920997332823
 31
0.0
  0
LINE
  5
F92C
102
{ACAD_REACTORS
330
F930
102
}
330
2
100
AcDbEntity
  8
VLB
100
AcDbLine
 10
10963.41237621865
 20
562.4236374491584
 30
0.0
 11
10963.41237621865
 21
564.9236374491583
 31
0.0
  0
LINE
  5
F92D
102
{ACAD_REACTORS
330
F930
102
}
330
2
100
AcDbEntity
  8
SPS
100
AcDbLine
 10
10928.41237621865
 20
607.4236374491583
 30
0.0
 11
10940.91237621865
 21
607.4236374491583
 31
0.0
  0
LINE
  5
F92E
102
{ACAD_REACTORS
330
F930
102
}
330
2
100
AcDbEntity
  8
SPS
100
AcDbLine
 10
10928.41237621865
 20
619.4236374491583
 30
0.0
 11
10940.91237621865
 21
619.4236374491583
 31
0.0
  0
LINE
  5
F92F
102
{ACAD_REACTORS
330
F930
102
}
330
2
100
AcDbEntity
  8
VLB
100
AcDbLine
 10
10933.41237621865
 20
627.4236374491583
 30
0.0
 11
10935.91237621865
 21
627.4236374491583
 31
0.0
  0
LINE
  5
104E4
102
{ACAD_REACTORS
330
104ED
102
}
330
2
100
AcDbEntity
  8
VLB
100
AcDbLine
 10
10769.077617554
 20
607.4236374491606
 30
0.0
 11
10769.077617554
 21
575.4236374491624
 31
0.0
  0
ARC
  5
104E5
102
{ACAD_REACTORS
330
104ED
102
}
330
2
100
AcDbEntity
  8
VLB
100
AcDbCircle
 10
10763.077617554
 20
575.4236374491626
 30
0.0
 40
6.0
100
AcDbArc
 50
270.0
 51
0.0
  0
LINE
  5
104E6
102
{ACAD_REACTORS
330
104ED
102
}
330
2
100
AcDbEntity
  8
SPS
100
AcDbLine
 10
10799.077617554
 20
607.4236374491588
 30
0.0
 11
10764.077617554
 21
607.4236374491625
 31
0.0
  0
ARC
  5
104E7
102
{ACAD_REACTORS
330
104ED
102
}
330
2
100
AcDbEntity
  8
VLB
100
AcDbCircle
 10
10781.577617554
 20
607.4236374491609
 30
0.0
 40
12.5
100
AcDbArc
 50
0.0
 51
180.0
  0
LINE
  5
104E8
102
{ACAD_REACTORS
330
104ED
102
}
330
2
100
AcDbEntity
  8
VLB
100
AcDbLine
 10
10794.077617554
 20
607.4236374491588
 30
0.0
 11
10794.077617554
 21
575.4236374491624
 31
0.0
  0
ARC
  5
104E9
102
{ACAD_REACTORS
330
104ED
102
}
330
2
100
AcDbEntity
  8
VLB
100
AcDbCircle
 10
10800.077617554
 20
575.4236374491626
 30
0.0
 40
6.0
100
AcDbArc
 50
180.0
 51
270.0
  0
LINE
  5
104EA
102
{ACAD_REACTORS
330
104ED
102
}
330
2
100
AcDbEntity
  8
VLB
100
AcDbLine
 10
10763.077617554
 20
569.4236374491603
 30
0.0
 11
10636.577617554
 21
569.4236374491675
 31
0.0
  0
LINE
  5
1057A
102
{ACAD_REACTORS
330
10817
102
}
330
2
100
AcDbEntity
  8
VLB
100
AcDbLine
 10
10963.41237621865
 20
-166.0763625508416
 30
0.0
 11
10963.41237621865
 21
-602.0763625508417
 31
0.0
  0
LINE
  5
1057B
102
{ACAD_REACTORS
330
10817
102
}
330
2
100
AcDbEntity
  8
VLB
100
AcDbLine
 10
10963.41237621865
 20
-166.0763625508416
 30
0.0
 11
10938.077617554
 21
-166.0763625508415
 31
0.0
  0
LINE
  5
1057D
102
{ACAD_REACTORS
330
10817
102
}
330
2
100
AcDbEntity
  8
VLB
100
AcDbLine
 10
10938.077617554
 20
-166.0763625508415
 30
0.0
 11
10938.077617554
 21
-602.0763625508416
 31
0.0
  0
LINE
  5
10580
102
{ACAD_REACTORS
330
10817
102
}
330
2
100
AcDbEntity
  8
VLB
100
AcDbLine
 10
10963.41237621865
 20
-602.0763625508416
 30
0.0
 11
10938.077617554
 21
-602.0763625508416
 31
0.0
  0
LINE
  5
10582
102
{ACAD_REACTORS
330
10817
102
}
330
2
100
AcDbEntity
  8
VLB
100
AcDbLine
 10
10932.577617554
 20
-164.0763625508416
 30
0.0
 11
10932.577617554
 21
-169.0763625508416
 31
0.0
  0
LINE
  5
10584
102
{ACAD_REACTORS
330
10817
102
}
330
2
100
AcDbEntity
  8
VLB
100
AcDbLine
 10
10938.077617554
 20
-169.0763625508416
 30
0.0
 11
10932.577617554
 21
-169.0763625508416
 31
0.0
  0
LINE
  5
107DF
102
{ACAD_REACTORS
330
10817
102
}
330
2
100
AcDbEntity
  8
VLB
100
AcDbLine
 10
10932.577617554
 20
-604.0763625508416
 30
0.0
 11
10932.577617554
 21
-599.0763625508416
 31
0.0
  0
LINE
  5
107E0
102
{ACAD_REACTORS
330
10817
102
}
330
2
100
AcDbEntity
  8
VLB
100
AcDbLine
 10
10938.077617554
 20
-599.0763625508416
 30
0.0
 11
10932.577617554
 21
-599.0763625508416
 31
0.0
  0
LINE
  5
107EC
102
{ACAD_REACTORS
330
10817
102
}
330
2
100
AcDbEntity
  8
SPS
100
AcDbLine
 10
10948.41237621865
 20
-232.126362550842
 30
0.0
 11
10948.41237621865
 21
-214.0263625508398
 31
0.0
  0
LINE
  5
107ED
102
{ACAD_REACTORS
330
10817
102
}
330
2
100
AcDbEntity
  8
SPS
100
AcDbLine
 10
10933.077617554
 20
-223.0763625508409
 30
0.0
 11
10957.46237621865
 21
-223.0763625508409
 31
0.0
  0
CIRCLE
  5
107EE
102
{ACAD_REACTORS
330
10817
102
}
330
2
100
AcDbEntity
  8
VLB
100
AcDbCircle
 10
10948.41237621865
 20
-223.0763625508416
 30
0.0
 40
3.399999999999999
  0
LINE
  5
107EF
102
{ACAD_REACTORS
330
10817
102
}
330
2
100
AcDbEntity
  8
SPS
100
AcDbLine
 10
10939.36237621865
 20
-330.0763625508416
 30
0.0
 11
10957.46237621865
 21
-330.0763625508416
 31
0.0
  0
CIRCLE
  5
107F0
102
{ACAD_REACTORS
330
10817
102
}
330
2
100
AcDbEntity
  8
VLB
100
AcDbCircle
 10
10948.41237621865
 20
-330.0763625508423
 30
0.0
 40
3.399999999999999
  0
LINE
  5
107F1
102
{ACAD_REACTORS
330
10817
102
}
330
2
100
AcDbEntity
  8
SPS
100
AcDbLine
 10
10948.41237621865
 20
-339.1263625508427
 30
0.0
 11
10948.41237621865
 21
-321.0263625508405
 31
0.0
  0
LINE
  5
107F3
102
{ACAD_REACTORS
330
10817
102
}
330
2
100
AcDbEntity
  8
SPS
100
AcDbLine
 10
10933.077617554
 20
-438.0763625508416
 30
0.0
 11
10957.46237621865
 21
-438.0763625508416
 31
0.0
  0
LINE
  5
107F4
102
{ACAD_REACTORS
330
10817
102
}
330
2
100
AcDbEntity
  8
SPS
100
AcDbLine
 10
10948.41237621865
 20
-429.0263625508405
 30
0.0
 11
10948.41237621865
 21
-447.1263625508426
 31
0.0
  0
CIRCLE
  5
107F5
102
{ACAD_REACTORS
330
10817
102
}
330
2
100
AcDbEntity
  8
VLB
100
AcDbCircle
 10
10948.41237621865
 20
-438.0763625508409
 30
0.0
 40
3.399999999999999
  0
LINE
  5
107F6
102
{ACAD_REACTORS
330
10817
102
}
330
2
100
AcDbEntity
  8
SPS
100
AcDbLine
 10
10939.36237621865
 20
-545.0763625508423
 30
0.0
 11
10957.46237621865
 21
-545.0763625508423
 31
0.0
  0
CIRCLE
  5
107F7
102
{ACAD_REACTORS
330
10817
102
}
330
2
100
AcDbEntity
  8
VLB
100
AcDbCircle
 10
10948.41237621865
 20
-545.0763625508415
 30
0.0
 40
3.399999999999999
  0
LINE
  5
107F8
102
{ACAD_REACTORS
330
10817
102
}
330
2
100
AcDbEntity
  8
SPS
100
AcDbLine
 10
10948.41237621865
 20
-536.0263625508411
 30
0.0
 11
10948.41237621865
 21
-554.1263625508434
 31
0.0
  0
LINE
  5
107F9
102
{ACAD_REACTORS
330
10817
102
}
330
2
100
AcDbEntity
  8
SPS
100
AcDbLine
 10
10943.077617554
 20
-179.0763625508416
 30
0.0
 11
10933.077617554
 21
-179.0763625508416
 31
0.0
  0
LINE
  5
107FD
102
{ACAD_REACTORS
330
10817
102
}
330
2
100
AcDbEntity
  8
SPS
100
AcDbLine
 10
10943.077617554
 20
-589.0763625508416
 30
0.0
 11
10933.077617554
 21
-589.0763625508416
 31
0.0
  0
LINE
  5
107FE
102
{ACAD_REACTORS
330
10817
102
}
330
2
100
AcDbEntity
  8
SPS
100
AcDbLine
 10
10614.74285888935
 20
-536.0263625508411
 30
0.0
 11
10614.74285888935
 21
-554.1263625508434
 31
0.0
  0
LINE
  5
107FF
102
{ACAD_REACTORS
330
10817
102
}
330
2
100
AcDbEntity
  8
VLB
100
AcDbLine
 10
10625.077617554
 20
-166.0763625508415
 30
0.0
 11
10625.077617554
 21
-602.0763625508416
 31
0.0
  0
LINE
  5
10800
102
{ACAD_REACTORS
330
10817
102
}
330
2
100
AcDbEntity
  8
VLB
100
AcDbLine
 10
10599.74285888935
 20
-166.0763625508416
 30
0.0
 11
10599.74285888935
 21
-602.0763625508417
 31
0.0
  0
LINE
  5
10801
102
{ACAD_REACTORS
330
10817
102
}
330
2
100
AcDbEntity
  8
VLB
100
AcDbLine
 10
10599.74285888935
 20
-602.0763625508416
 30
0.0
 11
10625.077617554
 21
-602.0763625508416
 31
0.0
  0
LINE
  5
10802
102
{ACAD_REACTORS
330
10817
102
}
330
2
100
AcDbEntity
  8
SPS
100
AcDbLine
 10
10620.077617554
 20
-589.0763625508416
 30
0.0
 11
10630.077617554
 21
-589.0763625508416
 31
0.0
  0
LINE
  5
10803
102
{ACAD_REACTORS
330
10817
102
}
330
2
100
AcDbEntity
  8
VLB
100
AcDbLine
 10
10625.077617554
 20
-599.0763625508416
 30
0.0
 11
10630.577617554
 21
-599.0763625508416
 31
0.0
  0
LINE
  5
10804
102
{ACAD_REACTORS
330
10817
102
}
330
2
100
AcDbEntity
  8
VLB
100
AcDbLine
 10
10630.577617554
 20
-604.0763625508416
 30
0.0
 11
10630.577617554
 21
-599.0763625508416
 31
0.0
  0
LINE
  5
10805
102
{ACAD_REACTORS
330
10817
102
}
330
2
100
AcDbEntity
  8
SPS
100
AcDbLine
 10
10614.74285888935
 20
-429.0263625508405
 30
0.0
 11
10614.74285888935
 21
-447.1263625508426
 31
0.0
  0
LINE
  5
10806
102
{ACAD_REACTORS
330
10817
102
}
330
2
100
AcDbEntity
  8
SPS
100
AcDbLine
 10
10630.077617554
 20
-438.0763625508416
 30
0.0
 11
10605.69285888935
 21
-438.0763625508416
 31
0.0
  0
LINE
  5
10807
102
{ACAD_REACTORS
330
10817
102
}
330
2
100
AcDbEntity
  8
SPS
100
AcDbLine
 10
10623.79285888935
 20
-545.0763625508423
 30
0.0
 11
10605.69285888935
 21
-545.0763625508423
 31
0.0
  0
CIRCLE
  5
10808
102
{ACAD_REACTORS
330
10817
102
}
330
2
100
AcDbEntity
  8
VLB
100
AcDbCircle
 10
10614.74285888935
 20
-545.0763625508415
 30
0.0
 40
3.399999999999999
  0
CIRCLE
  5
10809
102
{ACAD_REACTORS
330
10817
102
}
330
2
100
AcDbEntity
  8
VLB
100
AcDbCircle
 10
10614.74285888935
 20
-438.0763625508409
 30
0.0
 40
3.399999999999999
  0
LINE
  5
1080A
102
{ACAD_REACTORS
330
10817
102
}
330
2
100
AcDbEntity
  8
SPS
100
AcDbLine
 10
10623.79285888935
 20
-330.0763625508416
 30
0.0
 11
10605.69285888935
 21
-330.0763625508416
 31
0.0
  0
LINE
  5
1080B
102
{ACAD_REACTORS
330
10817
102
}
330
2
100
AcDbEntity
  8
SPS
100
AcDbLine
 10
10614.74285888935
 20
-339.1263625508427
 30
0.0
 11
10614.74285888935
 21
-321.0263625508405
 31
0.0
  0
CIRCLE
  5
1080C
102
{ACAD_REACTORS
330
10817
102
}
330
2
100
AcDbEntity
  8
VLB
100
AcDbCircle
 10
10614.74285888935
 20
-330.0763625508423
 30
0.0
 40
3.399999999999999
  0
LINE
  5
1080D
102
{ACAD_REACTORS
330
10817
102
}
330
2
100
AcDbEntity
  8
SPS
100
AcDbLine
 10
10630.07761755401
 20
-223.0763625508409
 30
0.0
 11
10605.69285888935
 21
-223.0763625508409
 31
0.0
  0
CIRCLE
  5
1080E
102
{ACAD_REACTORS
330
10817
102
}
330
2
100
AcDbEntity
  8
VLB
100
AcDbCircle
 10
10614.74285888935
 20
-223.0763625508416
 30
0.0
 40
3.399999999999999
  0
LINE
  5
1080F
102
{ACAD_REACTORS
330
10817
102
}
330
2
100
AcDbEntity
  8
SPS
100
AcDbLine
 10
10614.74285888935
 20
-232.126362550842
 30
0.0
 11
10614.74285888935
 21
-214.0263625508398
 31
0.0
  0
LINE
  5
10810
102
{ACAD_REACTORS
330
10817
102
}
330
2
100
AcDbEntity
  8
VLB
100
AcDbLine
 10
10599.74285888935
 20
-166.0763625508416
 30
0.0
 11
10625.077617554
 21
-166.0763625508415
 31
0.0
  0
LINE
  5
10811
102
{ACAD_REACTORS
330
10817
102
}
330
2
100
AcDbEntity
  8
SPS
100
AcDbLine
 10
10620.077617554
 20
-179.0763625508416
 30
0.0
 11
10630.077617554
 21
-179.0763625508416
 31
0.0
  0
LINE
  5
10812
102
{ACAD_REACTORS
330
10817
102
}
330
2
100
AcDbEntity
  8
VLB
100
AcDbLine
 10
10630.577617554
 20
-164.0763625508416
 30
0.0
 11
10630.577617554
 21
-169.0763625508416
 31
0.0
  0
LINE
  5
10813
102
{ACAD_REACTORS
330
10817
102
}
330
2
100
AcDbEntity
  8
VLB
100
AcDbLine
 10
10625.077617554
 20
-169.0763625508416
 30
0.0
 11
10630.577617554
 21
-169.0763625508416
 31
0.0
  0
LINE
  5
10815
102
{ACAD_REACTORS
330
10817
102
}
330
2
100
AcDbEntity
  8
VLB
100
AcDbLine
 10
10630.577617554
 20
-164.0763625508416
 30
0.0
 11
10932.577617554
 21
-164.0763625508416
 31
0.0
  0
LINE
  5
10816
102
{ACAD_REACTORS
330
10817
102
}
330
2
100
AcDbEntity
  8
VLB
100
AcDbLine
 10
10630.577617554
 20
-604.0763625508416
 30
0.0
 11
10932.577617554
 21
-604.0763625508416
 31
0.0
  0
LINE
  5
108D4
102
{ACAD_REACTORS
330
109DC
102
}
330
2
100
AcDbEntity
  8
VLB
100
AcDbLine
 10
10844.077617554
 20
136.6490454248853
 30
0.0
 11
10844.077617554
 21
214.4236374491585
 31
0.0
  0
LINE
  5
108D5
102
{ACAD_REACTORS
330
109DC
102
}
330
2
100
AcDbEntity
  8
VLB
100
AcDbLine
 10
10719.077617554
 20
136.6490454248852
 30
0.0
 11
10719.077617554
 21
214.4236374491577
 31
0.0
  0
LINE
  5
108DA
102
{ACAD_REACTORS
330
109DC
102
}
330
2
100
AcDbEntity
  8
SPS
100
AcDbLine
 10
10719.477617554
 20
100.9236374491576
 30
0.0
 11
10733.677617554
 21
100.9236374491576
 31
0.0
  0
LINE
  5
108DB
102
{ACAD_REACTORS
330
109DC
102
}
330
2
100
AcDbEntity
  8
VLB
100
AcDbLine
 10
10874.077617554
 20
35.92363744915724
 30
0.0
 11
10689.077617554
 21
35.92363744915951
 31
0.0
  0
LINE
  5
108DD
102
{ACAD_REACTORS
330
109DC
102
}
330
2
100
AcDbEntity
  8
VLB
100
AcDbLine
 10
10689.077617554
 20
65.92363744915633
 30
0.0
 11
10689.077617554
 21
35.92363744915678
 31
0.0
  0
LINE
  5
108DE
102
{ACAD_REACTORS
330
109DC
102
}
330
2
100
AcDbEntity
  8
VLB
100
AcDbLine
 10
10716.577617554
 20
35.9236374491586
 30
0.0
 11
10716.577617554
 21
136.6490454248853
 31
0.0
  0
CIRCLE
  5
108E1
102
{ACAD_REACTORS
330
109DC
102
}
330
2
100
AcDbEntity
  8
VLB
100
AcDbCircle
 10
10698.077617554
 20
50.92363744915861
 30
0.0
 40
3.399999999999999
  0
LINE
  5
108E2
102
{ACAD_REACTORS
330
109DC
102
}
330
2
100
AcDbEntity
  8
SPS
100
AcDbLine
 10
10706.477617554
 20
50.92363744915861
 30
0.0
 11
10689.077617554
 21
50.92363744915861
 31
0.0
  0
LINE
  5
108E3
102
{ACAD_REACTORS
330
109DC
102
}
330
2
100
AcDbEntity
  8
SPS
100
AcDbLine
 10
10698.077617554
 20
59.32363744915869
 30
0.0
 11
10698.077617554
 21
42.52363744915851
 31
0.0
  0
LINE
  5
108E4
102
{ACAD_REACTORS
330
109DC
102
}
330
2
100
AcDbEntity
  8
VLB
100
AcDbLine
 10
10689.077617554
 20
65.92363744915633
 30
0.0
 11
10716.577617554
 21
81.80076985187065
 31
0.0
  0
LINE
  5
108E5
102
{ACAD_REACTORS
330
109DC
102
}
330
2
100
AcDbEntity
  8
VLB
100
AcDbLine
 10
10719.077617554
 20
136.6490454248853
 30
0.0
 11
10716.577617554
 21
136.6490454248853
 31
0.0
  0
LINE
  5
108E6
102
{ACAD_REACTORS
330
109DC
102
}
330
2
100
AcDbEntity
  8
VLB
100
AcDbLine
 10
10874.077617554
 20
65.92363744915724
 30
0.0
 11
10874.077617554
 21
35.92363744915769
 31
0.0
  0
LINE
  5
108E8
102
{ACAD_REACTORS
330
109DC
102
}
330
2
100
AcDbEntity
  8
VLB
100
AcDbLine
 10
10846.577617554
 20
35.92363744915906
 30
0.0
 11
10846.577617554
 21
136.6490454248852
 31
0.0
  0
LINE
  5
108E9
102
{ACAD_REACTORS
330
109DC
102
}
330
2
100
AcDbEntity
  8
SPS
100
AcDbLine
 10
10733.477617554
 20
47.92363744915769
 30
0.0
 11
10747.677617554
 21
47.92363744915769
 31
0.0
  0
CIRCLE
  5
108EA
102
{ACAD_REACTORS
330
109DC
102
}
330
2
100
AcDbEntity
  8
VLB
100
AcDbCircle
 10
10740.577617554
 20
47.92363744915815
 30
0.0
 40
2.1
  0
LINE
  5
108EB
102
{ACAD_REACTORS
330
109DC
102
}
330
2
100
AcDbEntity
  8
SPS
100
AcDbLine
 10
10740.577617554
 20
40.82363744915733
 30
0.0
 11
10740.577617554
 21
55.02363744915806
 31
0.0
  0
LINE
  5
108EC
102
{ACAD_REACTORS
330
109DC
102
}
330
2
100
AcDbEntity
  8
SPS
100
AcDbLine
 10
10856.677617554
 20
50.92363744915951
 30
0.0
 11
10873.477617554
 21
50.92363744915951
 31
0.0
  0
CIRCLE
  5
108ED
102
{ACAD_REACTORS
330
109DC
102
}
330
2
100
AcDbEntity
  8
VLB
100
AcDbCircle
 10
10822.577617554
 20
47.92363744915815
 30
0.0
 40
2.1
  0
LINE
  5
108EE
102
{ACAD_REACTORS
330
109DC
102
}
330
2
100
AcDbEntity
  8
SPS
100
AcDbLine
 10
10822.577617554
 20
40.82363744915733
 30
0.0
 11
10822.577617554
 21
55.02363744915806
 31
0.0
  0
LINE
  5
108EF
102
{ACAD_REACTORS
330
109DC
102
}
330
2
100
AcDbEntity
  8
SPS
100
AcDbLine
 10
10815.477617554
 20
47.92363744915769
 30
0.0
 11
10829.677617554
 21
47.92363744915769
 31
0.0
  0
LINE
  5
108F0
102
{ACAD_REACTORS
330
109DC
102
}
330
2
100
AcDbEntity
  8
SPS
100
AcDbLine
 10
10865.077617554
 20
59.3236374491596
 30
0.0
 11
10865.077617554
 21
42.52363744915942
 31
0.0
  0
CIRCLE
  5
108F1
102
{ACAD_REACTORS
330
109DC
102
}
330
2
100
AcDbEntity
  8
VLB
100
AcDbCircle
 10
10865.077617554
 20
50.92363744915951
 30
0.0
 40
3.399999999999999
  0
LINE
  5
108F2
102
{ACAD_REACTORS
330
109DC
102
}
330
2
100
AcDbEntity
  8
SPS
100
AcDbLine
 10
10726.577617554
 20
93.82363744915734
 30
0.0
 11
10726.577617554
 21
108.023637449158
 31
0.0
  0
CIRCLE
  5
108F3
102
{ACAD_REACTORS
330
109DC
102
}
330
2
100
AcDbEntity
  8
VLB
100
AcDbCircle
 10
10726.577617554
 20
100.9236374491581
 30
0.0
 40
2.1
  0
CIRCLE
  5
108F4
102
{ACAD_REACTORS
330
109DC
102
}
330
2
100
AcDbEntity
  8
VLB
100
AcDbCircle
 10
10740.577617554
 20
153.9236374491581
 30
0.0
 40
2.1
  0
LINE
  5
108F5
102
{ACAD_REACTORS
330
109DC
102
}
330
2
100
AcDbEntity
  8
SPS
100
AcDbLine
 10
10740.577617554
 20
146.8236374491573
 30
0.0
 11
10740.577617554
 21
161.023637449158
 31
0.0
  0
LINE
  5
108F6
102
{ACAD_REACTORS
330
109DC
102
}
330
2
100
AcDbEntity
  8
SPS
100
AcDbLine
 10
10733.477617554
 20
153.9236374491576
 30
0.0
 11
10747.677617554
 21
153.9236374491576
 31
0.0
  0
LINE
  5
108F7
102
{ACAD_REACTORS
330
109DC
102
}
330
2
100
AcDbEntity
  8
VLB
100
AcDbLine
 10
10874.077617554
 20
65.92363744915406
 30
0.0
 11
10846.577617554
 21
81.80076985186657
 31
0.0
  0
LINE
  5
108F8
102
{ACAD_REACTORS
330
109DC
102
}
330
2
100
AcDbEntity
  8
SPS
100
AcDbLine
 10
10843.677617554
 20
100.9236374491576
 30
0.0
 11
10829.477617554
 21
100.9236374491576
 31
0.0
  0
CIRCLE
  5
108F9
102
{ACAD_REACTORS
330
109DC
102
}
330
2
100
AcDbEntity
  8
VLB
100
AcDbCircle
 10
10836.577617554
 20
100.9236374491581
 30
0.0
 40
2.1
  0
LINE
  5
108FA
102
{ACAD_REACTORS
330
109DC
102
}
330
2
100
AcDbEntity
  8
SPS
100
AcDbLine
 10
10836.577617554
 20
93.82363744915734
 30
0.0
 11
10836.577617554
 21
108.023637449158
 31
0.0
  0
CIRCLE
  5
108FB
102
{ACAD_REACTORS
330
109DC
102
}
330
2
100
AcDbEntity
  8
VLB
100
AcDbCircle
 10
10822.577617554
 20
153.9236374491581
 30
0.0
 40
2.1
  0
LINE
  5
108FC
102
{ACAD_REACTORS
330
109DC
102
}
330
2
100
AcDbEntity
  8
SPS
100
AcDbLine
 10
10822.577617554
 20
146.8236374491573
 30
0.0
 11
10822.577617554
 21
161.023637449158
 31
0.0
  0
LINE
  5
108FD
102
{ACAD_REACTORS
330
109DC
102
}
330
2
100
AcDbEntity
  8
SPS
100
AcDbLine
 10
10815.477617554
 20
153.9236374491576
 30
0.0
 11
10829.677617554
 21
153.9236374491576
 31
0.0
  0
LINE
  5
108FE
102
{ACAD_REACTORS
330
109DC
102
}
330
2
100
AcDbEntity
  8
VLB
100
AcDbLine
 10
10846.577617554
 20
136.6490454248853
 30
0.0
 11
10844.077617554
 21
136.6490454248853
 31
0.0
  0
LINE
  5
10900
102
{ACAD_REACTORS
330
109DC
102
}
330
2
100
AcDbEntity
  8
VLB
100
AcDbLine
 10
10844.077617554
 20
211.9236374491584
 30
0.0
 11
10794.577617554
 21
211.9236374491582
 31
0.0
  0
LINE
  5
10901
102
{ACAD_REACTORS
330
109DC
102
}
330
2
100
AcDbEntity
  8
VLB
100
AcDbLine
 10
10844.077617554
 20
214.4236374491585
 30
0.0
 11
10794.577617554
 21
214.4236374491582
 31
0.0
  0
LINE
  5
10902
102
{ACAD_REACTORS
330
109DC
102
}
330
2
100
AcDbEntity
  8
VLB
100
AcDbLine
 10
10766.577617554
 20
214.423637449159
 30
0.0
 11
10766.577617554
 21
211.923637449159
 31
0.0
  0
LINE
  5
10903
102
{ACAD_REACTORS
330
109DC
102
}
330
2
100
AcDbEntity
  8
VLB
100
AcDbLine
 10
10796.577617554
 20
214.4236374491567
 30
0.0
 11
10796.577617554
 21
211.9236374491567
 31
0.0
  0
LINE
  5
10907
102
{ACAD_REACTORS
330
109E0
102
}
330
2
100
AcDbEntity
  8
VLB
100
AcDbLine
 10
11830.80832427497
 20
211.9236374491638
 30
0.0
 11
11830.80832427497
 21
35.92363744916201
 31
0.0
  0
LINE
  5
10908
102
{ACAD_REACTORS
330
109E0
102
}
330
2
100
AcDbEntity
  8
VLB
100
AcDbLine
 10
11828.30832427497
 20
214.4236374491638
 30
0.0
 11
11828.30832427497
 21
136.6490454248924
 31
0.0
  0
LINE
  5
1090A
102
{ACAD_REACTORS
330
109E0
102
}
330
2
100
AcDbEntity
  8
VLB
100
AcDbLine
 10
11733.30832427497
 20
81.80076985187406
 30
0.0
 11
11733.30832427497
 21
35.92363744915747
 31
0.0
  0
LINE
  5
1090B
102
{ACAD_REACTORS
330
109E0
102
}
330
2
100
AcDbEntity
  8
VLB
100
AcDbLine
 10
11730.80832427497
 20
35.92363744915883
 30
0.0
 11
11730.80832427497
 21
81.8007698518768
 31
0.0
  0
LINE
  5
1090D
102
{ACAD_REACTORS
330
109E0
102
}
330
2
100
AcDbEntity
  8
VLB
100
AcDbLine
 10
11730.80832427497
 20
35.92363744915838
 30
0.0
 11
11830.80832427497
 21
35.92363744916247
 31
0.0
  0
LINE
  5
1090E
102
{ACAD_REACTORS
330
109E0
102
}
330
2
100
AcDbEntity
  8
SPS
100
AcDbLine
 10
11725.80832427497
 20
50.92363744915838
 30
0.0
 11
11738.30832427497
 21
50.92363744915838
 31
0.0
  0
LINE
  5
1090F
102
{ACAD_REACTORS
330
109E0
102
}
330
2
100
AcDbEntity
  8
SPS
100
AcDbLine
 10
11823.30832427498
 20
47.92363744916383
 30
0.0
 11
11835.80832427498
 21
47.92363744916428
 31
0.0
  0
LINE
  5
10910
102
{ACAD_REACTORS
330
109E0
102
}
330
2
100
AcDbEntity
  8
VLB
100
AcDbLine
 10
11733.30832427497
 20
81.80076985187724
 30
0.0
 11
11828.30832427497
 21
136.6490454248914
 31
0.0
  0
LINE
  5
10911
102
{ACAD_REACTORS
330
109E0
102
}
330
2
100
AcDbEntity
  8
VLB
100
AcDbLine
 10
11730.80832427497
 20
81.8007698518768
 30
0.0
 11
11733.30832427498
 21
81.8007698518768
 31
0.0
  0
LINE
  5
10912
102
{ACAD_REACTORS
330
109E0
102
}
330
2
100
AcDbEntity
  8
SPS
100
AcDbLine
 10
11823.30832427497
 20
100.9236374491638
 30
0.0
 11
11835.80832427497
 21
100.9236374491642
 31
0.0
  0
LINE
  5
10913
102
{ACAD_REACTORS
330
109E0
102
}
330
2
100
AcDbEntity
  8
VLB
100
AcDbLine
 10
11828.30832427497
 20
136.6490454248924
 30
0.0
 11
11830.80832427497
 21
136.6490454248924
 31
0.0
  0
LINE
  5
10914
102
{ACAD_REACTORS
330
109E0
102
}
330
2
100
AcDbEntity
  8
SPS
100
AcDbLine
 10
11823.30832427497
 20
153.9236374491638
 30
0.0
 11
11835.80832427497
 21
153.9236374491642
 31
0.0
  0
LINE
  5
10915
102
{ACAD_REACTORS
330
109E0
102
}
330
2
100
AcDbEntity
  8
VLB
100
AcDbLine
 10
11855.80832427497
 20
211.9236374491624
 30
0.0
 11
11830.80832427497
 21
211.9236374491647
 31
0.0
  0
LINE
  5
10916
102
{ACAD_REACTORS
330
109E0
102
}
330
2
100
AcDbEntity
  8
VLB
100
AcDbLine
 10
11855.80832427497
 20
214.4236374491629
 30
0.0
 11
11828.30832427497
 21
214.4236374491638
 31
0.0
  0
LINE
  5
10918
102
{ACAD_REACTORS
330
109E0
102
}
330
2
100
AcDbEntity
  8
VLB
100
AcDbLine
 10
11855.80832427497
 20
214.423637449162
 30
0.0
 11
11855.80832427497
 21
211.9236374491624
 31
0.0
  0
LINE
  5
109DD
330
2
100
AcDbEntity
  8
VLB
100
AcDbLine
 10
10846.577617554
 20
92.42363744915836
 30
0.0
 11
10871.577617554
 21
92.42363744915838
 31
0.0
  0
LINE
  5
109DF
330
2
100
AcDbEntity
  8
VLB
100
AcDbLine
 10
10871.47954134264
 20
67.42363744915838
 30
0.0
 11
10998.077617554
 21
67.42363744915838
 31
0.0
  0
LINE
  5
10A1A
102
{ACAD_REACTORS
330
10A43
102
}
330
2
100
AcDbEntity
  8
VLB
100
AcDbLine
 10
10719.077617554
 20
-604.0763625508398
 30
0.0
 11
10719.077617554
 21
-729.0763625508398
 31
0.0
  0
LINE
  5
10A1B
102
{ACAD_REACTORS
330
10A43
102
}
330
2
100
AcDbEntity
  8
VLB
100
AcDbLine
 10
10844.07761755401
 20
-604.0763625508398
 30
0.0
 11
10844.077617554
 21
-729.0763625508398
 31
0.0
  0
LINE
  5
10A1C
102
{ACAD_REACTORS
330
10A43
102
}
330
2
100
AcDbEntity
  8
VLB
100
AcDbLine
 10
10874.077617554
 20
-604.0763625508397
 30
0.0
 11
10844.07761755401
 21
-604.0763625508398
 31
0.0
  0
LINE
  5
10A1F
102
{ACAD_REACTORS
330
10A43
102
}
330
2
100
AcDbEntity
  8
VLB
100
AcDbLine
 10
10844.077617554
 20
-729.0763625508398
 30
0.0
 11
10801.7022293515
 21
-729.0763625508397
 31
0.0
  0
LINE
  5
10A20
102
{ACAD_REACTORS
330
10A43
102
}
330
2
100
AcDbEntity
  8
VLB
100
AcDbLine
 10
10844.07761755401
 20
-701.5763625508398
 30
0.0
 11
10791.777617554
 21
-701.5763625508398
 31
0.0
  0
LINE
  5
10A21
102
{ACAD_REACTORS
330
10A43
102
}
330
2
100
AcDbEntity
  8
VLB
100
AcDbLine
 10
10716.577617554
 20
-606.5763625508379
 30
0.0
 11
10716.577617554
 21
-704.0763625508373
 31
0.0
  0
LINE
  5
10A22
102
{ACAD_REACTORS
330
10A43
102
}
330
2
100
AcDbEntity
  8
VLB
100
AcDbLine
 10
10846.577617554
 20
-606.5763625508379
 30
0.0
 11
10846.577617554
 21
-704.0763625508373
 31
0.0
  0
ARC
  5
10A27
102
{ACAD_REACTORS
330
10A43
102
}
330
2
100
AcDbEntity
  8
VLB
100
AcDbCircle
 10
10781.577617554
 20
-729.0763625508398
 30
0.0
 40
15.0
100
AcDbArc
 50
16.60154959902002
 51
47.1563569564009
  0
LINE
  5
10A28
102
{ACAD_REACTORS
330
10A43
102
}
330
2
100
AcDbEntity
  8
VLB
100
AcDbLine
 10
10761.4530057565
 20
-729.0763625508397
 30
0.0
 11
10719.077617554
 21
-729.0763625508398
 31
0.0
  0
ARC
  5
10A29
102
{ACAD_REACTORS
330
10A43
102
}
330
2
100
AcDbEntity
  8
VLB
100
AcDbCircle
 10
10761.4530057565
 20
-723.0763625508398
 30
0.0
 40
6.0
100
AcDbArc
 50
270.0
 51
343.3984504009801
  0
ARC
  5
10A2A
102
{ACAD_REACTORS
330
10A43
102
}
330
2
100
AcDbEntity
  8
VLB
100
AcDbCircle
 10
10801.7022293515
 20
-723.0763625508396
 30
0.0
 40
6.0
100
AcDbArc
 50
196.6015495990199
 51
270.0
  0
LINE
  5
10A2B
102
{ACAD_REACTORS
330
10A43
102
}
330
2
100
AcDbEntity
  8
VLB
100
AcDbLine
 10
10874.077617554
 20
-604.0763625508396
 30
0.0
 11
10874.077617554
 21
-606.5763625508379
 31
0.0
  0
LINE
  5
10A2E
102
{ACAD_REACTORS
330
10A43
102
}
330
2
100
AcDbEntity
  8
VLB
100
AcDbLine
 10
10874.077617554
 20
-606.5763625508379
 30
0.0
 11
10846.577617554
 21
-606.5763625508379
 31
0.0
  0
LINE
  5
10A2F
102
{ACAD_REACTORS
330
10A43
102
}
330
2
100
AcDbEntity
  8
VLB
100
AcDbLine
 10
10689.077617554
 20
-606.5763625508379
 30
0.0
 11
10716.577617554
 21
-606.5763625508379
 31
0.0
  0
LINE
  5
10A30
102
{ACAD_REACTORS
330
10A43
102
}
330
2
100
AcDbEntity
  8
VLB
100
AcDbLine
 10
10689.077617554
 20
-604.0763625508396
 30
0.0
 11
10689.077617554
 21
-606.5763625508379
 31
0.0
  0
LINE
  5
10A31
102
{ACAD_REACTORS
330
10A43
102
}
330
2
100
AcDbEntity
  8
VLB
100
AcDbLine
 10
10719.077617554
 20
-604.0763625508398
 30
0.0
 11
10689.077617554
 21
-604.0763625508398
 31
0.0
  0
LINE
  5
10A32
102
{ACAD_REACTORS
330
10A43
102
}
330
2
100
AcDbEntity
  8
VLB
100
AcDbLine
 10
10846.577617554
 20
-704.0763625508373
 30
0.0
 11
10844.077617554
 21
-704.0763625508373
 31
0.0
  0
LINE
  5
10A33
102
{ACAD_REACTORS
330
10A43
102
}
330
2
100
AcDbEntity
  8
VLB
100
AcDbLine
 10
10716.577617554
 20
-704.0763625508373
 30
0.0
 11
10719.077617554
 21
-704.0763625508373
 31
0.0
  0
LINE
  5
10A39
102
{ACAD_REACTORS
330
10A43
102
}
330
2
100
AcDbEntity
  8
SPS
100
AcDbLine
 10
10865.077617554
 20
-599.0763625508398
 30
0.0
 11
10865.077617554
 21
-611.5763625508379
 31
0.0
  0
LINE
  5
10A3A
102
{ACAD_REACTORS
330
10A43
102
}
330
2
100
AcDbEntity
  8
SPS
100
AcDbLine
 10
10822.577617554
 20
-696.5763625508397
 30
0.0
 11
10822.577617554
 21
-706.5763625508398
 31
0.0
  0
LINE
  5
10A3B
102
{ACAD_REACTORS
330
10A43
102
}
330
2
100
AcDbEntity
  8
SPS
100
AcDbLine
 10
10836.577617554
 20
-696.5763625508397
 30
0.0
 11
10836.577617554
 21
-706.5763625508398
 31
0.0
  0
LINE
  5
10A40
102
{ACAD_REACTORS
330
10A43
102
}
330
2
100
AcDbEntity
  8
SPS
100
AcDbLine
 10
10740.577617554
 20
-696.5763625508397
 30
0.0
 11
10740.577617554
 21
-706.5763625508398
 31
0.0
  0
LINE
  5
10A41
102
{ACAD_REACTORS
330
10A43
102
}
330
2
100
AcDbEntity
  8
SPS
100
AcDbLine
 10
10726.577617554
 20
-696.5763625508397
 30
0.0
 11
10726.577617554
 21
-706.5763625508398
 31
0.0
  0
LINE
  5
10A42
102
{ACAD_REACTORS
330
10A43
102
}
330
2
100
AcDbEntity
  8
SPS
100
AcDbLine
 10
10698.077617554
 20
-599.0763625508398
 30
0.0
 11
10698.077617554
 21
-611.5763625508379
 31
0.0
  0
LINE
  5
10A8C
102
{ACAD_REACTORS
330
10B8D
102
}
330
2
100
AcDbEntity
  8
VLB
100
AcDbLine
 10
11730.30832427497
 20
597.2236374491615
 30
0.0
 11
11800.60832427497
 21
597.2236374491622
 31
0.0
  0
LINE
  5
10AA0
102
{ACAD_REACTORS
330
10B8D
102
}
330
2
100
AcDbEntity
  8
VLB
100
AcDbLine
 10
11730.30832427497
 20
617.6236374491614
 30
0.0
 11
11800.60832427497
 21
617.6236374491621
 31
0.0
  0
LINE
  5
10AA2
102
{ACAD_REACTORS
330
10B8D
102
}
330
2
100
AcDbEntity
  8
VLB
100
AcDbLine
 10
11861.00832427497
 20
219.4236374491081
 30
0.0
 11
11861.00832427497
 21
557.2236374491629
 31
0.0
  0
ARC
  5
10AA6
102
{ACAD_REACTORS
330
10B8D
102
}
330
2
100
AcDbEntity
  8
VLB
100
AcDbCircle
 10
11800.60832427497
 20
557.2236374491621
 30
0.0
 40
40.0
100
AcDbArc
 50
0.0000000000007449
 51
90.00000000000067
  0
ARC
  5
10AA7
102
{ACAD_REACTORS
330
10B8D
102
}
330
2
100
AcDbEntity
  8
VLB
100
AcDbCircle
 10
11800.60832427497
 20
557.2236374491621
 30
0.0
 40
60.4
100
AcDbArc
 50
0.0000000000007449
 51
90.00000000000067
  0
LINE
  5
10ADA
102
{ACAD_REACTORS
330
10B8D
102
}
330
2
100
AcDbEntity
  8
SPS
100
AcDbLine
 10
11723.30832427497
 20
607.423637449161
 30
0.0
 11
11800.60832427497
 21
607.4236374491621
 31
0.0
  0
ARC
  5
10ADB
102
{ACAD_REACTORS
330
10B8D
102
}
330
2
100
AcDbEntity
  8
SPS
100
AcDbCircle
 10
11800.60832427497
 20
557.2236374491621
 30
0.0
 40
50.2
100
AcDbArc
 50
0.0000000000007449
 51
90.00000000000067
  0
LINE
  5
10ADC
102
{ACAD_REACTORS
330
10B8D
102
}
330
2
100
AcDbEntity
  8
SPS
100
AcDbLine
 10
11850.80832427497
 20
191.4236374491078
 30
0.0
 11
11850.80832427497
 21
557.2236374491628
 31
0.0
  0
LINE
  5
10AE0
102
{ACAD_REACTORS
330
10B8D
102
}
330
2
100
AcDbEntity
  8
VLB
100
AcDbLine
 10
11840.60832427497
 20
219.4236374491095
 30
0.0
 11
11840.60832427497
 21
557.2236374491626
 31
0.0
  0
ARC
  5
10AE2
330
2
100
AcDbEntity
  8
VLB
100
AcDbCircle
 10
10781.577617554
 20
607.4236374491606
 30
0.0
 40
10.2
100
AcDbArc
 50
359.9999999999942
 51
179.9999999999942
  0
LINE
  5
10AE4
330
2
100
AcDbEntity
  8
VLB
100
AcDbLine
 10
10771.377617554
 20
607.4236374491615
 30
0.0
 11
10771.377617554
 21
219.4236374491095
 31
0.0
  0
LINE
  5
10AE5
330
2
100
AcDbEntity
  8
VLB
100
AcDbLine
 10
10791.777617554
 20
607.4236374491615
 30
0.0
 11
10791.777617554
 21
219.423637449108
 31
0.0
  0
LINE
  5
10AE7
330
2
100
AcDbEntity
  8
VLB
100
AcDbLine
 10
10791.777617554
 20
562.4236374491574
 30
0.0
 11
10981.577617554
 21
562.4236374491565
 31
0.0
  0
LINE
  5
10AE8
330
2
100
AcDbEntity
  8
VLB
100
AcDbLine
 10
10791.777617554
 20
532.4236374491583
 30
0.0
 11
10981.577617554
 21
532.4236374491583
 31
0.0
  0
LINE
  5
10AE9
330
2
100
AcDbEntity
  8
VLB
100
AcDbLine
 10
10768.577617554
 20
214.423637449158
 30
0.0
 11
10719.077617554
 21
214.4236374491577
 31
0.0
  0
LINE
  5
10AEA
330
2
100
AcDbEntity
  8
VLB
100
AcDbLine
 10
10768.577617554
 20
211.923637449158
 30
0.0
 11
10719.077617554
 21
211.9236374491577
 31
0.0
  0
ARC
  5
10AEB
330
2
100
AcDbEntity
  8
VLB
100
AcDbCircle
 10
10781.577617554
 20
-724.2763625508398
 30
0.0
 40
10.2
100
AcDbArc
 50
180.0
 51
0.0
  0
LINE
  5
10AEC
330
2
100
AcDbEntity
  8
VLB
100
AcDbLine
 10
10791.777617554
 20
-724.2763625508398
 30
0.0
 11
10791.777617554
 21
-604.0763625508398
 31
0.0
  0
LINE
  5
10AED
330
2
100
AcDbEntity
  8
VLB
100
AcDbLine
 10
10771.377617554
 20
-724.2763625508398
 30
0.0
 11
10771.377617554
 21
-604.0763625508398
 31
0.0
  0
LINE
  5
10AEE
330
2
100
AcDbEntity
  8
VLB
100
AcDbLine
 10
10771.377617554
 20
-701.5763625508398
 30
0.0
 11
10719.077617554
 21
-701.5763625508398
 31
0.0
  0
ARC
  5
10AEF
330
2
100
AcDbEntity
  8
VLB
100
AcDbCircle
 10
10781.577617554
 20
-729.0763625508398
 30
0.0
 40
15.0
100
AcDbArc
 50
132.8436430435991
 51
163.3984504009803
  0
LINE
  5
10AF0
330
2
100
AcDbEntity
  8
SPS
100
AcDbLine
 10
10763.577617554
 20
-724.2763625508398
 30
0.0
 11
10799.577617554
 21
-724.2763625508398
 31
0.0
  0
LINE
  5
10B81
102
{ACAD_REACTORS
330
10B8D
102
}
330
2
100
AcDbEntity
  8
VLB
100
AcDbLine
 10
11837.80832427497
 20
200.4236374491097
 30
0.0
 11
11863.80832427497
 21
200.4236374491097
 31
0.0
  0
LINE
  5
10B82
102
{ACAD_REACTORS
330
10B8D
102
}
330
2
100
AcDbEntity
  8
VLB
100
AcDbLine
 10
11839.30832427497
 20
196.4236374491079
 30
0.0
 11
11862.30832427497
 21
196.4236374491079
 31
0.0
  0
LINE
  5
10B83
102
{ACAD_REACTORS
330
10B8D
102
}
330
2
100
AcDbEntity
  8
VLB
100
AcDbLine
 10
11837.80832427497
 20
219.4236374491097
 30
0.0
 11
11863.80832427497
 21
219.4236374491079
 31
0.0
  0
LINE
  5
10B86
102
{ACAD_REACTORS
330
10B8D
102
}
330
2
100
AcDbEntity
  8
VLB
100
AcDbLine
 10
11839.30832427497
 20
200.4236374491097
 30
0.0
 11
11839.30832427497
 21
196.4236374491079
 31
0.0
  0
LINE
  5
10B87
102
{ACAD_REACTORS
330
10B8D
102
}
330
2
100
AcDbEntity
  8
VLB
100
AcDbLine
 10
11837.80832427497
 20
211.9236374491642
 30
0.0
 11
11837.80832427497
 21
200.4236374491097
 31
0.0
  0
LINE
  5
10B88
102
{ACAD_REACTORS
330
10B8D
102
}
330
2
100
AcDbEntity
  8
VLB
100
AcDbLine
 10
11837.80832427497
 20
219.4236374491079
 30
0.0
 11
11837.80832427497
 21
214.4236374491642
 31
0.0
  0
LINE
  5
10B8B
102
{ACAD_REACTORS
330
10B8D
102
}
330
2
100
AcDbEntity
  8
VLB
100
AcDbLine
 10
11862.30832427497
 20
200.4236374491097
 30
0.0
 11
11862.30832427497
 21
196.4236374491079
 31
0.0
  0
LINE
  5
10B8C
102
{ACAD_REACTORS
330
10B8D
102
}
330
2
100
AcDbEntity
  8
VLB
100
AcDbLine
 10
11863.80832427497
 20
219.4236374491079
 30
0.0
 11
11863.80832427497
 21
200.4236374491097
 31
0.0
  0
LINE
  5
10B8E
330
2
100
AcDbEntity
  8
VLB
100
AcDbLine
 10
10770.077617554
 20
196.4236374491079
 30
0.0
 11
10793.077617554
 21
196.4236374491079
 31
0.0
  0
LINE
  5
10B8F
330
2
100
AcDbEntity
  8
VLB
100
AcDbLine
 10
10768.577617554
 20
200.4236374491097
 30
0.0
 11
10794.577617554
 21
200.4236374491097
 31
0.0
  0
LINE
  5
10B90
330
2
100
AcDbEntity
  8
VLB
100
AcDbLine
 10
10768.577617554
 20
219.4236374491097
 30
0.0
 11
10794.577617554
 21
219.4236374491079
 31
0.0
  0
LINE
  5
10B91
330
2
100
AcDbEntity
  8
VLB
100
AcDbLine
 10
10770.077617554
 20
200.4236374491097
 30
0.0
 11
10770.077617554
 21
196.4236374491079
 31
0.0
  0
LINE
  5
10B92
330
2
100
AcDbEntity
  8
VLB
100
AcDbLine
 10
10768.577617554
 20
219.4236374491096
 30
0.0
 11
10768.577617554
 21
200.4236374491097
 31
0.0
  0
LINE
  5
10B94
330
2
100
AcDbEntity
  8
VLB
100
AcDbLine
 10
10794.577617554
 20
219.4236374491079
 30
0.0
 11
10794.577617554
 21
200.4236374491097
 31
0.0
  0
LINE
  5
10B95
330
2
100
AcDbEntity
  8
VLB
100
AcDbLine
 10
10793.077617554
 20
200.4236374491097
 30
0.0
 11
10793.077617554
 21
196.4236374491079
 31
0.0
  0
ARC
  5
10BA2
330
2
100
AcDbEntity
  8
VLB
100
AcDbCircle
 10
10781.577617554
 20
-724.2763625508398
 30
0.0
 40
13.0
100
AcDbArc
 50
164.6863661620273
 51
15.31363383797259
  0
VIEWPORT
  5
51E
330
7
100
AcDbEntity
 67
     1
  8
0
100
AcDbViewport
 10
176.315148657932
 20
488.826022254345
 30
0.0
 40
1814.723349371433
 41
1079.957645413978
 68
     1
 69
     1
1001
ACAD
1000
MVIEW
1002
{
1070
    16
1010
0.0
1020
0.0
1030
0.0
1010
0.0
1020
0.0
1030
1.0
1040
0.0
1040
1079.957645413978
1040
176.315148657932
1040
488.826022254345
1040
50.0
1040
0.0
1040
0.0
1070
     0
1070
   100
1070
     1
1070
     1
1070
     0
1070
     0
1070
     0
1070
     0
1040
0.0
1040
0.0
1040
0.0
1040
1.0
1040
1.0
1040
10.0
1040
10.0
1070
     0
1002
{
1002
}
1002
}
  0
ENDSEC
  0
SECTION
  2
OBJECTS
  0
DICTIONARY
  5
1A
330
0
100
AcDbDictionary
  3
ACAD_GROUP
350
18
  3
ACAD_LAYOUT
350
EDC7
  3
ACAD_MLINESTYLE
350
19
  3
ACAD_PLOTSETTINGS
350
EDC8
  3
ACAD_PLOTSTYLENAME
350
EDC5
  3
ACDBHEADERROUNDTRIPXREC
350
10C67
  3
ACDBVARIABLEDICTIONARY
350
EDD2
  3
CONTENTDICTIONARY
350
81A
  0
DICTIONARY
  5
10B47
330
2
100
AcDbDictionary
280
     1
  3
ACAD_LAYOUTSELFREF
360
10C87
  0
DICTIONARY
  5
10B49
330
7
100
AcDbDictionary
280
     1
  3
ACAD_LAYOUTSELFREF
360
10C88
  0
DICTIONARY
  5
18
102
{ACAD_REACTORS
330
1A
102
}
330
1A
100
AcDbDictionary
  3
*A1
350
63B1
  3
*A10
350
49CC
  3
*A100
350
6396
  3
*A1000
350
6225
  3
*A1001
350
6348
  3
*A1002
350
62D7
  3
*A1003
350
1B01
  3
*A1004
350
1C38
  3
*A1005
350
623E
  3
*A1006
350
48DB
  3
*A1007
350
63A4
  3
*A1008
350
492A
  3
*A1009
350
49AF
  3
*A101
350
6398
  3
*A1010
350
623A
  3
*A1011
350
6403
  3
*A1012
350
481C
  3
*A1013
350
484E
  3
*A1014
350
62B3
  3
*A1015
350
1B9C
  3
*A1016
350
1AF1
  3
*A1017
350
6250
  3
*A1018
350
4963
  3
*A1019
350
1B60
  3
*A102
350
6425
  3
*A1020
350
4832
  3
*A1021
350
6351
  3
*A1022
350
6243
  3
*A1023
350
48EF
  3
*A1024
350
62D0
  3
*A1025
350
1B87
  3
*A1026
350
62FA
  3
*A1027
350
48D5
  3
*A1028
350
6422
  3
*A1029
350
63FD
  3
*A103
350
4A11
  3
*A1030
350
6372
  3
*A1031
350
628A
  3
*A1032
350
6258
  3
*A1033
350
1BC8
  3
*A1034
350
491D
  3
*A1035
350
37BA
  3
*A1036
350
1BE6
  3
*A1037
350
1BE5
  3
*A1038
350
4875
  3
*A1039
350
621E
  3
*A104
350
494A
  3
*A1040
350
49A4
  3
*A1041
350
489B
  3
*A1042
350
4831
  3
*A1043
350
630B
  3
*A1044
350
6353
  3
*A1045
350
62A7
  3
*A1046
350
1B39
  3
*A1047
350
1AD5
  3
*A1048
350
489C
  3
*A1049
350
1ADE
  3
*A105
350
62FF
  3
*A1050
350
1AF7
  3
*A1051
350
1B4C
  3
*A106
350
6352
  3
*A107
350
1BAE
  3
*A108
350
1AEB
  3
*A109
350
4A02
  3
*A11
350
63A1
  3
*A110
350
496A
  3
*A111
350
63CF
  3
*A112
350
622C
  3
*A113
350
63DD
  3
*A114
350
1C1A
  3
*A115
350
1B6C
  3
*A116
350
1B6F
  3
*A117
350
1BB5
  3
*A118
350
62DF
  3
*A119
350
6294
  3
*A12
350
1B23
  3
*A120
350
1C5D
  3
*A121
350
62CD
  3
*A122
350
4A15
  3
*A123
350
6365
  3
*A124
350
628C
  3
*A125
350
6232
  3
*A126
350
1B7F
  3
*A127
350
49B3
  3
*A128
350
1AFA
  3
*A129
350
48A9
  3
*A13
350
481A
  3
*A130
350
4891
  3
*A131
350
631D
  3
*A132
350
4A06
  3
*A133
350
37B3
  3
*A134
350
483D
  3
*A135
350
37B2
  3
*A136
350
1AD8
  3
*A137
350
1C59
  3
*A138
350
62E0
  3
*A139
350
37AB
  3
*A14
350
49D6
  3
*A140
350
495C
  3
*A141
350
62C4
  3
*A142
350
1B77
  3
*A143
350
4834
  3
*A144
350
488D
  3
*A145
350
635F
  3
*A146
350
48B1
  3
*A147
350
1B1D
  3
*A148
350
1C5A
  3
*A149
350
63B2
  3
*A15
350
1BDB
  3
*A150
350
6407
  3
*A151
350
62A2
  3
*A152
350
1B82
  3
*A153
350
49E3
  3
*A154
350
48A2
  3
*A155
350
1B0A
  3
*A156
350
6229
  3
*A157
350
1B88
  3
*A158
350
625B
  3
*A159
350
1B04
  3
*A16
350
1B6D
  3
*A160
350
487A
  3
*A161
350
1B2B
  3
*A162
350
498B
  3
*A163
350
63A2
  3
*A164
350
1457
  3
*A165
350
6337
  3
*A166
350
6284
  3
*A167
350
4844
  3
*A168
350
1B35
  3
*A169
350
6402
  3
*A17
350
63F2
  3
*A170
350
63D6
  3
*A171
350
6350
  3
*A172
350
6400
  3
*A173
350
6399
  3
*A174
350
1ACE
  3
*A175
350
1AE6
  3
*A176
350
1B50
  3
*A177
350
1BB4
  3
*A178
350
1C03
  3
*A179
350
1C51
  3
*A18
350
63A0
  3
*A180
350
4995
  3
*A181
350
1C45
  3
*A182
350
49FC
  3
*A183
350
6283
  3
*A184
350
6341
  3
*A185
350
1BA8
  3
*A186
350
63F0
  3
*A187
350
48F8
  3
*A188
350
4A00
  3
*A189
350
49D8
  3
*A19
350
4855
  3
*A190
350
4990
  3
*A191
350
629B
  3
*A192
350
6298
  3
*A193
350
1C0E
  3
*A194
350
1460
  3
*A195
350
6381
  3
*A196
350
37B9
  3
*A197
350
1AD1
  3
*A198
350
4A04
  3
*A199
350
1AF3
  3
*A2
350
6279
  3
*A20
350
1ADD
  3
*A200
350
1C0C
  3
*A201
350
635B
  3
*A202
350
1BBD
  3
*A203
350
1B16
  3
*A204
350
1B62
  3
*A205
350
4909
  3
*A206
350
494D
  3
*A207
350
1AFD
  3
*A208
350
37C2
  3
*A209
350
4941
  3
*A21
350
1C12
  3
*A210
350
49D5
  3
*A211
350
4A0F
  3
*A212
350
1AEF
  3
*A213
350
6392
  3
*A214
350
1BED
  3
*A215
350
1BF5
  3
*A216
350
62E9
  3
*A217
350
48B3
  3
*A218
350
48CC
  3
*A219
350
1B2F
  3
*A22
350
1C57
  3
*A220
350
48CA
  3
*A221
350
62C8
  3
*A222
350
638B
  3
*A223
350
48E3
  3
*A224
350
4815
  3
*A225
350
4929
  3
*A226
350
6316
  3
*A227
350
37BF
  3
*A228
350
1BBB
  3
*A229
350
6304
  3
*A23
350
4908
  3
*A230
350
1BE1
  3
*A231
350
636A
  3
*A232
350
49F0
  3
*A233
350
493C
  3
*A234
350
1AEC
  3
*A235
350
498C
  3
*A236
350
62A8
  3
*A237
350
1B0C
  3
*A238
350
1BB6
  3
*A239
350
488F
  3
*A24
350
62E7
  3
*A240
350
625E
  3
*A241
350
4989
  3
*A242
350
6347
  3
*A243
350
4899
  3
*A244
350
1BBF
  3
*A245
350
63C9
  3
*A246
350
62A6
  3
*A247
350
6375
  3
*A248
350
4939
  3
*A249
350
626D
  3
*A25
350
4817
  3
*A250
350
4911
  3
*A251
350
635C
  3
*A252
350
487D
  3
*A253
350
4A0C
  3
*A254
350
1B5D
  3
*A255
350
63BB
  3
*A256
350
637A
  3
*A257
350
6261
  3
*A258
350
49CF
  3
*A259
350
6262
  3
*A26
350
4836
  3
*A260
350
1C39
  3
*A261
350
63DE
  3
*A262
350
1C02
  3
*A263
350
6394
  3
*A264
350
640C
  3
*A265
350
1BB1
  3
*A266
350
48E8
  3
*A267
350
37A3
  3
*A268
350
49AA
  3
*A269
350
63BC
  3
*A27
350
4856
  3
*A270
350
62AF
  3
*A271
350
48E1
  3
*A272
350
6311
  3
*A273
350
62AC
  3
*A274
350
6300
  3
*A275
350
49A8
  3
*A276
350
4887
  3
*A277
350
6369
  3
*A278
350
1C53
  3
*A279
350
499A
  3
*A28
350
48CB
  3
*A280
350
4874
  3
*A281
350
4896
  3
*A282
350
481F
  3
*A283
350
1459
  3
*A284
350
49F8
  3
*A285
350
4974
  3
*A286
350
63E2
  3
*A287
350
62B0
  3
*A288
350
497E
  3
*A289
350
634C
  3
*A29
350
483E
  3
*A290
350
1AD0
  3
*A291
350
639E
  3
*A292
350
6220
  3
*A293
350
63E1
  3
*A294
350
48B4
  3
*A295
350
4A17
  3
*A296
350
1B92
  3
*A297
350
1B2A
  3
*A298
350
48FA
  3
*A299
350
496B
  3
*A3
350
63FF
  3
*A30
350
4809
  3
*A300
350
48D2
  3
*A301
350
1C15
  3
*A302
350
1C47
  3
*A303
350
1C58
  3
*A304
350
49BD
  3
*A305
350
1B8B
  3
*A306
350
1C1B
  3
*A307
350
495E
  3
*A308
350
1C20
  3
*A309
350
49F5
  3
*A31
350
1AFE
  3
*A310
350
1C3A
  3
*A311
350
487E
  3
*A312
350
49E8
  3
*A313
350
37A6
  3
*A314
350
635A
  3
*A315
350
633C
  3
*A316
350
1BD4
  3
*A317
350
62A0
  3
*A318
350
4997
  3
*A319
350
6317
  3
*A32
350
1BD9
  3
*A320
350
6302
  3
*A321
350
1C21
  3
*A322
350
1AEE
  3
*A323
350
1B0D
  3
*A324
350
6248
  3
*A325
350
1AED
  3
*A326
350
497F
  3
*A327
350
1C48
  3
*A328
350
1B4A
  3
*A329
350
1BD3
  3
*A33
350
62E5
  3
*A330
350
48BB
  3
*A331
350
62F7
  3
*A332
350
1C37
  3
*A333
350
1C44
  3
*A334
350
49F6
  3
*A335
350
1BA6
  3
*A336
350
496F
  3
*A337
350
62AA
  3
*A338
350
49D3
  3
*A339
350
4955
  3
*A34
350
63F5
  3
*A340
350
1BE9
  3
*A341
350
628F
  3
*A342
350
37B1
  3
*A343
350
49C7
  3
*A344
350
48AC
  3
*A345
350
6327
  3
*A346
350
4973
  3
*A347
350
482D
  3
*A348
350
1C08
  3
*A349
350
62F1
  3
*A35
350
1AD6
  3
*A350
350
1BBA
  3
*A351
350
484C
  3
*A352
350
1462
  3
*A353
350
1B96
  3
*A354
350
1B13
  3
*A355
350
4937
  3
*A356
350
1458
  3
*A357
350
62C2
  3
*A358
350
1C46
  3
*A359
350
4886
  3
*A36
350
4871
  3
*A360
350
63AC
  3
*A361
350
62F5
  3
*A362
350
1BF9
  3
*A363
350
1466
  3
*A364
350
4833
  3
*A365
350
1B69
  3
*A366
350
48F2
  3
*A367
350
49DD
  3
*A368
350
4894
  3
*A369
350
6242
  3
*A37
350
63CC
  3
*A370
350
1B75
  3
*A371
350
37C1
  3
*A372
350
1BC2
  3
*A373
350
48E6
  3
*A374
350
1C2B
  3
*A375
350
4975
  3
*A376
350
629C
  3
*A377
350
1BC4
  3
*A378
350
63D2
  3
*A379
350
1C4D
  3
*A38
350
62B4
  3
*A380
350
48F5
  3
*A381
350
4813
  3
*A382
350
63B6
  3
*A383
350
48FC
  3
*A384
350
487F
  3
*A385
350
49EB
  3
*A386
350
1BFE
  3
*A387
350
6313
  3
*A388
350
37C0
  3
*A389
350
1BCC
  3
*A39
350
49DA
  3
*A390
350
4A03
  3
*A391
350
48B7
  3
*A392
350
497D
  3
*A393
350
4912
  3
*A394
350
48FF
  3
*A395
350
630E
  3
*A396
350
6370
  3
*A397
350
4968
  3
*A398
350
6382
  3
*A399
350
1B70
  3
*A4
350
627F
  3
*A40
350
63BE
  3
*A400
350
622D
  3
*A401
350
4988
  3
*A402
350
62BE
  3
*A403
350
6241
  3
*A404
350
4958
  3
*A405
350
63EA
  3
*A406
350
1BDF
  3
*A407
350
6307
  3
*A408
350
4824
  3
*A409
350
4978
  3
*A41
350
1C5B
  3
*A410
350
49C3
  3
*A411
350
49C9
  3
*A412
350
F3E9
  3
*A413
350
499B
  3
*A414
350
37A5
  3
*A415
350
6236
  3
*A416
350
6264
  3
*A417
350
37B5
  3
*A418
350
63C2
  3
*A419
350
4952
  3
*A42
350
6315
  3
*A420
350
62D4
  3
*A421
350
49B1
  3
*A422
350
49EF
  3
*A423
350
49A5
  3
*A424
350
1BD1
  3
*A425
350
62F9
  3
*A426
350
1B99
  3
*A427
350
4993
  3
*A428
350
4948
  3
*A429
350
63FC
  3
*A43
350
4892
  3
*A430
350
4981
  3
*A431
350
63B5
  3
*A432
350
4962
  3
*A433
350
4931
  3
*A434
350
6322
  3
*A435
350
4932
  3
*A436
350
1C23
  3
*A437
350
1BF6
  3
*A438
350
F930
  3
*A439
350
63A8
  3
*A44
350
63E0
  3
*A440
350
63A5
  3
*A441
350
379B
  3
*A442
350
49D4
  3
*A443
350
62A5
  3
*A444
350
1B79
  3
*A445
350
4880
  3
*A446
350
4991
  3
*A447
350
1B8C
  3
*A448
350
49AB
  3
*A449
350
1B72
  3
*A45
350
630C
  3
*A450
350
621A
  3
*A451
350
104ED
  3
*A452
350
1BDE
  3
*A453
350
495D
  3
*A454
350
48EC
  3
*A455
350
638A
  3
*A456
350
4890
  3
*A457
350
1BFB
  3
*A458
350
6371
  3
*A459
350
497B
  3
*A46
350
4901
  3
*A460
350
62D3
  3
*A461
350
6233
  3
*A462
350
1BB7
  3
*A463
350
1C01
  3
*A464
350
4816
  3
*A465
350
104EE
  3
*A466
350
62AE
  3
*A467
350
48E0
  3
*A468
350
633E
  3
*A469
350
63D9
  3
*A47
350
49E2
  3
*A470
350
48C8
  3
*A471
350
48B5
  3
*A472
350
4964
  3
*A473
350
4884
  3
*A474
350
1B41
  3
*A475
350
63E6
  3
*A476
350
1BB2
  3
*A477
350
49CB
  3
*A478
350
10577
  3
*A479
350
145B
  3
*A48
350
1C60
  3
*A480
350
1AE5
  3
*A481
350
4950
  3
*A482
350
62B2
  3
*A483
350
1B5F
  3
*A484
350
1C05
  3
*A485
350
1C4E
  3
*A486
350
1B2D
  3
*A487
350
49B9
  3
*A488
350
63E3
  3
*A489
350
1BF3
  3
*A49
350
1B66
  3
*A490
350
1C35
  3
*A491
350
63D1
  3
*A492
350
10578
  3
*A493
350
4946
  3
*A494
350
1BEF
  3
*A495
350
62CA
  3
*A496
350
62C3
  3
*A497
350
1BF0
  3
*A498
350
625C
  3
*A499
350
6219
  3
*A5
350
48CF
  3
*A50
350
6413
  3
*A500
350
631E
  3
*A501
350
4A01
  3
*A502
350
4847
  3
*A503
350
37A9
  3
*A504
350
6395
  3
*A505
350
1B24
  3
*A506
350
49EA
  3
*A507
350
1077C
  3
*A508
350
1B3E
  3
*A509
350
1C61
  3
*A51
350
4829
  3
*A510
350
497C
  3
*A511
350
63B7
  3
*A512
350
1B12
  3
*A513
350
37B7
  3
*A514
350
638C
  3
*A515
350
6362
  3
*A516
350
62C0
  3
*A517
350
1C3F
  3
*A518
350
1B07
  3
*A519
350
636B
  3
*A52
350
48A3
  3
*A520
350
4858
  3
*A521
350
1C27
  3
*A522
350
107D6
  3
*A523
350
1B51
  3
*A524
350
4967
  3
*A525
350
482C
  3
*A526
350
634D
  3
*A527
350
49BC
  3
*A528
350
49A9
  3
*A529
350
6359
  3
*A53
350
62EF
  3
*A530
350
4926
  3
*A531
350
63B3
  3
*A532
350
1ACF
  3
*A533
350
486C
  3
*A534
350
1B09
  3
*A535
350
6227
  3
*A536
350
634E
  3
*A537
350
4872
  3
*A538
350
6404
  3
*A539
350
1B6A
  3
*A54
350
6377
  3
*A540
350
63FA
  3
*A541
350
63F8
  3
*A542
350
49BE
  3
*A543
350
1B8D
  3
*A544
350
6357
  3
*A545
350
1C56
  3
*A546
350
1B03
  3
*A547
350
6224
  3
*A548
350
10817
  3
*A549
350
1C24
  3
*A55
350
4857
  3
*A550
350
1C07
  3
*A551
350
6417
  3
*A552
350
1B53
  3
*A553
350
493F
  3
*A554
350
486F
  3
*A555
350
1BBE
  3
*A556
350
62ED
  3
*A557
350
489E
  3
*A558
350
62B9
  3
*A559
350
49E6
  3
*A56
350
4945
  3
*A560
350
632B
  3
*A561
350
109DC
  3
*A562
350
6406
  3
*A563
350
6240
  3
*A564
350
4913
  3
*A565
350
482E
  3
*A566
350
48E4
  3
*A567
350
4811
  3
*A568
350
1C18
  3
*A569
350
48BD
  3
*A57
350
641C
  3
*A570
350
623F
  3
*A571
350
49D2
  3
*A572
350
4903
  3
*A573
350
63CB
  3
*A574
350
109E0
  3
*A575
350
6245
  3
*A576
350
1BD8
  3
*A577
350
6393
  3
*A578
350
6383
  3
*A579
350
63E5
  3
*A58
350
1465
  3
*A580
350
6277
  3
*A581
350
1B22
  3
*A582
350
1BB8
  3
*A583
350
489F
  3
*A584
350
49CA
  3
*A585
350
1B58
  3
*A586
350
63B4
  3
*A587
350
62EE
  3
*A588
350
10A09
  3
*A589
350
63E7
  3
*A59
350
1B94
  3
*A590
350
48D3
  3
*A591
350
4905
  3
*A592
350
6415
  3
*A593
350
484A
  3
*A594
350
48DC
  3
*A595
350
379A
  3
*A596
350
49FA
  3
*A597
350
48C6
  3
*A598
350
37AC
  3
*A599
350
49A6
  3
*A6
350
6252
  3
*A60
350
49B5
  3
*A600
350
636F
  3
*A601
350
10A19
  3
*A602
350
1B7D
  3
*A603
350
4882
  3
*A604
350
637C
  3
*A605
350
1AE0
  3
*A606
350
4957
  3
*A607
350
49B7
  3
*A608
350
1C1D
  3
*A609
350
62D8
  3
*A61
350
1BEE
  3
*A610
350
49BA
  3
*A611
350
1BCD
  3
*A612
350
6223
  3
*A613
350
4A08
  3
*A614
350
1BEC
  3
*A615
350
10A43
  3
*A616
350
488B
  3
*A617
350
1ACD
  3
*A618
350
49F1
  3
*A619
350
10B8D
  3
*A62
350
63EC
  3
*A620
350
640F
  3
*A621
350
4999
  3
*A622
350
629A
  3
*A623
350
6222
  3
*A624
350
6218
  3
*A625
350
4915
  3
*A626
350
491A
  3
*A627
350
48FE
  3
*A628
350
1C29
  3
*A629
350
1B9F
  3
*A63
350
1BEB
  3
*A630
350
6309
  3
*A631
350
4906
  3
*A632
350
6420
  3
*A633
350
1BF8
  3
*A634
350
624F
  3
*A635
350
1AF2
  3
*A636
350
48B2
  3
*A637
350
63D7
  3
*A638
350
6216
  3
*A639
350
1B37
  3
*A64
350
6333
  3
*A640
350
4986
  3
*A641
350
1B54
  3
*A642
350
1C0A
  3
*A643
350
4821
  3
*A644
350
1BA5
  3
*A645
350
6424
  3
*A646
350
37A1
  3
*A647
350
6378
  3
*A648
350
1B34
  3
*A649
350
1B8E
  3
*A65
350
63DC
  3
*A650
350
1B49
  3
*A651
350
1B9D
  3
*A652
350
4893
  3
*A653
350
6231
  3
*A654
350
63BF
  3
*A655
350
6364
  3
*A656
350
6405
  3
*A657
350
623D
  3
*A658
350
4845
  3
*A659
350
627C
  3
*A66
350
4998
  3
*A660
350
4839
  3
*A661
350
1B36
  3
*A662
350
62A9
  3
*A663
350
1454
  3
*A664
350
1B19
  3
*A665
350
62BF
  3
*A666
350
4830
  3
*A667
350
63C7
  3
*A668
350
1C25
  3
*A669
350
4944
  3
*A67
350
480B
  3
*A670
350
6263
  3
*A671
350
49AE
  3
*A672
350
1B65
  3
*A673
350
1BD7
  3
*A674
350
49FF
  3
*A675
350
48C0
  3
*A676
350
49F3
  3
*A677
350
1AF6
  3
*A678
350
1C0D
  3
*A679
350
480C
  3
*A68
350
625A
  3
*A680
350
4A18
  3
*A681
350
49E5
  3
*A682
350
4825
  3
*A683
350
1C10
  3
*A684
350
1C22
  3
*A685
350
1BDC
  3
*A686
350
627A
  3
*A687
350
37B4
  3
*A688
350
1B57
  3
*A689
350
4A09
  3
*A69
350
6271
  3
*A690
350
1C3E
  3
*A691
350
1C4F
  3
*A692
350
49C4
  3
*A693
350
62FB
  3
*A694
350
627E
  3
*A695
350
6237
  3
*A696
350
1C1F
  3
*A697
350
1C5F
  3
*A698
350
49E4
  3
*A699
350
6320
  3
*A7
350
48C3
  3
*A70
350
493A
  3
*A700
350
631F
  3
*A701
350
379C
  3
*A702
350
1B46
  3
*A703
350
1C04
  3
*A704
350
637D
  3
*A705
350
63AB
  3
*A706
350
49C5
  3
*A707
350
1B6B
  3
*A708
350
62E4
  3
*A709
350
495F
  3
*A71
350
1B42
  3
*A710
350
1AFB
  3
*A711
350
63D4
  3
*A712
350
1ADC
  3
*A713
350
1B97
  3
*A714
350
624B
  3
*A715
350
4A19
  3
*A716
350
1BE4
  3
*A717
350
4818
  3
*A718
350
63A6
  3
*A719
350
1BCF
  3
*A72
350
63B0
  3
*A720
350
1C26
  3
*A721
350
4910
  3
*A722
350
6389
  3
*A723
350
145C
  3
*A724
350
1B44
  3
*A725
350
63FE
  3
*A726
350
490E
  3
*A727
350
1C40
  3
*A728
350
1C33
  3
*A729
350
489D
  3
*A73
350
48AF
  3
*A730
350
1C0F
  3
*A731
350
624A
  3
*A732
350
48CD
  3
*A733
350
6358
  3
*A734
350
1C2C
  3
*A735
350
49BF
  3
*A736
350
1BC3
  3
*A737
350
4838
  3
*A738
350
1B98
  3
*A739
350
1B17
  3
*A74
350
62A3
  3
*A740
350
1B71
  3
*A741
350
37BC
  3
*A742
350
1C2A
  3
*A743
350
4895
  3
*A744
350
145D
  3
*A745
350
4820
  3
*A746
350
1C31
  3
*A747
350
6416
  3
*A748
350
62D6
  3
*A749
350
640E
  3
*A75
350
634B
  3
*A750
350
1B5A
  3
*A751
350
631B
  3
*A752
350
639D
  3
*A753
350
48A7
  3
*A754
350
48F7
  3
*A755
350
6239
  3
*A756
350
1B40
  3
*A757
350
1C2E
  3
*A758
350
4885
  3
*A759
350
62D5
  3
*A76
350
1C16
  3
*A760
350
6344
  3
*A761
350
486A
  3
*A762
350
1B3F
  3
*A763
350
628B
  3
*A764
350
62F0
  3
*A765
350
494E
  3
*A766
350
62D9
  3
*A767
350
1BFC
  3
*A768
350
49CE
  3
*A769
350
6312
  3
*A77
350
1C28
  3
*A770
350
48C7
  3
*A771
350
1BAC
  3
*A772
350
493B
  3
*A773
350
62A1
  3
*A774
350
1B11
  3
*A775
350
4987
  3
*A776
350
633F
  3
*A777
350
1464
  3
*A778
350
48EE
  3
*A779
350
633A
  3
*A78
350
490A
  3
*A780
350
4877
  3
*A781
350
484D
  3
*A782
350
49D0
  3
*A783
350
1B61
  3
*A784
350
63B8
  3
*A785
350
48DE
  3
*A786
350
6282
  3
*A787
350
492F
  3
*A788
350
145F
  3
*A789
350
63AA
  3
*A79
350
4943
  3
*A790
350
48E2
  3
*A791
350
4864
  3
*A792
350
48A1
  3
*A793
350
499F
  3
*A794
350
1B45
  3
*A795
350
6388
  3
*A796
350
4860
  3
*A797
350
48A5
  3
*A798
350
1BF1
  3
*A799
350
1468
  3
*A8
350
1BFF
  3
*A80
350
6281
  3
*A800
350
4828
  3
*A801
350
4938
  3
*A802
350
4940
  3
*A803
350
492D
  3
*A804
350
48D8
  3
*A805
350
63F1
  3
*A806
350
48ED
  3
*A807
350
37AE
  3
*A808
350
6409
  3
*A809
350
1B15
  3
*A81
350
62DC
  3
*A810
350
62BD
  3
*A811
350
1C2F
  3
*A812
350
1B7C
  3
*A813
350
1AE3
  3
*A814
350
636C
  3
*A815
350
1B28
  3
*A816
350
4889
  3
*A817
350
63C4
  3
*A818
350
1B33
  3
*A819
350
4934
  3
*A82
350
49ED
  3
*A820
350
629E
  3
*A821
350
63D3
  3
*A822
350
623C
  3
*A823
350
484B
  3
*A824
350
1B76
  3
*A825
350
1BA1
  3
*A826
350
63DB
  3
*A827
350
6308
  3
*A828
350
4851
  3
*A829
350
62E2
  3
*A83
350
4843
  3
*A830
350
48C9
  3
*A831
350
623B
  3
*A832
350
1AE4
  3
*A833
350
628D
  3
*A834
350
641E
  3
*A835
350
494C
  3
*A836
350
639B
  3
*A837
350
6259
  3
*A838
350
62BC
  3
*A839
350
4985
  3
*A84
350
48B0
  3
*A840
350
63F7
  3
*A841
350
495A
  3
*A842
350
62AB
  3
*A843
350
48F3
  3
*A844
350
622E
  3
*A845
350
1B90
  3
*A846
350
4A0A
  3
*A847
350
632A
  3
*A848
350
62F3
  3
*A849
350
1C06
  3
*A85
350
379D
  3
*A850
350
62EB
  3
*A851
350
1B21
  3
*A852
350
63CA
  3
*A853
350
499D
  3
*A854
350
1BA4
  3
*A855
350
6366
  3
*A856
350
1C0B
  3
*A857
350
49A3
  3
*A858
350
1B0F
  3
*A859
350
1ADB
  3
*A86
350
6385
  3
*A860
350
494F
  3
*A861
350
4970
  3
*A862
350
6235
  3
*A863
350
48FD
  3
*A864
350
63C6
  3
*A865
350
630A
  3
*A866
350
1BD5
  3
*A867
350
1B9B
  3
*A868
350
6380
  3
*A869
350
486D
  3
*A87
350
4842
  3
*A870
350
482A
  3
*A871
350
4835
  3
*A872
350
1C11
  3
*A873
350
483B
  3
*A874
350
4965
  3
*A875
350
63EF
  3
*A876
350
37A0
  3
*A877
350
4904
  3
*A878
350
49B2
  3
*A879
350
1AEA
  3
*A88
350
1AFC
  3
*A880
350
1AD3
  3
*A881
350
6296
  3
*A882
350
6257
  3
*A883
350
1ACB
  3
*A884
350
1B05
  3
*A885
350
48B6
  3
*A886
350
1BEA
  3
*A887
350
498E
  3
*A888
350
4876
  3
*A889
350
1B85
  3
*A89
350
63BA
  3
*A890
350
1BC0
  3
*A891
350
62FC
  3
*A892
350
484F
  3
*A893
350
4976
  3
*A894
350
1BA0
  3
*A895
350
1BA9
  3
*A896
350
48A6
  3
*A897
350
6346
  3
*A898
350
6411
  3
*A899
350
6374
  3
*A9
350
63D0
  3
*A90
350
4959
  3
*A900
350
1C55
  3
*A901
350
1B81
  3
*A902
350
37AD
  3
*A903
350
63F3
  3
*A904
350
635D
  3
*A905
350
1B29
  3
*A906
350
48FB
  3
*A907
350
63A7
  3
*A908
350
4898
  3
*A909
350
4854
  3
*A91
350
49D9
  3
*A910
350
6265
  3
*A911
350
37C3
  3
*A912
350
480D
  3
*A913
350
49C6
  3
*A914
350
1BD6
  3
*A915
350
6254
  3
*A916
350
1BC5
  3
*A917
350
638E
  3
*A918
350
1455
  3
*A919
350
6291
  3
*A92
350
1C32
  3
*A920
350
48CE
  3
*A921
350
6345
  3
*A922
350
6287
  3
*A923
350
37A2
  3
*A924
350
1B32
  3
*A925
350
6367
  3
*A926
350
1C1C
  3
*A927
350
494B
  3
*A928
350
1C49
  3
*A929
350
1B30
  3
*A93
350
491E
  3
*A930
350
629F
  3
*A931
350
1B1C
  3
*A932
350
49DF
  3
*A933
350
629D
  3
*A934
350
6419
  3
*A935
350
49F7
  3
*A936
350
6355
  3
*A937
350
63C0
  3
*A938
350
1B52
  3
*A939
350
62DB
  3
*A94
350
1AE9
  3
*A940
350
4826
  3
*A941
350
1B6E
  3
*A942
350
1BA2
  3
*A943
350
6305
  3
*A944
350
6293
  3
*A945
350
4A13
  3
*A946
350
1AE7
  3
*A947
350
6426
  3
*A948
350
6410
  3
*A949
350
1B4E
  3
*A95
350
1B2C
  3
*A950
350
48D7
  3
*A951
350
1BFD
  3
*A952
350
1BE7
  3
*A953
350
1B3B
  3
*A954
350
6376
  3
*A955
350
49F9
  3
*A956
350
37B8
  3
*A957
350
1AF9
  3
*A958
350
6310
  3
*A959
350
4994
  3
*A96
350
1469
  3
*A960
350
1BA7
  3
*A961
350
1B67
  3
*A962
350
37AF
  3
*A963
350
48DA
  3
*A964
350
1B7E
  3
*A965
350
1B31
  3
*A966
350
6336
  3
*A967
350
1B4D
  3
*A968
350
1AF8
  3
*A969
350
63DF
  3
*A97
350
1C36
  3
*A970
350
63D8
  3
*A971
350
62B6
  3
*A972
350
6251
  3
*A973
350
482F
  3
*A974
350
488E
  3
*A975
350
49AD
  3
*A976
350
1B1A
  3
*A977
350
1BC6
  3
*A978
350
49A7
  3
*A979
350
489A
  3
*A98
350
1BD2
  3
*A980
350
6246
  3
*A981
350
496D
  3
*A982
350
62DA
  3
*A983
350
499E
  3
*A984
350
3798
  3
*A985
350
640D
  3
*A986
350
62C1
  3
*A987
350
1BAF
  3
*A988
350
1B7B
  3
*A989
350
1B80
  3
*A99
350
49C2
  3
*A990
350
6349
  3
*A991
350
1C30
  3
*A992
350
49D1
  3
*A993
350
4969
  3
*A994
350
48EA
  3
*A995
350
493E
  3
*A996
350
49F2
  3
*A997
350
6292
  3
*A998
350
62E8
  3
*A999
350
1B63
  0
DICTIONARY
  5
EDC7
102
{ACAD_REACTORS
330
1A
102
}
330
1A
100
AcDbDictionary
  0
DICTIONARY
  5
19
102
{ACAD_REACTORS
330
1A
102
}
330
1A
100
AcDbDictionary
  3
STANDARD
350
1D
  0
DICTIONARY
  5
EDC8
102
{ACAD_REACTORS
330
1A
102
}
330
1A
100
AcDbDictionary
  0
ACDBDICTIONARYWDFLT
  5
EDC5
102
{ACAD_REACTORS
330
1A
102
}
330
1A
100
AcDbDictionary
281
     1
  3
Normal
350
EDC6
100
AcDbDictionaryWithDefault
340
EDC6
  0
DICTIONARY
  5
10C67
102
{ACAD_REACTORS
330
1A
102
}
330
1A
100
AcDbDictionary
  3
CEPSNTYPE
350
10C71
  3
FINGERPRINTGUID
350
10C72
  3
HYPERLINKBASE
350
10C6A
  3
INSUNITS
350
10C70
  3
LAYOUTDICT
350
10C6C
  3
LWETCUNION
350
10C6F
  3
PLOTSETDICT
350
10C6D
  3
PLOTSTYLNAMDICT
350
10C6E
  3
PSVPSCALE
350
10C74
  3
PUCSBASE
350
10C77
  3
PUCSORGBACK
350
10C7D
  3
PUCSORGBOTTOM
350
10C79
  3
PUCSORGFRONT
350
10C7C
  3
PUCSORGLEFT
350
10C7A
  3
PUCSORGRIGHT
350
10C7B
  3
PUCSORGTOP
350
10C78
  3
PUCSORTHOREF
350
10C75
  3
PUCSORTHOVIEW
350
10C76
  3
STYLESHEET
350
10C6B
  3
TSTACKALIGN
350
10C68
  3
TSTACKSIZE
350
10C69
  3
UCSBASE
350
10C80
  3
UCSORGBACK
350
10C86
  3
UCSORGBOTTOM
350
10C82
  3
UCSORGFRONT
350
10C85
  3
UCSORGLEFT
350
10C83
  3
UCSORGRIGHT
350
10C84
  3
UCSORGTOP
350
10C81
  3
UCSORTHOREF
350
10C7E
  3
UCSORTHOVIEW
350
10C7F
  3
VERSIONGUID
350
10C73
  0
DICTIONARY
  5
EDD2
102
{ACAD_REACTORS
330
1A
102
}
330
1A
100
AcDbDictionary
  3
DIMASSOC
350
EDD3
  0
DICTIONARY
  5
81A
102
{ACAD_REACTORS
330
1A
102
}
330
1A
100
AcDbDictionary
  0
XRECORD
  5
10C87
102
{ACAD_REACTORS
330
10B47
102
}
330
10B47
100
AcDbXrecord
340
2
  0
XRECORD
  5
10C88
102
{ACAD_REACTORS
330
10B49
102
}
330
10B49
100
AcDbXrecord
340
7
  0
GROUP
  5
63B1
102
{ACAD_REACTORS
330
18
102
}
330
18
100
AcDbGroup
300

 70
     3
 71
     0
  0
GROUP
  5
49CC
102
{ACAD_REACTORS
330
18
102
}
330
18
100
AcDbGroup
300

 70
     3
 71
     0
  0
GROUP
  5
6396
102
{ACAD_REACTORS
330
18
102
}
330
18
100
AcDbGroup
300

 70
     3
 71
     0
  0
GROUP
  5
6225
102
{ACAD_REACTORS
330
18
102
}
330
18
100
AcDbGroup
300

 70
     3
 71
     0
  0
GROUP
  5
6348
102
{ACAD_REACTORS
330
18
102
}
330
18
100
AcDbGroup
300

 70
     3
 71
     0
  0
GROUP
  5
62D7
102
{ACAD_REACTORS
330
18
102
}
330
18
100
AcDbGroup
300

 70
     3
 71
     0
  0
GROUP
  5
1B01
102
{ACAD_REACTORS
330
18
102
}
330
18
100
AcDbGroup
300

 70
     3
 71
     0
  0
GROUP
  5
1C38
102
{ACAD_REACTORS
330
18
102
}
330
18
100
AcDbGroup
300

 70
     3
 71
     0
  0
GROUP
  5
623E
102
{ACAD_REACTORS
330
18
102
}
330
18
100
AcDbGroup
300

 70
     3
 71
     0
  0
GROUP
  5
48DB
102
{ACAD_REACTORS
330
18
102
}
330
18
100
AcDbGroup
300

 70
     3
 71
     0
  0
GROUP
  5
63A4
102
{ACAD_REACTORS
330
18
102
}
330
18
100
AcDbGroup
300

 70
     3
 71
     0
  0
GROUP
  5
492A
102
{ACAD_REACTORS
330
18
102
}
330
18
100
AcDbGroup
300

 70
     3
 71
     0
  0
GROUP
  5
49AF
102
{ACAD_REACTORS
330
18
102
}
330
18
100
AcDbGroup
300

 70
     3
 71
     0
  0
GROUP
  5
6398
102
{ACAD_REACTORS
330
18
102
}
330
18
100
AcDbGroup
300

 70
     3
 71
     0
  0
GROUP
  5
623A
102
{ACAD_REACTORS
330
18
102
}
330
18
100
AcDbGroup
300

 70
     3
 71
     0
  0
GROUP
  5
6403
102
{ACAD_REACTORS
330
18
102
}
330
18
100
AcDbGroup
300

 70
     3
 71
     0
  0
GROUP
  5
481C
102
{ACAD_REACTORS
330
18
102
}
330
18
100
AcDbGroup
300

 70
     3
 71
     0
  0
GROUP
  5
484E
102
{ACAD_REACTORS
330
18
102
}
330
18
100
AcDbGroup
300

 70
     3
 71
     0
  0
GROUP
  5
62B3
102
{ACAD_REACTORS
330
18
102
}
330
18
100
AcDbGroup
300

 70
     3
 71
     0
  0
GROUP
  5
1B9C
102
{ACAD_REACTORS
330
18
102
}
330
18
100
AcDbGroup
300

 70
     3
 71
     0
  0
GROUP
  5
1AF1
102
{ACAD_REACTORS
330
18
102
}
330
18
100
AcDbGroup
300

 70
     3
 71
     0
  0
GROUP
  5
6250
102
{ACAD_REACTORS
330
18
102
}
330
18
100
AcDbGroup
300

 70
     3
 71
     0
  0
GROUP
  5
4963
102
{ACAD_REACTORS
330
18
102
}
330
18
100
AcDbGroup
300

 70
     3
 71
     0
  0
GROUP
  5
1B60
102
{ACAD_REACTORS
330
18
102
}
330
18
100
AcDbGroup
300

 70
     3
 71
     0
  0
GROUP
  5
6425
102
{ACAD_REACTORS
330
18
102
}
330
18
100
AcDbGroup
300

 70
     3
 71
     0
  0
GROUP
  5
4832
102
{ACAD_REACTORS
330
18
102
}
330
18
100
AcDbGroup
300

 70
     3
 71
     0
  0
GROUP
  5
6351
102
{ACAD_REACTORS
330
18
102
}
330
18
100
AcDbGroup
300

 70
     3
 71
     0
  0
GROUP
  5
6243
102
{ACAD_REACTORS
330
18
102
}
330
18
100
AcDbGroup
300

 70
     3
 71
     0
  0
GROUP
  5
48EF
102
{ACAD_REACTORS
330
18
102
}
330
18
100
AcDbGroup
300

 70
     3
 71
     0
  0
GROUP
  5
62D0
102
{ACAD_REACTORS
330
18
102
}
330
18
100
AcDbGroup
300

 70
     3
 71
     0
  0
GROUP
  5
1B87
102
{ACAD_REACTORS
330
18
102
}
330
18
100
AcDbGroup
300

 70
     3
 71
     0
  0
GROUP
  5
62FA
102
{ACAD_REACTORS
330
18
102
}
330
18
100
AcDbGroup
300

 70
     3
 71
     0
  0
GROUP
  5
48D5
102
{ACAD_REACTORS
330
18
102
}
330
18
100
AcDbGroup
300

 70
     3
 71
     0
  0
GROUP
  5
6422
102
{ACAD_REACTORS
330
18
102
}
330
18
100
AcDbGroup
300

 70
     3
 71
     0
  0
GROUP
  5
63FD
102
{ACAD_REACTORS
330
18
102
}
330
18
100
AcDbGroup
300

 70
     3
 71
     0
  0
GROUP
  5
4A11
102
{ACAD_REACTORS
330
18
102
}
330
18
100
AcDbGroup
300

 70
     3
 71
     0
  0
GROUP
  5
6372
102
{ACAD_REACTORS
330
18
102
}
330
18
100
AcDbGroup
300

 70
     3
 71
     0
  0
GROUP
  5
628A
102
{ACAD_REACTORS
330
18
102
}
330
18
100
AcDbGroup
300

 70
     3
 71
     0
  0
GROUP
  5
6258
102
{ACAD_REACTORS
330
18
102
}
330
18
100
AcDbGroup
300

 70
     3
 71
     0
  0
GROUP
  5
1BC8
102
{ACAD_REACTORS
330
18
102
}
330
18
100
AcDbGroup
300

 70
     3
 71
     0
  0
GROUP
  5
491D
102
{ACAD_REACTORS
330
18
102
}
330
18
100
AcDbGroup
300

 70
     3
 71
     0
  0
GROUP
  5
37BA
102
{ACAD_REACTORS
330
18
102
}
330
18
100
AcDbGroup
300

 70
     3
 71
     0
  0
GROUP
  5
1BE6
102
{ACAD_REACTORS
330
18
102
}
330
18
100
AcDbGroup
300

 70
     3
 71
     0
  0
GROUP
  5
1BE5
102
{ACAD_REACTORS
330
18
102
}
330
18
100
AcDbGroup
300

 70
     3
 71
     0
  0
GROUP
  5
4875
102
{ACAD_REACTORS
330
18
102
}
330
18
100
AcDbGroup
300

 70
     3
 71
     0
  0
GROUP
  5
621E
102
{ACAD_REACTORS
330
18
102
}
330
18
100
AcDbGroup
300

 70
     3
 71
     0
  0
GROUP
  5
494A
102
{ACAD_REACTORS
330
18
102
}
330
18
100
AcDbGroup
300

 70
     3
 71
     0
  0
GROUP
  5
49A4
102
{ACAD_REACTORS
330
18
102
}
330
18
100
AcDbGroup
300

 70
     3
 71
     0
  0
GROUP
  5
489B
102
{ACAD_REACTORS
330
18
102
}
330
18
100
AcDbGroup
300

 70
     3
 71
     0
  0
GROUP
  5
4831
102
{ACAD_REACTORS
330
18
102
}
330
18
100
AcDbGroup
300

 70
     3
 71
     0
  0
GROUP
  5
630B
102
{ACAD_REACTORS
330
18
102
}
330
18
100
AcDbGroup
300

 70
     3
 71
     0
  0
GROUP
  5
6353
102
{ACAD_REACTORS
330
18
102
}
330
18
100
AcDbGroup
300

 70
     3
 71
     0
  0
GROUP
  5
62A7
102
{ACAD_REACTORS
330
18
102
}
330
18
100
AcDbGroup
300

 70
     3
 71
     0
  0
GROUP
  5
1B39
102
{ACAD_REACTORS
330
18
102
}
330
18
100
AcDbGroup
300

 70
     3
 71
     0
  0
GROUP
  5
1AD5
102
{ACAD_REACTORS
330
18
102
}
330
18
100
AcDbGroup
300

 70
     3
 71
     0
  0
GROUP
  5
489C
102
{ACAD_REACTORS
330
18
102
}
330
18
100
AcDbGroup
300

 70
     3
 71
     0
  0
GROUP
  5
1ADE
102
{ACAD_REACTORS
330
18
102
}
330
18
100
AcDbGroup
300

 70
     3
 71
     0
  0
GROUP
  5
62FF
102
{ACAD_REACTORS
330
18
102
}
330
18
100
AcDbGroup
300

 70
     3
 71
     0
  0
GROUP
  5
1AF7
102
{ACAD_REACTORS
330
18
102
}
330
18
100
AcDbGroup
300

 70
     3
 71
     0
  0
GROUP
  5
1B4C
102
{ACAD_REACTORS
330
18
102
}
330
18
100
AcDbGroup
300

 70
     3
 71
     0
  0
GROUP
  5
6352
102
{ACAD_REACTORS
330
18
102
}
330
18
100
AcDbGroup
300

 70
     3
 71
     0
  0
GROUP
  5
1BAE
102
{ACAD_REACTORS
330
18
102
}
330
18
100
AcDbGroup
300

 70
     3
 71
     0
  0
GROUP
  5
1AEB
102
{ACAD_REACTORS
330
18
102
}
330
18
100
AcDbGroup
300

 70
     3
 71
     0
  0
GROUP
  5
4A02
102
{ACAD_REACTORS
330
18
102
}
330
18
100
AcDbGroup
300

 70
     3
 71
     0
  0
GROUP
  5
63A1
102
{ACAD_REACTORS
330
18
102
}
330
18
100
AcDbGroup
300

 70
     3
 71
     0
  0
GROUP
  5
496A
102
{ACAD_REACTORS
330
18
102
}
330
18
100
AcDbGroup
300

 70
     3
 71
     0
  0
GROUP
  5
63CF
102
{ACAD_REACTORS
330
18
102
}
330
18
100
AcDbGroup
300

 70
     3
 71
     0
  0
GROUP
  5
622C
102
{ACAD_REACTORS
330
18
102
}
330
18
100
AcDbGroup
300

 70
     3
 71
     0
  0
GROUP
  5
63DD
102
{ACAD_REACTORS
330
18
102
}
330
18
100
AcDbGroup
300

 70
     3
 71
     0
  0
GROUP
  5
1C1A
102
{ACAD_REACTORS
330
18
102
}
330
18
100
AcDbGroup
300

 70
     3
 71
     0
  0
GROUP
  5
1B6C
102
{ACAD_REACTORS
330
18
102
}
330
18
100
AcDbGroup
300

 70
     3
 71
     0
  0
GROUP
  5
1B6F
102
{ACAD_REACTORS
330
18
102
}
330
18
100
AcDbGroup
300

 70
     3
 71
     0
  0
GROUP
  5
1BB5
102
{ACAD_REACTORS
330
18
102
}
330
18
100
AcDbGroup
300

 70
     3
 71
     0
  0
GROUP
  5
62DF
102
{ACAD_REACTORS
330
18
102
}
330
18
100
AcDbGroup
300

 70
     3
 71
     0
  0
GROUP
  5
6294
102
{ACAD_REACTORS
330
18
102
}
330
18
100
AcDbGroup
300

 70
     3
 71
     0
  0
GROUP
  5
1B23
102
{ACAD_REACTORS
330
18
102
}
330
18
100
AcDbGroup
300

 70
     3
 71
     0
  0
GROUP
  5
1C5D
102
{ACAD_REACTORS
330
18
102
}
330
18
100
AcDbGroup
300

 70
     3
 71
     0
  0
GROUP
  5
62CD
102
{ACAD_REACTORS
330
18
102
}
330
18
100
AcDbGroup
300

 70
     3
 71
     0
  0
GROUP
  5
4A15
102
{ACAD_REACTORS
330
18
102
}
330
18
100
AcDbGroup
300

 70
     3
 71
     0
  0
GROUP
  5
6365
102
{ACAD_REACTORS
330
18
102
}
330
18
100
AcDbGroup
300

 70
     3
 71
     0
  0
GROUP
  5
628C
102
{ACAD_REACTORS
330
18
102
}
330
18
100
AcDbGroup
300

 70
     3
 71
     0
  0
GROUP
  5
6232
102
{ACAD_REACTORS
330
18
102
}
330
18
100
AcDbGroup
300

 70
     3
 71
     0
  0
GROUP
  5
1B7F
102
{ACAD_REACTORS
330
18
102
}
330
18
100
AcDbGroup
300

 70
     3
 71
     0
  0
GROUP
  5
49B3
102
{ACAD_REACTORS
330
18
102
}
330
18
100
AcDbGroup
300

 70
     3
 71
     0
  0
GROUP
  5
1AFA
102
{ACAD_REACTORS
330
18
102
}
330
18
100
AcDbGroup
300

 70
     3
 71
     0
  0
GROUP
  5
48A9
102
{ACAD_REACTORS
330
18
102
}
330
18
100
AcDbGroup
300

 70
     3
 71
     0
  0
GROUP
  5
481A
102
{ACAD_REACTORS
330
18
102
}
330
18
100
AcDbGroup
300

 70
     3
 71
     0
  0
GROUP
  5
4891
102
{ACAD_REACTORS
330
18
102
}
330
18
100
AcDbGroup
300

 70
     3
 71
     0
  0
GROUP
  5
631D
102
{ACAD_REACTORS
330
18
102
}
330
18
100
AcDbGroup
300

 70
     3
 71
     0
  0
GROUP
  5
4A06
102
{ACAD_REACTORS
330
18
102
}
330
18
100
AcDbGroup
300

 70
     3
 71
     0
  0
GROUP
  5
37B3
102
{ACAD_REACTORS
330
18
102
}
330
18
100
AcDbGroup
300

 70
     3
 71
     0
  0
GROUP
  5
483D
102
{ACAD_REACTORS
330
18
102
}
330
18
100
AcDbGroup
300

 70
     3
 71
     0
  0
GROUP
  5
37B2
102
{ACAD_REACTORS
330
18
102
}
330
18
100
AcDbGroup
300

 70
     3
 71
     0
  0
GROUP
  5
1AD8
102
{ACAD_REACTORS
330
18
102
}
330
18
100
AcDbGroup
300

 70
     3
 71
     0
  0
GROUP
  5
1C59
102
{ACAD_REACTORS
330
18
102
}
330
18
100
AcDbGroup
300

 70
     3
 71
     0
  0
GROUP
  5
62E0
102
{ACAD_REACTORS
330
18
102
}
330
18
100
AcDbGroup
300

 70
     3
 71
     0
  0
GROUP
  5
37AB
102
{ACAD_REACTORS
330
18
102
}
330
18
100
AcDbGroup
300

 70
     3
 71
     0
  0
GROUP
  5
49D6
102
{ACAD_REACTORS
330
18
102
}
330
18
100
AcDbGroup
300

 70
     3
 71
     0
  0
GROUP
  5
495C
102
{ACAD_REACTORS
330
18
102
}
330
18
100
AcDbGroup
300

 70
     3
 71
     0
  0
GROUP
  5
62C4
102
{ACAD_REACTORS
330
18
102
}
330
18
100
AcDbGroup
300

 70
     3
 71
     0
  0
GROUP
  5
1B77
102
{ACAD_REACTORS
330
18
102
}
330
18
100
AcDbGroup
300

 70
     3
 71
     0
  0
GROUP
  5
4834
102
{ACAD_REACTORS
330
18
102
}
330
18
100
AcDbGroup
300

 70
     3
 71
     0
  0
GROUP
  5
488D
102
{ACAD_REACTORS
330
18
102
}
330
18
100
AcDbGroup
300

 70
     3
 71
     0
  0
GROUP
  5
635F
102
{ACAD_REACTORS
330
18
102
}
330
18
100
AcDbGroup
300

 70
     3
 71
     0
  0
GROUP
  5
48B1
102
{ACAD_REACTORS
330
18
102
}
330
18
100
AcDbGroup
300

 70
     3
 71
     0
  0
GROUP
  5
1B1D
102
{ACAD_REACTORS
330
18
102
}
330
18
100
AcDbGroup
300

 70
     3
 71
     0
  0
GROUP
  5
1C5A
102
{ACAD_REACTORS
330
18
102
}
330
18
100
AcDbGroup
300

 70
     3
 71
     0
  0
GROUP
  5
63B2
102
{ACAD_REACTORS
330
18
102
}
330
18
100
AcDbGroup
300

 70
     3
 71
     0
  0
GROUP
  5
1BDB
102
{ACAD_REACTORS
330
18
102
}
330
18
100
AcDbGroup
300

 70
     3
 71
     0
  0
GROUP
  5
6407
102
{ACAD_REACTORS
330
18
102
}
330
18
100
AcDbGroup
300

 70
     3
 71
     0
  0
GROUP
  5
62A2
102
{ACAD_REACTORS
330
18
102
}
330
18
100
AcDbGroup
300

 70
     3
 71
     0
  0
GROUP
  5
1B82
102
{ACAD_REACTORS
330
18
102
}
330
18
100
AcDbGroup
300

 70
     3
 71
     0
  0
GROUP
  5
49E3
102
{ACAD_REACTORS
330
18
102
}
330
18
100
AcDbGroup
300

 70
     3
 71
     0
  0
GROUP
  5
48A2
102
{ACAD_REACTORS
330
18
102
}
330
18
100
AcDbGroup
300

 70
     3
 71
     0
  0
GROUP
  5
1B0A
102
{ACAD_REACTORS
330
18
102
}
330
18
100
AcDbGroup
300

 70
     3
 71
     0
  0
GROUP
  5
6229
102
{ACAD_REACTORS
330
18
102
}
330
18
100
AcDbGroup
300

 70
     3
 71
     0
  0
GROUP
  5
1B88
102
{ACAD_REACTORS
330
18
102
}
330
18
100
AcDbGroup
300

 70
     3
 71
     0
  0
GROUP
  5
625B
102
{ACAD_REACTORS
330
18
102
}
330
18
100
AcDbGroup
300

 70
     3
 71
     0
  0
GROUP
  5
1B04
102
{ACAD_REACTORS
330
18
102
}
330
18
100
AcDbGroup
300

 70
     3
 71
     0
  0
GROUP
  5
1B6D
102
{ACAD_REACTORS
330
18
102
}
330
18
100
AcDbGroup
300

 70
     3
 71
     0
  0
GROUP
  5
487A
102
{ACAD_REACTORS
330
18
102
}
330
18
100
AcDbGroup
300

 70
     3
 71
     0
  0
GROUP
  5
1B2B
102
{ACAD_REACTORS
330
18
102
}
330
18
100
AcDbGroup
300

 70
     3
 71
     0
  0
GROUP
  5
498B
102
{ACAD_REACTORS
330
18
102
}
330
18
100
AcDbGroup
300

 70
     3
 71
     0
  0
GROUP
  5
63A2
102
{ACAD_REACTORS
330
18
102
}
330
18
100
AcDbGroup
300

 70
     3
 71
     0
  0
GROUP
  5
1457
102
{ACAD_REACTORS
330
18
102
}
330
18
100
AcDbGroup
300

 70
     3
 71
     0
  0
GROUP
  5
6337
102
{ACAD_REACTORS
330
18
102
}
330
18
100
AcDbGroup
300

 70
     3
 71
     0
  0
GROUP
  5
6284
102
{ACAD_REACTORS
330
18
102
}
330
18
100
AcDbGroup
300

 70
     3
 71
     0
  0
GROUP
  5
4844
102
{ACAD_REACTORS
330
18
102
}
330
18
100
AcDbGroup
300

 70
     3
 71
     0
  0
GROUP
  5
1B35
102
{ACAD_REACTORS
330
18
102
}
330
18
100
AcDbGroup
300

 70
     3
 71
     0
  0
GROUP
  5
6402
102
{ACAD_REACTORS
330
18
102
}
330
18
100
AcDbGroup
300

 70
     3
 71
     0
  0
GROUP
  5
63F2
102
{ACAD_REACTORS
330
18
102
}
330
18
100
AcDbGroup
300

 70
     3
 71
     0
  0
GROUP
  5
63D6
102
{ACAD_REACTORS
330
18
102
}
330
18
100
AcDbGroup
300

 70
     3
 71
     0
  0
GROUP
  5
6350
102
{ACAD_REACTORS
330
18
102
}
330
18
100
AcDbGroup
300

 70
     3
 71
     0
  0
GROUP
  5
6400
102
{ACAD_REACTORS
330
18
102
}
330
18
100
AcDbGroup
300

 70
     3
 71
     0
  0
GROUP
  5
6399
102
{ACAD_REACTORS
330
18
102
}
330
18
100
AcDbGroup
300

 70
     3
 71
     0
  0
GROUP
  5
1ACE
102
{ACAD_REACTORS
330
18
102
}
330
18
100
AcDbGroup
300

 70
     3
 71
     0
  0
GROUP
  5
1AE6
102
{ACAD_REACTORS
330
18
102
}
330
18
100
AcDbGroup
300

 70
     3
 71
     0
  0
GROUP
  5
1B50
102
{ACAD_REACTORS
330
18
102
}
330
18
100
AcDbGroup
300

 70
     3
 71
     0
  0
GROUP
  5
1BB4
102
{ACAD_REACTORS
330
18
102
}
330
18
100
AcDbGroup
300

 70
     3
 71
     0
  0
GROUP
  5
1C03
102
{ACAD_REACTORS
330
18
102
}
330
18
100
AcDbGroup
300

 70
     3
 71
     0
  0
GROUP
  5
1C51
102
{ACAD_REACTORS
330
18
102
}
330
18
100
AcDbGroup
300

 70
     3
 71
     0
  0
GROUP
  5
63A0
102
{ACAD_REACTORS
330
18
102
}
330
18
100
AcDbGroup
300

 70
     3
 71
     0
  0
GROUP
  5
4995
102
{ACAD_REACTORS
330
18
102
}
330
18
100
AcDbGroup
300

 70
     3
 71
     0
  0
GROUP
  5
1C45
102
{ACAD_REACTORS
330
18
102
}
330
18
100
AcDbGroup
300

 70
     3
 71
     0
  0
GROUP
  5
49FC
102
{ACAD_REACTORS
330
18
102
}
330
18
100
AcDbGroup
300

 70
     3
 71
     0
  0
GROUP
  5
6283
102
{ACAD_REACTORS
330
18
102
}
330
18
100
AcDbGroup
300

 70
     3
 71
     0
  0
GROUP
  5
6341
102
{ACAD_REACTORS
330
18
102
}
330
18
100
AcDbGroup
300

 70
     3
 71
     0
  0
GROUP
  5
1BA8
102
{ACAD_REACTORS
330
18
102
}
330
18
100
AcDbGroup
300

 70
     3
 71
     0
  0
GROUP
  5
63F0
102
{ACAD_REACTORS
330
18
102
}
330
18
100
AcDbGroup
300

 70
     3
 71
     0
  0
GROUP
  5
48F8
102
{ACAD_REACTORS
330
18
102
}
330
18
100
AcDbGroup
300

 70
     3
 71
     0
  0
GROUP
  5
4A00
102
{ACAD_REACTORS
330
18
102
}
330
18
100
AcDbGroup
300

 70
     3
 71
     0
  0
GROUP
  5
49D8
102
{ACAD_REACTORS
330
18
102
}
330
18
100
AcDbGroup
300

 70
     3
 71
     0
  0
GROUP
  5
4855
102
{ACAD_REACTORS
330
18
102
}
330
18
100
AcDbGroup
300

 70
     3
 71
     0
  0
GROUP
  5
4990
102
{ACAD_REACTORS
330
18
102
}
330
18
100
AcDbGroup
300

 70
     3
 71
     0
  0
GROUP
  5
629B
102
{ACAD_REACTORS
330
18
102
}
330
18
100
AcDbGroup
300

 70
     3
 71
     0
  0
GROUP
  5
6298
102
{ACAD_REACTORS
330
18
102
}
330
18
100
AcDbGroup
300

 70
     3
 71
     0
  0
GROUP
  5
1C0E
102
{ACAD_REACTORS
330
18
102
}
330
18
100
AcDbGroup
300

 70
     3
 71
     0
  0
GROUP
  5
1460
102
{ACAD_REACTORS
330
18
102
}
330
18
100
AcDbGroup
300

 70
     3
 71
     0
  0
GROUP
  5
6381
102
{ACAD_REACTORS
330
18
102
}
330
18
100
AcDbGroup
300

 70
     3
 71
     0
  0
GROUP
  5
37B9
102
{ACAD_REACTORS
330
18
102
}
330
18
100
AcDbGroup
300

 70
     3
 71
     0
  0
GROUP
  5
1AD1
102
{ACAD_REACTORS
330
18
102
}
330
18
100
AcDbGroup
300

 70
     3
 71
     0
  0
GROUP
  5
4A04
102
{ACAD_REACTORS
330
18
102
}
330
18
100
AcDbGroup
300

 70
     3
 71
     0
  0
GROUP
  5
1AF3
102
{ACAD_REACTORS
330
18
102
}
330
18
100
AcDbGroup
300

 70
     3
 71
     0
  0
GROUP
  5
6279
102
{ACAD_REACTORS
330
18
102
}
330
18
100
AcDbGroup
300

 70
     3
 71
     0
  0
GROUP
  5
1ADD
102
{ACAD_REACTORS
330
18
102
}
330
18
100
AcDbGroup
300

 70
     3
 71
     0
  0
GROUP
  5
1C0C
102
{ACAD_REACTORS
330
18
102
}
330
18
100
AcDbGroup
300

 70
     3
 71
     0
  0
GROUP
  5
635B
102
{ACAD_REACTORS
330
18
102
}
330
18
100
AcDbGroup
300

 70
     3
 71
     0
  0
GROUP
  5
1BBD
102
{ACAD_REACTORS
330
18
102
}
330
18
100
AcDbGroup
300

 70
     3
 71
     0
  0
GROUP
  5
1B16
102
{ACAD_REACTORS
330
18
102
}
330
18
100
AcDbGroup
300

 70
     3
 71
     0
  0
GROUP
  5
1B62
102
{ACAD_REACTORS
330
18
102
}
330
18
100
AcDbGroup
300

 70
     3
 71
     0
  0
GROUP
  5
4909
102
{ACAD_REACTORS
330
18
102
}
330
18
100
AcDbGroup
300

 70
     3
 71
     0
  0
GROUP
  5
494D
102
{ACAD_REACTORS
330
18
102
}
330
18
100
AcDbGroup
300

 70
     3
 71
     0
  0
GROUP
  5
1AFD
102
{ACAD_REACTORS
330
18
102
}
330
18
100
AcDbGroup
300

 70
     3
 71
     0
  0
GROUP
  5
37C2
102
{ACAD_REACTORS
330
18
102
}
330
18
100
AcDbGroup
300

 70
     3
 71
     0
  0
GROUP
  5
4941
102
{ACAD_REACTORS
330
18
102
}
330
18
100
AcDbGroup
300

 70
     3
 71
     0
  0
GROUP
  5
1C12
102
{ACAD_REACTORS
330
18
102
}
330
18
100
AcDbGroup
300

 70
     3
 71
     0
  0
GROUP
  5
49D5
102
{ACAD_REACTORS
330
18
102
}
330
18
100
AcDbGroup
300

 70
     3
 71
     0
  0
GROUP
  5
4A0F
102
{ACAD_REACTORS
330
18
102
}
330
18
100
AcDbGroup
300

 70
     3
 71
     0
  0
GROUP
  5
1AEF
102
{ACAD_REACTORS
330
18
102
}
330
18
100
AcDbGroup
300

 70
     3
 71
     0
  0
GROUP
  5
6392
102
{ACAD_REACTORS
330
18
102
}
330
18
100
AcDbGroup
300

 70
     3
 71
     0
  0
GROUP
  5
1BED
102
{ACAD_REACTORS
330
18
102
}
330
18
100
AcDbGroup
300

 70
     3
 71
     0
  0
GROUP
  5
1BF5
102
{ACAD_REACTORS
330
18
102
}
330
18
100
AcDbGroup
300

 70
     3
 71
     0
  0
GROUP
  5
62E9
102
{ACAD_REACTORS
330
18
102
}
330
18
100
AcDbGroup
300

 70
     3
 71
     0
  0
GROUP
  5
48B3
102
{ACAD_REACTORS
330
18
102
}
330
18
100
AcDbGroup
300

 70
     3
 71
     0
  0
GROUP
  5
48CC
102
{ACAD_REACTORS
330
18
102
}
330
18
100
AcDbGroup
300

 70
     3
 71
     0
  0
GROUP
  5
1B2F
102
{ACAD_REACTORS
330
18
102
}
330
18
100
AcDbGroup
300

 70
     3
 71
     0
  0
GROUP
  5
1C57
102
{ACAD_REACTORS
330
18
102
}
330
18
100
AcDbGroup
300

 70
     3
 71
     0
  0
GROUP
  5
48CA
102
{ACAD_REACTORS
330
18
102
}
330
18
100
AcDbGroup
300

 70
     3
 71
     0
  0
GROUP
  5
62C8
102
{ACAD_REACTORS
330
18
102
}
330
18
100
AcDbGroup
300

 70
     3
 71
     0
  0
GROUP
  5
638B
102
{ACAD_REACTORS
330
18
102
}
330
18
100
AcDbGroup
300

 70
     3
 71
     0
  0
GROUP
  5
48E3
102
{ACAD_REACTORS
330
18
102
}
330
18
100
AcDbGroup
300

 70
     3
 71
     0
  0
GROUP
  5
4815
102
{ACAD_REACTORS
330
18
102
}
330
18
100
AcDbGroup
300

 70
     3
 71
     0
  0
GROUP
  5
4929
102
{ACAD_REACTORS
330
18
102
}
330
18
100
AcDbGroup
300

 70
     3
 71
     0
  0
GROUP
  5
6316
102
{ACAD_REACTORS
330
18
102
}
330
18
100
AcDbGroup
300

 70
     3
 71
     0
  0
GROUP
  5
37BF
102
{ACAD_REACTORS
330
18
102
}
330
18
100
AcDbGroup
300

 70
     3
 71
     0
  0
GROUP
  5
1BBB
102
{ACAD_REACTORS
330
18
102
}
330
18
100
AcDbGroup
300

 70
     3
 71
     0
  0
GROUP
  5
6304
102
{ACAD_REACTORS
330
18
102
}
330
18
100
AcDbGroup
300

 70
     3
 71
     0
  0
GROUP
  5
4908
102
{ACAD_REACTORS
330
18
102
}
330
18
100
AcDbGroup
300

 70
     3
 71
     0
  0
GROUP
  5
1BE1
102
{ACAD_REACTORS
330
18
102
}
330
18
100
AcDbGroup
300

 70
     3
 71
     0
  0
GROUP
  5
636A
102
{ACAD_REACTORS
330
18
102
}
330
18
100
AcDbGroup
300

 70
     3
 71
     0
  0
GROUP
  5
49F0
102
{ACAD_REACTORS
330
18
102
}
330
18
100
AcDbGroup
300

 70
     3
 71
     0
  0
GROUP
  5
493C
102
{ACAD_REACTORS
330
18
102
}
330
18
100
AcDbGroup
300

 70
     3
 71
     0
  0
GROUP
  5
1AEC
102
{ACAD_REACTORS
330
18
102
}
330
18
100
AcDbGroup
300

 70
     3
 71
     0
  0
GROUP
  5
498C
102
{ACAD_REACTORS
330
18
102
}
330
18
100
AcDbGroup
300

 70
     3
 71
     0
  0
GROUP
  5
62A8
102
{ACAD_REACTORS
330
18
102
}
330
18
100
AcDbGroup
300

 70
     3
 71
     0
  0
GROUP
  5
1B0C
102
{ACAD_REACTORS
330
18
102
}
330
18
100
AcDbGroup
300

 70
     3
 71
     0
  0
GROUP
  5
1BB6
102
{ACAD_REACTORS
330
18
102
}
330
18
100
AcDbGroup
300

 70
     3
 71
     0
  0
GROUP
  5
488F
102
{ACAD_REACTORS
330
18
102
}
330
18
100
AcDbGroup
300

 70
     3
 71
     0
  0
GROUP
  5
62E7
102
{ACAD_REACTORS
330
18
102
}
330
18
100
AcDbGroup
300

 70
     3
 71
     0
  0
GROUP
  5
625E
102
{ACAD_REACTORS
330
18
102
}
330
18
100
AcDbGroup
300

 70
     3
 71
     0
  0
GROUP
  5
4989
102
{ACAD_REACTORS
330
18
102
}
330
18
100
AcDbGroup
300

 70
     3
 71
     0
  0
GROUP
  5
6347
102
{ACAD_REACTORS
330
18
102
}
330
18
100
AcDbGroup
300

 70
     3
 71
     0
  0
GROUP
  5
4899
102
{ACAD_REACTORS
330
18
102
}
330
18
100
AcDbGroup
300

 70
     3
 71
     0
  0
GROUP
  5
1BBF
102
{ACAD_REACTORS
330
18
102
}
330
18
100
AcDbGroup
300

 70
     3
 71
     0
  0
GROUP
  5
63C9
102
{ACAD_REACTORS
330
18
102
}
330
18
100
AcDbGroup
300

 70
     3
 71
     0
  0
GROUP
  5
62A6
102
{ACAD_REACTORS
330
18
102
}
330
18
100
AcDbGroup
300

 70
     3
 71
     0
  0
GROUP
  5
6375
102
{ACAD_REACTORS
330
18
102
}
330
18
100
AcDbGroup
300

 70
     3
 71
     0
  0
GROUP
  5
4939
102
{ACAD_REACTORS
330
18
102
}
330
18
100
AcDbGroup
300

 70
     3
 71
     0
  0
GROUP
  5
626D
102
{ACAD_REACTORS
330
18
102
}
330
18
100
AcDbGroup
300

 70
     3
 71
     0
  0
GROUP
  5
4817
102
{ACAD_REACTORS
330
18
102
}
330
18
100
AcDbGroup
300

 70
     3
 71
     0
  0
GROUP
  5
4911
102
{ACAD_REACTORS
330
18
102
}
330
18
100
AcDbGroup
300

 70
     3
 71
     0
  0
GROUP
  5
635C
102
{ACAD_REACTORS
330
18
102
}
330
18
100
AcDbGroup
300

 70
     3
 71
     0
  0
GROUP
  5
487D
102
{ACAD_REACTORS
330
18
102
}
330
18
100
AcDbGroup
300

 70
     3
 71
     0
  0
GROUP
  5
4A0C
102
{ACAD_REACTORS
330
18
102
}
330
18
100
AcDbGroup
300

 70
     3
 71
     0
  0
GROUP
  5
1B5D
102
{ACAD_REACTORS
330
18
102
}
330
18
100
AcDbGroup
300

 70
     3
 71
     0
  0
GROUP
  5
63BB
102
{ACAD_REACTORS
330
18
102
}
330
18
100
AcDbGroup
300

 70
     3
 71
     0
  0
GROUP
  5
637A
102
{ACAD_REACTORS
330
18
102
}
330
18
100
AcDbGroup
300

 70
     3
 71
     0
  0
GROUP
  5
6261
102
{ACAD_REACTORS
330
18
102
}
330
18
100
AcDbGroup
300

 70
     3
 71
     0
  0
GROUP
  5
49CF
102
{ACAD_REACTORS
330
18
102
}
330
18
100
AcDbGroup
300

 70
     3
 71
     0
  0
GROUP
  5
6262
102
{ACAD_REACTORS
330
18
102
}
330
18
100
AcDbGroup
300

 70
     3
 71
     0
  0
GROUP
  5
4836
102
{ACAD_REACTORS
330
18
102
}
330
18
100
AcDbGroup
300

 70
     3
 71
     0
  0
GROUP
  5
1C39
102
{ACAD_REACTORS
330
18
102
}
330
18
100
AcDbGroup
300

 70
     3
 71
     0
  0
GROUP
  5
63DE
102
{ACAD_REACTORS
330
18
102
}
330
18
100
AcDbGroup
300

 70
     3
 71
     0
  0
GROUP
  5
1C02
102
{ACAD_REACTORS
330
18
102
}
330
18
100
AcDbGroup
300

 70
     3
 71
     0
  0
GROUP
  5
6394
102
{ACAD_REACTORS
330
18
102
}
330
18
100
AcDbGroup
300

 70
     3
 71
     0
  0
GROUP
  5
640C
102
{ACAD_REACTORS
330
18
102
}
330
18
100
AcDbGroup
300

 70
     3
 71
     0
  0
GROUP
  5
1BB1
102
{ACAD_REACTORS
330
18
102
}
330
18
100
AcDbGroup
300

 70
     3
 71
     0
  0
GROUP
  5
48E8
102
{ACAD_REACTORS
330
18
102
}
330
18
100
AcDbGroup
300

 70
     3
 71
     0
  0
GROUP
  5
37A3
102
{ACAD_REACTORS
330
18
102
}
330
18
100
AcDbGroup
300

 70
     3
 71
     0
  0
GROUP
  5
49AA
102
{ACAD_REACTORS
330
18
102
}
330
18
100
AcDbGroup
300

 70
     3
 71
     0
  0
GROUP
  5
63BC
102
{ACAD_REACTORS
330
18
102
}
330
18
100
AcDbGroup
300

 70
     3
 71
     0
  0
GROUP
  5
4856
102
{ACAD_REACTORS
330
18
102
}
330
18
100
AcDbGroup
300

 70
     3
 71
     0
  0
GROUP
  5
62AF
102
{ACAD_REACTORS
330
18
102
}
330
18
100
AcDbGroup
300

 70
     3
 71
     0
  0
GROUP
  5
48E1
102
{ACAD_REACTORS
330
18
102
}
330
18
100
AcDbGroup
300

 70
     3
 71
     0
  0
GROUP
  5
6311
102
{ACAD_REACTORS
330
18
102
}
330
18
100
AcDbGroup
300

 70
     3
 71
     0
  0
GROUP
  5
62AC
102
{ACAD_REACTORS
330
18
102
}
330
18
100
AcDbGroup
300

 70
     3
 71
     0
  0
GROUP
  5
6300
102
{ACAD_REACTORS
330
18
102
}
330
18
100
AcDbGroup
300

 70
     3
 71
     0
  0
GROUP
  5
49A8
102
{ACAD_REACTORS
330
18
102
}
330
18
100
AcDbGroup
300

 70
     3
 71
     0
  0
GROUP
  5
4887
102
{ACAD_REACTORS
330
18
102
}
330
18
100
AcDbGroup
300

 70
     3
 71
     0
  0
GROUP
  5
6369
102
{ACAD_REACTORS
330
18
102
}
330
18
100
AcDbGroup
300

 70
     3
 71
     0
  0
GROUP
  5
1C53
102
{ACAD_REACTORS
330
18
102
}
330
18
100
AcDbGroup
300

 70
     3
 71
     0
  0
GROUP
  5
499A
102
{ACAD_REACTORS
330
18
102
}
330
18
100
AcDbGroup
300

 70
     3
 71
     0
  0
GROUP
  5
48CB
102
{ACAD_REACTORS
330
18
102
}
330
18
100
AcDbGroup
300

 70
     3
 71
     0
  0
GROUP
  5
4874
102
{ACAD_REACTORS
330
18
102
}
330
18
100
AcDbGroup
300

 70
     3
 71
     0
  0
GROUP
  5
4896
102
{ACAD_REACTORS
330
18
102
}
330
18
100
AcDbGroup
300

 70
     3
 71
     0
  0
GROUP
  5
481F
102
{ACAD_REACTORS
330
18
102
}
330
18
100
AcDbGroup
300

 70
     3
 71
     0
  0
GROUP
  5
1459
102
{ACAD_REACTORS
330
18
102
}
330
18
100
AcDbGroup
300

 70
     3
 71
     0
  0
GROUP
  5
49F8
102
{ACAD_REACTORS
330
18
102
}
330
18
100
AcDbGroup
300

 70
     3
 71
     0
  0
GROUP
  5
4974
102
{ACAD_REACTORS
330
18
102
}
330
18
100
AcDbGroup
300

 70
     3
 71
     0
  0
GROUP
  5
63E2
102
{ACAD_REACTORS
330
18
102
}
330
18
100
AcDbGroup
300

 70
     3
 71
     0
  0
GROUP
  5
62B0
102
{ACAD_REACTORS
330
18
102
}
330
18
100
AcDbGroup
300

 70
     3
 71
     0
  0
GROUP
  5
497E
102
{ACAD_REACTORS
330
18
102
}
330
18
100
AcDbGroup
300

 70
     3
 71
     0
  0
GROUP
  5
634C
102
{ACAD_REACTORS
330
18
102
}
330
18
100
AcDbGroup
300

 70
     3
 71
     0
  0
GROUP
  5
483E
102
{ACAD_REACTORS
330
18
102
}
330
18
100
AcDbGroup
300

 70
     3
 71
     0
  0
GROUP
  5
1AD0
102
{ACAD_REACTORS
330
18
102
}
330
18
100
AcDbGroup
300

 70
     3
 71
     0
  0
GROUP
  5
639E
102
{ACAD_REACTORS
330
18
102
}
330
18
100
AcDbGroup
300

 70
     3
 71
     0
  0
GROUP
  5
6220
102
{ACAD_REACTORS
330
18
102
}
330
18
100
AcDbGroup
300

 70
     3
 71
     0
  0
GROUP
  5
63E1
102
{ACAD_REACTORS
330
18
102
}
330
18
100
AcDbGroup
300

 70
     3
 71
     0
  0
GROUP
  5
48B4
102
{ACAD_REACTORS
330
18
102
}
330
18
100
AcDbGroup
300

 70
     3
 71
     0
  0
GROUP
  5
4A17
102
{ACAD_REACTORS
330
18
102
}
330
18
100
AcDbGroup
300

 70
     3
 71
     0
  0
GROUP
  5
1B92
102
{ACAD_REACTORS
330
18
102
}
330
18
100
AcDbGroup
300

 70
     3
 71
     0
  0
GROUP
  5
1B2A
102
{ACAD_REACTORS
330
18
102
}
330
18
100
AcDbGroup
300

 70
     3
 71
     0
  0
GROUP
  5
48FA
102
{ACAD_REACTORS
330
18
102
}
330
18
100
AcDbGroup
300

 70
     3
 71
     0
  0
GROUP
  5
496B
102
{ACAD_REACTORS
330
18
102
}
330
18
100
AcDbGroup
300

 70
     3
 71
     0
  0
GROUP
  5
63FF
102
{ACAD_REACTORS
330
18
102
}
330
18
100
AcDbGroup
300

 70
     3
 71
     0
  0
GROUP
  5
4809
102
{ACAD_REACTORS
330
18
102
}
330
18
100
AcDbGroup
300

 70
     3
 71
     0
  0
GROUP
  5
48D2
102
{ACAD_REACTORS
330
18
102
}
330
18
100
AcDbGroup
300

 70
     3
 71
     0
  0
GROUP
  5
1C15
102
{ACAD_REACTORS
330
18
102
}
330
18
100
AcDbGroup
300

 70
     3
 71
     0
  0
GROUP
  5
1C47
102
{ACAD_REACTORS
330
18
102
}
330
18
100
AcDbGroup
300

 70
     3
 71
     0
  0
GROUP
  5
1C58
102
{ACAD_REACTORS
330
18
102
}
330
18
100
AcDbGroup
300

 70
     3
 71
     0
  0
GROUP
  5
49BD
102
{ACAD_REACTORS
330
18
102
}
330
18
100
AcDbGroup
300

 70
     3
 71
     0
  0
GROUP
  5
1B8B
102
{ACAD_REACTORS
330
18
102
}
330
18
100
AcDbGroup
300

 70
     3
 71
     0
  0
GROUP
  5
1C1B
102
{ACAD_REACTORS
330
18
102
}
330
18
100
AcDbGroup
300

 70
     3
 71
     0
  0
GROUP
  5
495E
102
{ACAD_REACTORS
330
18
102
}
330
18
100
AcDbGroup
300

 70
     3
 71
     0
  0
GROUP
  5
1C20
102
{ACAD_REACTORS
330
18
102
}
330
18
100
AcDbGroup
300

 70
     3
 71
     0
  0
GROUP
  5
49F5
102
{ACAD_REACTORS
330
18
102
}
330
18
100
AcDbGroup
300

 70
     3
 71
     0
  0
GROUP
  5
1AFE
102
{ACAD_REACTORS
330
18
102
}
330
18
100
AcDbGroup
300

 70
     3
 71
     0
  0
GROUP
  5
1C3A
102
{ACAD_REACTORS
330
18
102
}
330
18
100
AcDbGroup
300

 70
     3
 71
     0
  0
GROUP
  5
487E
102
{ACAD_REACTORS
330
18
102
}
330
18
100
AcDbGroup
300

 70
     3
 71
     0
  0
GROUP
  5
49E8
102
{ACAD_REACTORS
330
18
102
}
330
18
100
AcDbGroup
300

 70
     3
 71
     0
  0
GROUP
  5
37A6
102
{ACAD_REACTORS
330
18
102
}
330
18
100
AcDbGroup
300

 70
     3
 71
     0
  0
GROUP
  5
635A
102
{ACAD_REACTORS
330
18
102
}
330
18
100
AcDbGroup
300

 70
     3
 71
     0
  0
GROUP
  5
633C
102
{ACAD_REACTORS
330
18
102
}
330
18
100
AcDbGroup
300

 70
     3
 71
     0
  0
GROUP
  5
1BD4
102
{ACAD_REACTORS
330
18
102
}
330
18
100
AcDbGroup
300

 70
     3
 71
     0
  0
GROUP
  5
62A0
102
{ACAD_REACTORS
330
18
102
}
330
18
100
AcDbGroup
300

 70
     3
 71
     0
  0
GROUP
  5
4997
102
{ACAD_REACTORS
330
18
102
}
330
18
100
AcDbGroup
300

 70
     3
 71
     0
  0
GROUP
  5
6317
102
{ACAD_REACTORS
330
18
102
}
330
18
100
AcDbGroup
300

 70
     3
 71
     0
  0
GROUP
  5
1BD9
102
{ACAD_REACTORS
330
18
102
}
330
18
100
AcDbGroup
300

 70
     3
 71
     0
  0
GROUP
  5
6302
102
{ACAD_REACTORS
330
18
102
}
330
18
100
AcDbGroup
300

 70
     3
 71
     0
  0
GROUP
  5
1C21
102
{ACAD_REACTORS
330
18
102
}
330
18
100
AcDbGroup
300

 70
     3
 71
     0
  0
GROUP
  5
1AEE
102
{ACAD_REACTORS
330
18
102
}
330
18
100
AcDbGroup
300

 70
     3
 71
     0
  0
GROUP
  5
1B0D
102
{ACAD_REACTORS
330
18
102
}
330
18
100
AcDbGroup
300

 70
     3
 71
     0
  0
GROUP
  5
6248
102
{ACAD_REACTORS
330
18
102
}
330
18
100
AcDbGroup
300

 70
     3
 71
     0
  0
GROUP
  5
1AED
102
{ACAD_REACTORS
330
18
102
}
330
18
100
AcDbGroup
300

 70
     3
 71
     0
  0
GROUP
  5
497F
102
{ACAD_REACTORS
330
18
102
}
330
18
100
AcDbGroup
300

 70
     3
 71
     0
  0
GROUP
  5
1C48
102
{ACAD_REACTORS
330
18
102
}
330
18
100
AcDbGroup
300

 70
     3
 71
     0
  0
GROUP
  5
1B4A
102
{ACAD_REACTORS
330
18
102
}
330
18
100
AcDbGroup
300

 70
     3
 71
     0
  0
GROUP
  5
1BD3
102
{ACAD_REACTORS
330
18
102
}
330
18
100
AcDbGroup
300

 70
     3
 71
     0
  0
GROUP
  5
62E5
102
{ACAD_REACTORS
330
18
102
}
330
18
100
AcDbGroup
300

 70
     3
 71
     0
  0
GROUP
  5
48BB
102
{ACAD_REACTORS
330
18
102
}
330
18
100
AcDbGroup
300

 70
     3
 71
     0
  0
GROUP
  5
62F7
102
{ACAD_REACTORS
330
18
102
}
330
18
100
AcDbGroup
300

 70
     3
 71
     0
  0
GROUP
  5
1C37
102
{ACAD_REACTORS
330
18
102
}
330
18
100
AcDbGroup
300

 70
     3
 71
     0
  0
GROUP
  5
1C44
102
{ACAD_REACTORS
330
18
102
}
330
18
100
AcDbGroup
300

 70
     3
 71
     0
  0
GROUP
  5
49F6
102
{ACAD_REACTORS
330
18
102
}
330
18
100
AcDbGroup
300

 70
     3
 71
     0
  0
GROUP
  5
1BA6
102
{ACAD_REACTORS
330
18
102
}
330
18
100
AcDbGroup
300

 70
     3
 71
     0
  0
GROUP
  5
496F
102
{ACAD_REACTORS
330
18
102
}
330
18
100
AcDbGroup
300

 70
     3
 71
     0
  0
GROUP
  5
62AA
102
{ACAD_REACTORS
330
18
102
}
330
18
100
AcDbGroup
300

 70
     3
 71
     0
  0
GROUP
  5
49D3
102
{ACAD_REACTORS
330
18
102
}
330
18
100
AcDbGroup
300

 70
     3
 71
     0
  0
GROUP
  5
4955
102
{ACAD_REACTORS
330
18
102
}
330
18
100
AcDbGroup
300

 70
     3
 71
     0
  0
GROUP
  5
63F5
102
{ACAD_REACTORS
330
18
102
}
330
18
100
AcDbGroup
300

 70
     3
 71
     0
  0
GROUP
  5
1BE9
102
{ACAD_REACTORS
330
18
102
}
330
18
100
AcDbGroup
300

 70
     3
 71
     0
  0
GROUP
  5
628F
102
{ACAD_REACTORS
330
18
102
}
330
18
100
AcDbGroup
300

 70
     3
 71
     0
  0
GROUP
  5
37B1
102
{ACAD_REACTORS
330
18
102
}
330
18
100
AcDbGroup
300

 70
     3
 71
     0
  0
GROUP
  5
49C7
102
{ACAD_REACTORS
330
18
102
}
330
18
100
AcDbGroup
300

 70
     3
 71
     0
  0
GROUP
  5
48AC
102
{ACAD_REACTORS
330
18
102
}
330
18
100
AcDbGroup
300

 70
     3
 71
     0
  0
GROUP
  5
6327
102
{ACAD_REACTORS
330
18
102
}
330
18
100
AcDbGroup
300

 70
     3
 71
     0
  0
GROUP
  5
4973
102
{ACAD_REACTORS
330
18
102
}
330
18
100
AcDbGroup
300

 70
     3
 71
     0
  0
GROUP
  5
482D
102
{ACAD_REACTORS
330
18
102
}
330
18
100
AcDbGroup
300

 70
     3
 71
     0
  0
GROUP
  5
1C08
102
{ACAD_REACTORS
330
18
102
}
330
18
100
AcDbGroup
300

 70
     3
 71
     0
  0
GROUP
  5
62F1
102
{ACAD_REACTORS
330
18
102
}
330
18
100
AcDbGroup
300

 70
     3
 71
     0
  0
GROUP
  5
1AD6
102
{ACAD_REACTORS
330
18
102
}
330
18
100
AcDbGroup
300

 70
     3
 71
     0
  0
GROUP
  5
1BBA
102
{ACAD_REACTORS
330
18
102
}
330
18
100
AcDbGroup
300

 70
     3
 71
     0
  0
GROUP
  5
484C
102
{ACAD_REACTORS
330
18
102
}
330
18
100
AcDbGroup
300

 70
     3
 71
     0
  0
GROUP
  5
1462
102
{ACAD_REACTORS
330
18
102
}
330
18
100
AcDbGroup
300

 70
     3
 71
     0
  0
GROUP
  5
1B96
102
{ACAD_REACTORS
330
18
102
}
330
18
100
AcDbGroup
300

 70
     3
 71
     0
  0
GROUP
  5
1B13
102
{ACAD_REACTORS
330
18
102
}
330
18
100
AcDbGroup
300

 70
     3
 71
     0
  0
GROUP
  5
4937
102
{ACAD_REACTORS
330
18
102
}
330
18
100
AcDbGroup
300

 70
     3
 71
     0
  0
GROUP
  5
1458
102
{ACAD_REACTORS
330
18
102
}
330
18
100
AcDbGroup
300

 70
     3
 71
     0
  0
GROUP
  5
62C2
102
{ACAD_REACTORS
330
18
102
}
330
18
100
AcDbGroup
300

 70
     3
 71
     0
  0
GROUP
  5
1C46
102
{ACAD_REACTORS
330
18
102
}
330
18
100
AcDbGroup
300

 70
     3
 71
     0
  0
GROUP
  5
4886
102
{ACAD_REACTORS
330
18
102
}
330
18
100
AcDbGroup
300

 70
     3
 71
     0
  0
GROUP
  5
4871
102
{ACAD_REACTORS
330
18
102
}
330
18
100
AcDbGroup
300

 70
     3
 71
     0
  0
GROUP
  5
63AC
102
{ACAD_REACTORS
330
18
102
}
330
18
100
AcDbGroup
300

 70
     3
 71
     0
  0
GROUP
  5
62F5
102
{ACAD_REACTORS
330
18
102
}
330
18
100
AcDbGroup
300

 70
     3
 71
     0
  0
GROUP
  5
1BF9
102
{ACAD_REACTORS
330
18
102
}
330
18
100
AcDbGroup
300

 70
     3
 71
     0
  0
GROUP
  5
1466
102
{ACAD_REACTORS
330
18
102
}
330
18
100
AcDbGroup
300

 70
     3
 71
     0
  0
GROUP
  5
4833
102
{ACAD_REACTORS
330
18
102
}
330
18
100
AcDbGroup
300

 70
     3
 71
     0
  0
GROUP
  5
1B69
102
{ACAD_REACTORS
330
18
102
}
330
18
100
AcDbGroup
300

 70
     3
 71
     0
  0
GROUP
  5
48F2
102
{ACAD_REACTORS
330
18
102
}
330
18
100
AcDbGroup
300

 70
     3
 71
     0
  0
GROUP
  5
49DD
102
{ACAD_REACTORS
330
18
102
}
330
18
100
AcDbGroup
300

 70
     3
 71
     0
  0
GROUP
  5
4894
102
{ACAD_REACTORS
330
18
102
}
330
18
100
AcDbGroup
300

 70
     3
 71
     0
  0
GROUP
  5
6242
102
{ACAD_REACTORS
330
18
102
}
330
18
100
AcDbGroup
300

 70
     3
 71
     0
  0
GROUP
  5
63CC
102
{ACAD_REACTORS
330
18
102
}
330
18
100
AcDbGroup
300

 70
     3
 71
     0
  0
GROUP
  5
1B75
102
{ACAD_REACTORS
330
18
102
}
330
18
100
AcDbGroup
300

 70
     3
 71
     0
  0
GROUP
  5
37C1
102
{ACAD_REACTORS
330
18
102
}
330
18
100
AcDbGroup
300

 70
     3
 71
     0
  0
GROUP
  5
1BC2
102
{ACAD_REACTORS
330
18
102
}
330
18
100
AcDbGroup
300

 70
     3
 71
     0
  0
GROUP
  5
48E6
102
{ACAD_REACTORS
330
18
102
}
330
18
100
AcDbGroup
300

 70
     3
 71
     0
  0
GROUP
  5
1C2B
102
{ACAD_REACTORS
330
18
102
}
330
18
100
AcDbGroup
300

 70
     3
 71
     0
  0
GROUP
  5
4975
102
{ACAD_REACTORS
330
18
102
}
330
18
100
AcDbGroup
300

 70
     3
 71
     0
  0
GROUP
  5
629C
102
{ACAD_REACTORS
330
18
102
}
330
18
100
AcDbGroup
300

 70
     3
 71
     0
  0
GROUP
  5
1BC4
102
{ACAD_REACTORS
330
18
102
}
330
18
100
AcDbGroup
300

 70
     3
 71
     0
  0
GROUP
  5
63D2
102
{ACAD_REACTORS
330
18
102
}
330
18
100
AcDbGroup
300

 70
     3
 71
     0
  0
GROUP
  5
1C4D
102
{ACAD_REACTORS
330
18
102
}
330
18
100
AcDbGroup
300

 70
     3
 71
     0
  0
GROUP
  5
62B4
102
{ACAD_REACTORS
330
18
102
}
330
18
100
AcDbGroup
300

 70
     3
 71
     0
  0
GROUP
  5
48F5
102
{ACAD_REACTORS
330
18
102
}
330
18
100
AcDbGroup
300

 70
     3
 71
     0
  0
GROUP
  5
4813
102
{ACAD_REACTORS
330
18
102
}
330
18
100
AcDbGroup
300

 70
     3
 71
     0
  0
GROUP
  5
63B6
102
{ACAD_REACTORS
330
18
102
}
330
18
100
AcDbGroup
300

 70
     3
 71
     0
  0
GROUP
  5
48FC
102
{ACAD_REACTORS
330
18
102
}
330
18
100
AcDbGroup
300

 70
     3
 71
     0
  0
GROUP
  5
487F
102
{ACAD_REACTORS
330
18
102
}
330
18
100
AcDbGroup
300

 70
     3
 71
     0
  0
GROUP
  5
49EB
102
{ACAD_REACTORS
330
18
102
}
330
18
100
AcDbGroup
300

 70
     3
 71
     0
  0
GROUP
  5
1BFE
102
{ACAD_REACTORS
330
18
102
}
330
18
100
AcDbGroup
300

 70
     3
 71
     0
  0
GROUP
  5
6313
102
{ACAD_REACTORS
330
18
102
}
330
18
100
AcDbGroup
300

 70
     3
 71
     0
  0
GROUP
  5
37C0
102
{ACAD_REACTORS
330
18
102
}
330
18
100
AcDbGroup
300

 70
     3
 71
     0
  0
GROUP
  5
1BCC
102
{ACAD_REACTORS
330
18
102
}
330
18
100
AcDbGroup
300

 70
     3
 71
     0
  0
GROUP
  5
49DA
102
{ACAD_REACTORS
330
18
102
}
330
18
100
AcDbGroup
300

 70
     3
 71
     0
  0
GROUP
  5
4A03
102
{ACAD_REACTORS
330
18
102
}
330
18
100
AcDbGroup
300

 70
     3
 71
     0
  0
GROUP
  5
48B7
102
{ACAD_REACTORS
330
18
102
}
330
18
100
AcDbGroup
300

 70
     3
 71
     0
  0
GROUP
  5
497D
102
{ACAD_REACTORS
330
18
102
}
330
18
100
AcDbGroup
300

 70
     3
 71
     0
  0
GROUP
  5
4912
102
{ACAD_REACTORS
330
18
102
}
330
18
100
AcDbGroup
300

 70
     3
 71
     0
  0
GROUP
  5
48FF
102
{ACAD_REACTORS
330
18
102
}
330
18
100
AcDbGroup
300

 70
     3
 71
     0
  0
GROUP
  5
630E
102
{ACAD_REACTORS
330
18
102
}
330
18
100
AcDbGroup
300

 70
     3
 71
     0
  0
GROUP
  5
6370
102
{ACAD_REACTORS
330
18
102
}
330
18
100
AcDbGroup
300

 70
     3
 71
     0
  0
GROUP
  5
4968
102
{ACAD_REACTORS
330
18
102
}
330
18
100
AcDbGroup
300

 70
     3
 71
     0
  0
GROUP
  5
6382
102
{ACAD_REACTORS
330
18
102
}
330
18
100
AcDbGroup
300

 70
     3
 71
     0
  0
GROUP
  5
1B70
102
{ACAD_REACTORS
330
18
102
}
330
18
100
AcDbGroup
300

 70
     3
 71
     0
  0
GROUP
  5
627F
102
{ACAD_REACTORS
330
18
102
}
330
18
100
AcDbGroup
300

 70
     3
 71
     0
  0
GROUP
  5
63BE
102
{ACAD_REACTORS
330
18
102
}
330
18
100
AcDbGroup
300

 70
     3
 71
     0
  0
GROUP
  5
622D
102
{ACAD_REACTORS
330
18
102
}
330
18
100
AcDbGroup
300

 70
     3
 71
     0
  0
GROUP
  5
4988
102
{ACAD_REACTORS
330
18
102
}
330
18
100
AcDbGroup
300

 70
     3
 71
     0
  0
GROUP
  5
62BE
102
{ACAD_REACTORS
330
18
102
}
330
18
100
AcDbGroup
300

 70
     3
 71
     0
  0
GROUP
  5
6241
102
{ACAD_REACTORS
330
18
102
}
330
18
100
AcDbGroup
300

 70
     3
 71
     0
  0
GROUP
  5
4958
102
{ACAD_REACTORS
330
18
102
}
330
18
100
AcDbGroup
300

 70
     3
 71
     0
  0
GROUP
  5
63EA
102
{ACAD_REACTORS
330
18
102
}
330
18
100
AcDbGroup
300

 70
     3
 71
     0
  0
GROUP
  5
1BDF
102
{ACAD_REACTORS
330
18
102
}
330
18
100
AcDbGroup
300

 70
     3
 71
     0
  0
GROUP
  5
6307
102
{ACAD_REACTORS
330
18
102
}
330
18
100
AcDbGroup
300

 70
     3
 71
     0
  0
GROUP
  5
4824
102
{ACAD_REACTORS
330
18
102
}
330
18
100
AcDbGroup
300

 70
     3
 71
     0
  0
GROUP
  5
4978
102
{ACAD_REACTORS
330
18
102
}
330
18
100
AcDbGroup
300

 70
     3
 71
     0
  0
GROUP
  5
1C5B
102
{ACAD_REACTORS
330
18
102
}
330
18
100
AcDbGroup
300

 70
     3
 71
     0
  0
GROUP
  5
49C3
102
{ACAD_REACTORS
330
18
102
}
330
18
100
AcDbGroup
300

 70
     3
 71
     0
  0
GROUP
  5
49C9
102
{ACAD_REACTORS
330
18
102
}
330
18
100
AcDbGroup
300

 70
     3
 71
     0
  0
GROUP
  5
F3E9
102
{ACAD_REACTORS
330
18
102
}
330
18
100
AcDbGroup
300

 70
     1
 71
     1
340
F04E
340
F04D
340
F052
340
F051
340
F054
340
F056
340
F053
340
F050
340
F04F
  0
GROUP
  5
499B
102
{ACAD_REACTORS
330
18
102
}
330
18
100
AcDbGroup
300

 70
     3
 71
     0
  0
GROUP
  5
37A5
102
{ACAD_REACTORS
330
18
102
}
330
18
100
AcDbGroup
300

 70
     3
 71
     0
  0
GROUP
  5
6236
102
{ACAD_REACTORS
330
18
102
}
330
18
100
AcDbGroup
300

 70
     3
 71
     0
  0
GROUP
  5
6264
102
{ACAD_REACTORS
330
18
102
}
330
18
100
AcDbGroup
300

 70
     3
 71
     0
  0
GROUP
  5
37B5
102
{ACAD_REACTORS
330
18
102
}
330
18
100
AcDbGroup
300

 70
     3
 71
     0
  0
GROUP
  5
63C2
102
{ACAD_REACTORS
330
18
102
}
330
18
100
AcDbGroup
300

 70
     3
 71
     0
  0
GROUP
  5
4952
102
{ACAD_REACTORS
330
18
102
}
330
18
100
AcDbGroup
300

 70
     3
 71
     0
  0
GROUP
  5
6315
102
{ACAD_REACTORS
330
18
102
}
330
18
100
AcDbGroup
300

 70
     3
 71
     0
  0
GROUP
  5
62D4
102
{ACAD_REACTORS
330
18
102
}
330
18
100
AcDbGroup
300

 70
     3
 71
     1
  0
GROUP
  5
49B1
102
{ACAD_REACTORS
330
18
102
}
330
18
100
AcDbGroup
300

 70
     3
 71
     0
  0
GROUP
  5
49EF
102
{ACAD_REACTORS
330
18
102
}
330
18
100
AcDbGroup
300

 70
     3
 71
     0
  0
GROUP
  5
49A5
102
{ACAD_REACTORS
330
18
102
}
330
18
100
AcDbGroup
300

 70
     3
 71
     0
  0
GROUP
  5
1BD1
102
{ACAD_REACTORS
330
18
102
}
330
18
100
AcDbGroup
300

 70
     3
 71
     0
  0
GROUP
  5
62F9
102
{ACAD_REACTORS
330
18
102
}
330
18
100
AcDbGroup
300

 70
     3
 71
     0
  0
GROUP
  5
1B99
102
{ACAD_REACTORS
330
18
102
}
330
18
100
AcDbGroup
300

 70
     3
 71
     0
  0
GROUP
  5
4993
102
{ACAD_REACTORS
330
18
102
}
330
18
100
AcDbGroup
300

 70
     3
 71
     0
  0
GROUP
  5
4948
102
{ACAD_REACTORS
330
18
102
}
330
18
100
AcDbGroup
300

 70
     3
 71
     0
  0
GROUP
  5
63FC
102
{ACAD_REACTORS
330
18
102
}
330
18
100
AcDbGroup
300

 70
     3
 71
     0
  0
GROUP
  5
4892
102
{ACAD_REACTORS
330
18
102
}
330
18
100
AcDbGroup
300

 70
     3
 71
     0
  0
GROUP
  5
4981
102
{ACAD_REACTORS
330
18
102
}
330
18
100
AcDbGroup
300

 70
     3
 71
     0
  0
GROUP
  5
63B5
102
{ACAD_REACTORS
330
18
102
}
330
18
100
AcDbGroup
300

 70
     3
 71
     0
  0
GROUP
  5
4962
102
{ACAD_REACTORS
330
18
102
}
330
18
100
AcDbGroup
300

 70
     3
 71
     0
  0
GROUP
  5
4931
102
{ACAD_REACTORS
330
18
102
}
330
18
100
AcDbGroup
300

 70
     3
 71
     0
  0
GROUP
  5
6322
102
{ACAD_REACTORS
330
18
102
}
330
18
100
AcDbGroup
300

 70
     3
 71
     0
  0
GROUP
  5
4932
102
{ACAD_REACTORS
330
18
102
}
330
18
100
AcDbGroup
300

 70
     3
 71
     0
  0
GROUP
  5
1C23
102
{ACAD_REACTORS
330
18
102
}
330
18
100
AcDbGroup
300

 70
     3
 71
     0
  0
GROUP
  5
1BF6
102
{ACAD_REACTORS
330
18
102
}
330
18
100
AcDbGroup
300

 70
     3
 71
     0
  0
GROUP
  5
F930
102
{ACAD_REACTORS
330
18
102
}
330
18
100
AcDbGroup
300

 70
     1
 71
     1
340
F927
340
F928
340
F929
340
F92A
340
F92B
340
F92C
340
F92D
340
F92E
340
F92F
  0
GROUP
  5
63A8
102
{ACAD_REACTORS
330
18
102
}
330
18
100
AcDbGroup
300

 70
     3
 71
     0
  0
GROUP
  5
63E0
102
{ACAD_REACTORS
330
18
102
}
330
18
100
AcDbGroup
300

 70
     3
 71
     0
  0
GROUP
  5
63A5
102
{ACAD_REACTORS
330
18
102
}
330
18
100
AcDbGroup
300

 70
     3
 71
     0
  0
GROUP
  5
379B
102
{ACAD_REACTORS
330
18
102
}
330
18
100
AcDbGroup
300

 70
     3
 71
     0
  0
GROUP
  5
49D4
102
{ACAD_REACTORS
330
18
102
}
330
18
100
AcDbGroup
300

 70
     3
 71
     0
  0
GROUP
  5
62A5
102
{ACAD_REACTORS
330
18
102
}
330
18
100
AcDbGroup
300

 70
     3
 71
     0
  0
GROUP
  5
1B79
102
{ACAD_REACTORS
330
18
102
}
330
18
100
AcDbGroup
300

 70
     3
 71
     0
  0
GROUP
  5
4880
102
{ACAD_REACTORS
330
18
102
}
330
18
100
AcDbGroup
300

 70
     3
 71
     0
  0
GROUP
  5
4991
102
{ACAD_REACTORS
330
18
102
}
330
18
100
AcDbGroup
300

 70
     3
 71
     0
  0
GROUP
  5
1B8C
102
{ACAD_REACTORS
330
18
102
}
330
18
100
AcDbGroup
300

 70
     3
 71
     0
  0
GROUP
  5
49AB
102
{ACAD_REACTORS
330
18
102
}
330
18
100
AcDbGroup
300

 70
     3
 71
     0
  0
GROUP
  5
1B72
102
{ACAD_REACTORS
330
18
102
}
330
18
100
AcDbGroup
300

 70
     3
 71
     0
  0
GROUP
  5
630C
102
{ACAD_REACTORS
330
18
102
}
330
18
100
AcDbGroup
300

 70
     3
 71
     0
  0
GROUP
  5
621A
102
{ACAD_REACTORS
330
18
102
}
330
18
100
AcDbGroup
300

 70
     3
 71
     0
  0
GROUP
  5
104ED
102
{ACAD_REACTORS
330
18
102
}
330
18
100
AcDbGroup
300

 70
     1
 71
     1
340
F6E2
340
F6E3
340
F695
340
F6E4
340
F6E0
340
F6E1
340
F694
340
F869
340
F7D4
340
F7D5
340
F7D6
340
F7F1
340
F7F2
340
F7F3
340
F7F8
340
F7F9
340
F7FA
340
104EA
340
F861
340
F75E
340
F75F
340
F760
340
F773
340
F774
340
F775
340
F776
340
F77A
340
F77B
340
F6DC
340
F859
340
F6D1
340
F6C3
340
F6C6
340
F6C2
340
F6C4
340
F85A
340
F6E8
340
F85C
340
F6BA
340
F6BB
340
F6BC
340
F713
340
F6C5
340
F85B
340
F6B8
340
F706
340
F6D3
340
F6D4
340
F6D5
340
F6D2
340
F6D6
340
F6D8
340
F6D0
340
F6D7
340
F6F2
340
F6F3
340
F6D9
340
F6DB
340
F6F0
340
F6F1
340
F6EF
340
F6DA
340
F6EE
340
F6DE
340
F6E9
340
F6EA
340
F6EB
340
F6EC
340
F6ED
340
F6E6
340
F6E7
340
F6E5
340
F6DD
340
F6DF
340
F70D
340
F714
340
F715
340
F716
340
F717
340
F718
340
F6F4
340
F6F5
340
F6F6
340
F6FE
340
F70C
340
F711
340
F70E
340
F70F
340
F710
340
F719
340
F6F9
340
F712
340
F6FD
340
F6FF
340
F700
340
F701
340
F702
340
F703
340
F6F7
340
F6FA
340
F6FB
340
F6FC
340
F704
340
F707
340
F708
340
F709
340
F70A
340
F70B
340
F71B
340
F71D
340
F858
340
F85E
340
F6B7
340
F6B9
340
F6BF
340
F6C0
340
F6C8
340
F746
340
F85D
340
F85F
340
F6AD
340
F6AE
340
F6B1
340
F6BD
340
F6BE
340
F735
340
F74F
340
F6C7
340
F6C9
340
F6CA
340
F6CB
340
F6CC
340
F6CD
340
F6CE
340
F6CF
340
F6F8
340
F705
340
F71A
340
F71C
340
F720
340
F721
340
F722
340
F728
340
F729
340
F72A
340
F72B
340
F72C
340
F72E
340
F73B
340
F73C
340
F73E
340
F73F
340
F740
340
F741
340
F742
340
F744
340
F745
340
F747
340
F748
340
F71E
340
F71F
340
F723
340
F724
340
F725
340
F726
340
F727
340
F72D
340
F72F
340
F730
340
F731
340
F732
340
F733
340
F734
340
F736
340
F737
340
F738
340
F739
340
F73A
340
F73D
340
F743
340
F749
340
F74A
340
F74B
340
F74C
340
F74D
340
F74E
340
F750
340
F751
340
F752
340
F753
340
F754
340
F756
340
F762
340
F770
340
F777
340
104E7
340
104E6
340
104E5
340
104E4
340
F862
340
F782
340
F860
340
F6AF
340
F6B0
340
F6B3
340
F6B4
340
F76A
340
F865
340
F6B2
340
F6B5
340
F6B6
340
F7B5
340
F764
340
F765
340
F766
340
F77D
340
F77E
340
F781
340
F783
340
F784
340
F755
340
F758
340
F759
340
F75A
340
F75B
340
F75C
340
F75D
340
F761
340
F763
340
F767
340
F769
340
F76B
340
F76C
340
F76D
340
F76E
340
F76F
340
F771
340
F772
340
F778
340
F779
340
F77C
340
F780
340
F785
340
F786
340
F757
340
F768
340
F77F
340
F787
340
F795
340
F796
340
F79A
340
F79B
340
F79C
340
F79D
340
F79E
340
F7AD
340
F7AE
340
F7AF
340
F7B0
340
F7B1
340
F7B3
340
F7B4
340
F7B6
340
F7B7
340
104E8
340
104E9
340
F867
340
F6A9
340
F6AA
340
F6AB
340
F7DB
340
F7C6
340
F7C7
340
F7C8
340
F7CB
340
F7CC
340
F7CD
340
F7D3
340
F7D7
340
F7D8
340
F7DC
340
F7DD
340
F7DE
340
F7DF
340
F7E0
340
F7E4
340
F7E9
340
F7EF
340
F7F0
340
F7F5
340
F7F6
340
F88C
340
F88D
340
F88E
340
F89E
340
F89F
340
F8A3
340
F8A4
340
F8A5
340
F8A6
340
F8B6
340
F86B
340
F81A
340
F863
340
F699
340
F69A
340
F69B
340
F6AC
340
F78A
340
F82C
340
F86A
340
F86C
340
F69C
340
F69D
340
F69E
340
F6A0
340
F6A1
340
F7FD
340
F80A
340
F80B
340
F80C
340
F816
340
F817
340
F818
340
F819
340
F81B
340
F788
340
F789
340
F78B
340
F78C
340
F78D
340
F78E
340
F78F
340
F790
340
F7C4
340
F7CA
340
F7D9
340
F7DA
340
F7ED
340
F7EE
340
F7F4
340
F7F7
340
F804
340
F805
340
F80D
340
F80E
340
F81C
340
F81D
340
F81E
340
F81F
340
F828
340
F829
340
F82A
340
F82B
340
F82D
340
F832
340
F838
340
F846
340
F849
340
F7FB
340
F7FC
340
F7FE
340
F7FF
340
F800
340
F801
340
F802
340
F803
340
F806
340
F807
340
F808
340
F809
340
F80F
340
F810
340
F811
340
F812
340
F813
340
F814
340
F815
340
F820
340
F821
340
F822
340
F823
340
F824
340
F825
340
F826
340
F827
340
F841
340
F855
340
F86D
340
F86E
340
F696
340
F698
340
F69F
340
F6A2
340
F870
340
F871
340
F872
340
F873
340
F89B
340
F8B5
340
F68B
340
F690
340
F697
340
F82E
340
F82F
340
F831
340
F833
340
F834
340
F835
340
F836
340
F837
340
F839
340
F83A
340
F83B
340
F83C
340
F83D
340
F83F
340
F840
340
F842
340
F843
340
F844
340
F845
340
F847
340
F848
340
F84A
340
F84B
340
F84C
340
F84E
340
F84F
340
F850
340
F852
340
F853
340
F854
340
F856
340
F857
340
F830
340
F83E
340
F84D
340
F851
340
F880
340
F881
340
F883
340
F884
340
F886
340
F887
340
F888
340
F889
340
F88A
340
F88B
340
F890
340
F892
340
F893
340
F894
340
F895
340
F896
340
F897
340
F898
340
F899
340
F89A
340
F89C
340
F89D
340
F8A0
340
F8A7
340
F68A
340
F68C
340
F68D
340
F68E
340
F68F
340
F691
340
F692
340
F693
340
F8AB
340
F86F
340
F874
340
F875
340
F876
340
F879
340
F8B4
340
F8AC
340
F8AF
340
F877
340
F878
340
F87A
340
F87B
340
F87C
340
F87D
340
F87E
340
F87F
340
F882
340
F885
340
F88F
340
F891
340
F8A1
340
F8A2
340
F8A8
340
F8A9
340
F8AA
340
F8B1
340
F8B2
340
F8B3
340
F8AD
340
F8AE
340
F8B0
  0
GROUP
  5
1BDE
102
{ACAD_REACTORS
330
18
102
}
330
18
100
AcDbGroup
300

 70
     3
 71
     0
  0
GROUP
  5
495D
102
{ACAD_REACTORS
330
18
102
}
330
18
100
AcDbGroup
300

 70
     3
 71
     0
  0
GROUP
  5
48EC
102
{ACAD_REACTORS
330
18
102
}
330
18
100
AcDbGroup
300

 70
     3
 71
     0
  0
GROUP
  5
638A
102
{ACAD_REACTORS
330
18
102
}
330
18
100
AcDbGroup
300

 70
     3
 71
     0
  0
GROUP
  5
4890
102
{ACAD_REACTORS
330
18
102
}
330
18
100
AcDbGroup
300

 70
     3
 71
     0
  0
GROUP
  5
1BFB
102
{ACAD_REACTORS
330
18
102
}
330
18
100
AcDbGroup
300

 70
     3
 71
     0
  0
GROUP
  5
6371
102
{ACAD_REACTORS
330
18
102
}
330
18
100
AcDbGroup
300

 70
     3
 71
     0
  0
GROUP
  5
497B
102
{ACAD_REACTORS
330
18
102
}
330
18
100
AcDbGroup
300

 70
     3
 71
     0
  0
GROUP
  5
4901
102
{ACAD_REACTORS
330
18
102
}
330
18
100
AcDbGroup
300

 70
     3
 71
     0
  0
GROUP
  5
62D3
102
{ACAD_REACTORS
330
18
102
}
330
18
100
AcDbGroup
300

 70
     3
 71
     1
  0
GROUP
  5
6233
102
{ACAD_REACTORS
330
18
102
}
330
18
100
AcDbGroup
300

 70
     3
 71
     0
  0
GROUP
  5
1BB7
102
{ACAD_REACTORS
330
18
102
}
330
18
100
AcDbGroup
300

 70
     3
 71
     0
  0
GROUP
  5
1C01
102
{ACAD_REACTORS
330
18
102
}
330
18
100
AcDbGroup
300

 70
     3
 71
     0
  0
GROUP
  5
4816
102
{ACAD_REACTORS
330
18
102
}
330
18
100
AcDbGroup
300

 70
     3
 71
     0
  0
GROUP
  5
104EE
102
{ACAD_REACTORS
330
18
102
}
330
18
100
AcDbGroup
300

 70
     1
 71
     1
340
F675
340
F676
340
F678
340
F679
340
F67B
340
F67E
340
F67F
340
F680
340
F67C
340
F67D
340
F683
340
F684
340
F685
340
F687
340
F686
340
F673
340
F682
340
F674
  0
GROUP
  5
62AE
102
{ACAD_REACTORS
330
18
102
}
330
18
100
AcDbGroup
300

 70
     3
 71
     0
  0
GROUP
  5
48E0
102
{ACAD_REACTORS
330
18
102
}
330
18
100
AcDbGroup
300

 70
     3
 71
     0
  0
GROUP
  5
633E
102
{ACAD_REACTORS
330
18
102
}
330
18
100
AcDbGroup
300

 70
     3
 71
     0
  0
GROUP
  5
63D9
102
{ACAD_REACTORS
330
18
102
}
330
18
100
AcDbGroup
300

 70
     3
 71
     0
  0
GROUP
  5
49E2
102
{ACAD_REACTORS
330
18
102
}
330
18
100
AcDbGroup
300

 70
     3
 71
     0
  0
GROUP
  5
48C8
102
{ACAD_REACTORS
330
18
102
}
330
18
100
AcDbGroup
300

 70
     3
 71
     0
  0
GROUP
  5
48B5
102
{ACAD_REACTORS
330
18
102
}
330
18
100
AcDbGroup
300

 70
     3
 71
     0
  0
GROUP
  5
4964
102
{ACAD_REACTORS
330
18
102
}
330
18
100
AcDbGroup
300

 70
     3
 71
     0
  0
GROUP
  5
4884
102
{ACAD_REACTORS
330
18
102
}
330
18
100
AcDbGroup
300

 70
     3
 71
     0
  0
GROUP
  5
1B41
102
{ACAD_REACTORS
330
18
102
}
330
18
100
AcDbGroup
300

 70
     3
 71
     0
  0
GROUP
  5
63E6
102
{ACAD_REACTORS
330
18
102
}
330
18
100
AcDbGroup
300

 70
     3
 71
     0
  0
GROUP
  5
1BB2
102
{ACAD_REACTORS
330
18
102
}
330
18
100
AcDbGroup
300

 70
     3
 71
     0
  0
GROUP
  5
49CB
102
{ACAD_REACTORS
330
18
102
}
330
18
100
AcDbGroup
300

 70
     3
 71
     0
  0
GROUP
  5
10577
102
{ACAD_REACTORS
330
18
102
}
330
18
100
AcDbGroup
300

 70
     1
 71
     1
  0
GROUP
  5
145B
102
{ACAD_REACTORS
330
18
102
}
330
18
100
AcDbGroup
300

 70
     3
 71
     0
  0
GROUP
  5
1C60
102
{ACAD_REACTORS
330
18
102
}
330
18
100
AcDbGroup
300

 70
     3
 71
     0
  0
GROUP
  5
1AE5
102
{ACAD_REACTORS
330
18
102
}
330
18
100
AcDbGroup
300

 70
     3
 71
     0
  0
GROUP
  5
4950
102
{ACAD_REACTORS
330
18
102
}
330
18
100
AcDbGroup
300

 70
     3
 71
     0
  0
GROUP
  5
62B2
102
{ACAD_REACTORS
330
18
102
}
330
18
100
AcDbGroup
300

 70
     3
 71
     0
  0
GROUP
  5
1B5F
102
{ACAD_REACTORS
330
18
102
}
330
18
100
AcDbGroup
300

 70
     3
 71
     0
  0
GROUP
  5
1C05
102
{ACAD_REACTORS
330
18
102
}
330
18
100
AcDbGroup
300

 70
     3
 71
     0
  0
GROUP
  5
1C4E
102
{ACAD_REACTORS
330
18
102
}
330
18
100
AcDbGroup
300

 70
     3
 71
     0
  0
GROUP
  5
1B2D
102
{ACAD_REACTORS
330
18
102
}
330
18
100
AcDbGroup
300

 70
     3
 71
     0
  0
GROUP
  5
49B9
102
{ACAD_REACTORS
330
18
102
}
330
18
100
AcDbGroup
300

 70
     3
 71
     0
  0
GROUP
  5
63E3
102
{ACAD_REACTORS
330
18
102
}
330
18
100
AcDbGroup
300

 70
     3
 71
     0
  0
GROUP
  5
1BF3
102
{ACAD_REACTORS
330
18
102
}
330
18
100
AcDbGroup
300

 70
     3
 71
     0
  0
GROUP
  5
1B66
102
{ACAD_REACTORS
330
18
102
}
330
18
100
AcDbGroup
300

 70
     3
 71
     0
  0
GROUP
  5
1C35
102
{ACAD_REACTORS
330
18
102
}
330
18
100
AcDbGroup
300

 70
     3
 71
     0
  0
GROUP
  5
63D1
102
{ACAD_REACTORS
330
18
102
}
330
18
100
AcDbGroup
300

 70
     3
 71
     0
  0
GROUP
  5
10578
102
{ACAD_REACTORS
330
18
102
}
330
18
100
AcDbGroup
300

 70
     1
 71
     1
  0
GROUP
  5
4946
102
{ACAD_REACTORS
330
18
102
}
330
18
100
AcDbGroup
300

 70
     3
 71
     0
  0
GROUP
  5
1BEF
102
{ACAD_REACTORS
330
18
102
}
330
18
100
AcDbGroup
300

 70
     3
 71
     0
  0
GROUP
  5
62CA
102
{ACAD_REACTORS
330
18
102
}
330
18
100
AcDbGroup
300

 70
     3
 71
     0
  0
GROUP
  5
62C3
102
{ACAD_REACTORS
330
18
102
}
330
18
100
AcDbGroup
300

 70
     3
 71
     0
  0
GROUP
  5
1BF0
102
{ACAD_REACTORS
330
18
102
}
330
18
100
AcDbGroup
300

 70
     3
 71
     0
  0
GROUP
  5
625C
102
{ACAD_REACTORS
330
18
102
}
330
18
100
AcDbGroup
300

 70
     3
 71
     0
  0
GROUP
  5
6219
102
{ACAD_REACTORS
330
18
102
}
330
18
100
AcDbGroup
300

 70
     3
 71
     0
  0
GROUP
  5
48CF
102
{ACAD_REACTORS
330
18
102
}
330
18
100
AcDbGroup
300

 70
     3
 71
     0
  0
GROUP
  5
6413
102
{ACAD_REACTORS
330
18
102
}
330
18
100
AcDbGroup
300

 70
     3
 71
     0
  0
GROUP
  5
631E
102
{ACAD_REACTORS
330
18
102
}
330
18
100
AcDbGroup
300

 70
     3
 71
     0
  0
GROUP
  5
4A01
102
{ACAD_REACTORS
330
18
102
}
330
18
100
AcDbGroup
300

 70
     3
 71
     0
  0
GROUP
  5
4847
102
{ACAD_REACTORS
330
18
102
}
330
18
100
AcDbGroup
300

 70
     3
 71
     0
  0
GROUP
  5
37A9
102
{ACAD_REACTORS
330
18
102
}
330
18
100
AcDbGroup
300

 70
     3
 71
     0
  0
GROUP
  5
6395
102
{ACAD_REACTORS
330
18
102
}
330
18
100
AcDbGroup
300

 70
     3
 71
     0
  0
GROUP
  5
1B24
102
{ACAD_REACTORS
330
18
102
}
330
18
100
AcDbGroup
300

 70
     3
 71
     0
  0
GROUP
  5
49EA
102
{ACAD_REACTORS
330
18
102
}
330
18
100
AcDbGroup
300

 70
     3
 71
     0
  0
GROUP
  5
1077C
102
{ACAD_REACTORS
330
18
102
}
330
18
100
AcDbGroup
300

 70
     1
 71
     1
  0
GROUP
  5
1B3E
102
{ACAD_REACTORS
330
18
102
}
330
18
100
AcDbGroup
300

 70
     3
 71
     0
  0
GROUP
  5
1C61
102
{ACAD_REACTORS
330
18
102
}
330
18
100
AcDbGroup
300

 70
     3
 71
     0
  0
GROUP
  5
4829
102
{ACAD_REACTORS
330
18
102
}
330
18
100
AcDbGroup
300

 70
     3
 71
     0
  0
GROUP
  5
497C
102
{ACAD_REACTORS
330
18
102
}
330
18
100
AcDbGroup
300

 70
     3
 71
     0
  0
GROUP
  5
63B7
102
{ACAD_REACTORS
330
18
102
}
330
18
100
AcDbGroup
300

 70
     3
 71
     0
  0
GROUP
  5
1B12
102
{ACAD_REACTORS
330
18
102
}
330
18
100
AcDbGroup
300

 70
     3
 71
     0
  0
GROUP
  5
37B7
102
{ACAD_REACTORS
330
18
102
}
330
18
100
AcDbGroup
300

 70
     3
 71
     0
  0
GROUP
  5
638C
102
{ACAD_REACTORS
330
18
102
}
330
18
100
AcDbGroup
300

 70
     3
 71
     0
  0
GROUP
  5
6362
102
{ACAD_REACTORS
330
18
102
}
330
18
100
AcDbGroup
300

 70
     3
 71
     0
  0
GROUP
  5
62C0
102
{ACAD_REACTORS
330
18
102
}
330
18
100
AcDbGroup
300

 70
     3
 71
     0
  0
GROUP
  5
1C3F
102
{ACAD_REACTORS
330
18
102
}
330
18
100
AcDbGroup
300

 70
     3
 71
     0
  0
GROUP
  5
1B07
102
{ACAD_REACTORS
330
18
102
}
330
18
100
AcDbGroup
300

 70
     3
 71
     0
  0
GROUP
  5
636B
102
{ACAD_REACTORS
330
18
102
}
330
18
100
AcDbGroup
300

 70
     3
 71
     0
  0
GROUP
  5
48A3
102
{ACAD_REACTORS
330
18
102
}
330
18
100
AcDbGroup
300

 70
     3
 71
     0
  0
GROUP
  5
4858
102
{ACAD_REACTORS
330
18
102
}
330
18
100
AcDbGroup
300

 70
     3
 71
     0
  0
GROUP
  5
1C27
102
{ACAD_REACTORS
330
18
102
}
330
18
100
AcDbGroup
300

 70
     3
 71
     0
  0
GROUP
  5
107D6
102
{ACAD_REACTORS
330
18
102
}
330
18
100
AcDbGroup
300

 70
     1
 71
     1
  0
GROUP
  5
1B51
102
{ACAD_REACTORS
330
18
102
}
330
18
100
AcDbGroup
300

 70
     3
 71
     0
  0
GROUP
  5
4967
102
{ACAD_REACTORS
330
18
102
}
330
18
100
AcDbGroup
300

 70
     3
 71
     0
  0
GROUP
  5
482C
102
{ACAD_REACTORS
330
18
102
}
330
18
100
AcDbGroup
300

 70
     3
 71
     0
  0
GROUP
  5
634D
102
{ACAD_REACTORS
330
18
102
}
330
18
100
AcDbGroup
300

 70
     3
 71
     0
  0
GROUP
  5
49BC
102
{ACAD_REACTORS
330
18
102
}
330
18
100
AcDbGroup
300

 70
     3
 71
     0
  0
GROUP
  5
49A9
102
{ACAD_REACTORS
330
18
102
}
330
18
100
AcDbGroup
300

 70
     3
 71
     0
  0
GROUP
  5
6359
102
{ACAD_REACTORS
330
18
102
}
330
18
100
AcDbGroup
300

 70
     3
 71
     0
  0
GROUP
  5
62EF
102
{ACAD_REACTORS
330
18
102
}
330
18
100
AcDbGroup
300

 70
     3
 71
     0
  0
GROUP
  5
4926
102
{ACAD_REACTORS
330
18
102
}
330
18
100
AcDbGroup
300

 70
     3
 71
     0
  0
GROUP
  5
63B3
102
{ACAD_REACTORS
330
18
102
}
330
18
100
AcDbGroup
300

 70
     3
 71
     0
  0
GROUP
  5
1ACF
102
{ACAD_REACTORS
330
18
102
}
330
18
100
AcDbGroup
300

 70
     3
 71
     0
  0
GROUP
  5
486C
102
{ACAD_REACTORS
330
18
102
}
330
18
100
AcDbGroup
300

 70
     3
 71
     0
  0
GROUP
  5
1B09
102
{ACAD_REACTORS
330
18
102
}
330
18
100
AcDbGroup
300

 70
     3
 71
     0
  0
GROUP
  5
6227
102
{ACAD_REACTORS
330
18
102
}
330
18
100
AcDbGroup
300

 70
     3
 71
     0
  0
GROUP
  5
634E
102
{ACAD_REACTORS
330
18
102
}
330
18
100
AcDbGroup
300

 70
     3
 71
     0
  0
GROUP
  5
4872
102
{ACAD_REACTORS
330
18
102
}
330
18
100
AcDbGroup
300

 70
     3
 71
     0
  0
GROUP
  5
6404
102
{ACAD_REACTORS
330
18
102
}
330
18
100
AcDbGroup
300

 70
     3
 71
     0
  0
GROUP
  5
1B6A
102
{ACAD_REACTORS
330
18
102
}
330
18
100
AcDbGroup
300

 70
     3
 71
     0
  0
GROUP
  5
6377
102
{ACAD_REACTORS
330
18
102
}
330
18
100
AcDbGroup
300

 70
     3
 71
     0
  0
GROUP
  5
63FA
102
{ACAD_REACTORS
330
18
102
}
330
18
100
AcDbGroup
300

 70
     3
 71
     0
  0
GROUP
  5
63F8
102
{ACAD_REACTORS
330
18
102
}
330
18
100
AcDbGroup
300

 70
     3
 71
     0
  0
GROUP
  5
49BE
102
{ACAD_REACTORS
330
18
102
}
330
18
100
AcDbGroup
300

 70
     3
 71
     0
  0
GROUP
  5
1B8D
102
{ACAD_REACTORS
330
18
102
}
330
18
100
AcDbGroup
300

 70
     3
 71
     0
  0
GROUP
  5
6357
102
{ACAD_REACTORS
330
18
102
}
330
18
100
AcDbGroup
300

 70
     3
 71
     0
  0
GROUP
  5
1C56
102
{ACAD_REACTORS
330
18
102
}
330
18
100
AcDbGroup
300

 70
     3
 71
     0
  0
GROUP
  5
1B03
102
{ACAD_REACTORS
330
18
102
}
330
18
100
AcDbGroup
300

 70
     3
 71
     0
  0
GROUP
  5
6224
102
{ACAD_REACTORS
330
18
102
}
330
18
100
AcDbGroup
300

 70
     3
 71
     0
  0
GROUP
  5
10817
102
{ACAD_REACTORS
330
18
102
}
330
18
100
AcDbGroup
300

 70
     1
 71
     1
340
10816
340
10815
340
107FE
340
107FF
340
10800
340
10801
340
10804
340
10802
340
10803
340
10805
340
10807
340
10808
340
10809
340
10806
340
1080A
340
1080C
340
1080B
340
1080E
340
1080D
340
1080F
340
10810
340
10812
340
10811
340
10813
340
1057A
340
1057D
340
107F8
340
10580
340
107DF
340
107E0
340
107FD
340
107F4
340
107F7
340
107F6
340
107F5
340
107F3
340
107F0
340
107EF
340
107F1
340
107EE
340
107ED
340
107EC
340
1057B
340
10584
340
10582
340
107F9
  0
GROUP
  5
1C24
102
{ACAD_REACTORS
330
18
102
}
330
18
100
AcDbGroup
300

 70
     3
 71
     0
  0
GROUP
  5
4857
102
{ACAD_REACTORS
330
18
102
}
330
18
100
AcDbGroup
300

 70
     3
 71
     0
  0
GROUP
  5
1C07
102
{ACAD_REACTORS
330
18
102
}
330
18
100
AcDbGroup
300

 70
     3
 71
     0
  0
GROUP
  5
6417
102
{ACAD_REACTORS
330
18
102
}
330
18
100
AcDbGroup
300

 70
     3
 71
     0
  0
GROUP
  5
1B53
102
{ACAD_REACTORS
330
18
102
}
330
18
100
AcDbGroup
300

 70
     3
 71
     0
  0
GROUP
  5
493F
102
{ACAD_REACTORS
330
18
102
}
330
18
100
AcDbGroup
300

 70
     3
 71
     0
  0
GROUP
  5
486F
102
{ACAD_REACTORS
330
18
102
}
330
18
100
AcDbGroup
300

 70
     3
 71
     0
  0
GROUP
  5
1BBE
102
{ACAD_REACTORS
330
18
102
}
330
18
100
AcDbGroup
300

 70
     3
 71
     0
  0
GROUP
  5
62ED
102
{ACAD_REACTORS
330
18
102
}
330
18
100
AcDbGroup
300

 70
     3
 71
     0
  0
GROUP
  5
489E
102
{ACAD_REACTORS
330
18
102
}
330
18
100
AcDbGroup
300

 70
     3
 71
     0
  0
GROUP
  5
62B9
102
{ACAD_REACTORS
330
18
102
}
330
18
100
AcDbGroup
300

 70
     3
 71
     0
  0
GROUP
  5
49E6
102
{ACAD_REACTORS
330
18
102
}
330
18
100
AcDbGroup
300

 70
     3
 71
     0
  0
GROUP
  5
4945
102
{ACAD_REACTORS
330
18
102
}
330
18
100
AcDbGroup
300

 70
     3
 71
     0
  0
GROUP
  5
632B
102
{ACAD_REACTORS
330
18
102
}
330
18
100
AcDbGroup
300

 70
     3
 71
     0
  0
GROUP
  5
109DC
102
{ACAD_REACTORS
330
18
102
}
330
18
100
AcDbGroup
300

 70
     1
 71
     1
340
108DB
340
10900
340
10901
340
108F2
340
108DE
340
108E2
340
108E4
340
108E1
340
108E3
340
108DD
340
108EB
340
108EA
340
108DA
340
108F3
340
108E9
340
108D5
340
108E5
340
108F6
340
108F4
340
108F5
340
108FE
340
108FA
340
108ED
340
108EE
340
108EF
340
108F8
340
108F9
340
10902
340
10903
340
108D4
340
108FD
340
108FB
340
108FC
340
108E8
340
108E6
340
108F0
340
108F1
340
108EC
340
108F7
  0
GROUP
  5
6406
102
{ACAD_REACTORS
330
18
102
}
330
18
100
AcDbGroup
300

 70
     3
 71
     0
  0
GROUP
  5
6240
102
{ACAD_REACTORS
330
18
102
}
330
18
100
AcDbGroup
300

 70
     3
 71
     0
  0
GROUP
  5
4913
102
{ACAD_REACTORS
330
18
102
}
330
18
100
AcDbGroup
300

 70
     3
 71
     0
  0
GROUP
  5
482E
102
{ACAD_REACTORS
330
18
102
}
330
18
100
AcDbGroup
300

 70
     3
 71
     0
  0
GROUP
  5
48E4
102
{ACAD_REACTORS
330
18
102
}
330
18
100
AcDbGroup
300

 70
     3
 71
     0
  0
GROUP
  5
4811
102
{ACAD_REACTORS
330
18
102
}
330
18
100
AcDbGroup
300

 70
     3
 71
     0
  0
GROUP
  5
1C18
102
{ACAD_REACTORS
330
18
102
}
330
18
100
AcDbGroup
300

 70
     3
 71
     0
  0
GROUP
  5
48BD
102
{ACAD_REACTORS
330
18
102
}
330
18
100
AcDbGroup
300

 70
     3
 71
     0
  0
GROUP
  5
641C
102
{ACAD_REACTORS
330
18
102
}
330
18
100
AcDbGroup
300

 70
     3
 71
     0
  0
GROUP
  5
623F
102
{ACAD_REACTORS
330
18
102
}
330
18
100
AcDbGroup
300

 70
     3
 71
     0
  0
GROUP
  5
49D2
102
{ACAD_REACTORS
330
18
102
}
330
18
100
AcDbGroup
300

 70
     3
 71
     0
  0
GROUP
  5
4903
102
{ACAD_REACTORS
330
18
102
}
330
18
100
AcDbGroup
300

 70
     3
 71
     0
  0
GROUP
  5
63CB
102
{ACAD_REACTORS
330
18
102
}
330
18
100
AcDbGroup
300

 70
     3
 71
     0
  0
GROUP
  5
109E0
102
{ACAD_REACTORS
330
18
102
}
330
18
100
AcDbGroup
300

 70
     1
 71
     1
340
10910
340
1090D
340
10911
340
1090E
340
1090B
340
1090A
340
10908
340
10907
340
1090F
340
10913
340
10912
340
10916
340
10915
340
10914
340
10918
  0
GROUP
  5
6245
102
{ACAD_REACTORS
330
18
102
}
330
18
100
AcDbGroup
300

 70
     3
 71
     0
  0
GROUP
  5
1BD8
102
{ACAD_REACTORS
330
18
102
}
330
18
100
AcDbGroup
300

 70
     3
 71
     0
  0
GROUP
  5
6393
102
{ACAD_REACTORS
330
18
102
}
330
18
100
AcDbGroup
300

 70
     3
 71
     0
  0
GROUP
  5
6383
102
{ACAD_REACTORS
330
18
102
}
330
18
100
AcDbGroup
300

 70
     3
 71
     0
  0
GROUP
  5
63E5
102
{ACAD_REACTORS
330
18
102
}
330
18
100
AcDbGroup
300

 70
     3
 71
     0
  0
GROUP
  5
1465
102
{ACAD_REACTORS
330
18
102
}
330
18
100
AcDbGroup
300

 70
     3
 71
     0
  0
GROUP
  5
6277
102
{ACAD_REACTORS
330
18
102
}
330
18
100
AcDbGroup
300

 70
     3
 71
     0
  0
GROUP
  5
1B22
102
{ACAD_REACTORS
330
18
102
}
330
18
100
AcDbGroup
300

 70
     3
 71
     0
  0
GROUP
  5
1BB8
102
{ACAD_REACTORS
330
18
102
}
330
18
100
AcDbGroup
300

 70
     3
 71
     0
  0
GROUP
  5
489F
102
{ACAD_REACTORS
330
18
102
}
330
18
100
AcDbGroup
300

 70
     3
 71
     0
  0
GROUP
  5
49CA
102
{ACAD_REACTORS
330
18
102
}
330
18
100
AcDbGroup
300

 70
     3
 71
     0
  0
GROUP
  5
1B58
102
{ACAD_REACTORS
330
18
102
}
330
18
100
AcDbGroup
300

 70
     3
 71
     0
  0
GROUP
  5
63B4
102
{ACAD_REACTORS
330
18
102
}
330
18
100
AcDbGroup
300

 70
     3
 71
     0
  0
GROUP
  5
62EE
102
{ACAD_REACTORS
330
18
102
}
330
18
100
AcDbGroup
300

 70
     3
 71
     0
  0
GROUP
  5
10A09
102
{ACAD_REACTORS
330
18
102
}
330
18
100
AcDbGroup
300

 70
     1
 71
     1
  0
GROUP
  5
63E7
102
{ACAD_REACTORS
330
18
102
}
330
18
100
AcDbGroup
300

 70
     3
 71
     0
  0
GROUP
  5
1B94
102
{ACAD_REACTORS
330
18
102
}
330
18
100
AcDbGroup
300

 70
     3
 71
     0
  0
GROUP
  5
48D3
102
{ACAD_REACTORS
330
18
102
}
330
18
100
AcDbGroup
300

 70
     3
 71
     0
  0
GROUP
  5
4905
102
{ACAD_REACTORS
330
18
102
}
330
18
100
AcDbGroup
300

 70
     3
 71
     0
  0
GROUP
  5
6415
102
{ACAD_REACTORS
330
18
102
}
330
18
100
AcDbGroup
300

 70
     3
 71
     0
  0
GROUP
  5
484A
102
{ACAD_REACTORS
330
18
102
}
330
18
100
AcDbGroup
300

 70
     3
 71
     0
  0
GROUP
  5
48DC
102
{ACAD_REACTORS
330
18
102
}
330
18
100
AcDbGroup
300

 70
     3
 71
     0
  0
GROUP
  5
379A
102
{ACAD_REACTORS
330
18
102
}
330
18
100
AcDbGroup
300

 70
     3
 71
     0
  0
GROUP
  5
49FA
102
{ACAD_REACTORS
330
18
102
}
330
18
100
AcDbGroup
300

 70
     3
 71
     0
  0
GROUP
  5
48C6
102
{ACAD_REACTORS
330
18
102
}
330
18
100
AcDbGroup
300

 70
     3
 71
     1
  0
GROUP
  5
37AC
102
{ACAD_REACTORS
330
18
102
}
330
18
100
AcDbGroup
300

 70
     3
 71
     0
  0
GROUP
  5
49A6
102
{ACAD_REACTORS
330
18
102
}
330
18
100
AcDbGroup
300

 70
     3
 71
     0
  0
GROUP
  5
6252
102
{ACAD_REACTORS
330
18
102
}
330
18
100
AcDbGroup
300

 70
     3
 71
     0
  0
GROUP
  5
49B5
102
{ACAD_REACTORS
330
18
102
}
330
18
100
AcDbGroup
300

 70
     3
 71
     0
  0
GROUP
  5
636F
102
{ACAD_REACTORS
330
18
102
}
330
18
100
AcDbGroup
300

 70
     3
 71
     0
  0
GROUP
  5
10A19
102
{ACAD_REACTORS
330
18
102
}
330
18
100
AcDbGroup
300

 70
     1
 71
     1
  0
GROUP
  5
1B7D
102
{ACAD_REACTORS
330
18
102
}
330
18
100
AcDbGroup
300

 70
     3
 71
     0
  0
GROUP
  5
4882
102
{ACAD_REACTORS
330
18
102
}
330
18
100
AcDbGroup
300

 70
     3
 71
     0
  0
GROUP
  5
637C
102
{ACAD_REACTORS
330
18
102
}
330
18
100
AcDbGroup
300

 70
     3
 71
     0
  0
GROUP
  5
1AE0
102
{ACAD_REACTORS
330
18
102
}
330
18
100
AcDbGroup
300

 70
     3
 71
     0
  0
GROUP
  5
4957
102
{ACAD_REACTORS
330
18
102
}
330
18
100
AcDbGroup
300

 70
     3
 71
     0
  0
GROUP
  5
49B7
102
{ACAD_REACTORS
330
18
102
}
330
18
100
AcDbGroup
300

 70
     3
 71
     0
  0
GROUP
  5
1C1D
102
{ACAD_REACTORS
330
18
102
}
330
18
100
AcDbGroup
300

 70
     3
 71
     0
  0
GROUP
  5
62D8
102
{ACAD_REACTORS
330
18
102
}
330
18
100
AcDbGroup
300

 70
     3
 71
     0
  0
GROUP
  5
1BEE
102
{ACAD_REACTORS
330
18
102
}
330
18
100
AcDbGroup
300

 70
     3
 71
     0
  0
GROUP
  5
49BA
102
{ACAD_REACTORS
330
18
102
}
330
18
100
AcDbGroup
300

 70
     3
 71
     0
  0
GROUP
  5
1BCD
102
{ACAD_REACTORS
330
18
102
}
330
18
100
AcDbGroup
300

 70
     3
 71
     0
  0
GROUP
  5
6223
102
{ACAD_REACTORS
330
18
102
}
330
18
100
AcDbGroup
300

 70
     3
 71
     0
  0
GROUP
  5
4A08
102
{ACAD_REACTORS
330
18
102
}
330
18
100
AcDbGroup
300

 70
     3
 71
     0
  0
GROUP
  5
1BEC
102
{ACAD_REACTORS
330
18
102
}
330
18
100
AcDbGroup
300

 70
     3
 71
     0
  0
GROUP
  5
10A43
102
{ACAD_REACTORS
330
18
102
}
330
18
100
AcDbGroup
300

 70
     1
 71
     1
340
10A31
340
10A2F
340
10A30
340
10A20
340
10A27
340
10A21
340
10A1A
340
10A28
340
10A33
340
10A41
340
10A40
340
10A29
340
10A42
340
10A22
340
10A1B
340
10A1F
340
10A2A
340
10A3A
340
10A3B
340
10A32
340
10A1C
340
10A2E
340
10A39
340
10A2B
  0
GROUP
  5
488B
102
{ACAD_REACTORS
330
18
102
}
330
18
100
AcDbGroup
300

 70
     3
 71
     0
  0
GROUP
  5
1ACD
102
{ACAD_REACTORS
330
18
102
}
330
18
100
AcDbGroup
300

 70
     3
 71
     0
  0
GROUP
  5
49F1
102
{ACAD_REACTORS
330
18
102
}
330
18
100
AcDbGroup
300

 70
     3
 71
     0
  0
GROUP
  5
10B8D
102
{ACAD_REACTORS
330
18
102
}
330
18
100
AcDbGroup
300

 70
     1
 71
     1
340
10B82
340
10B81
340
10B83
340
10B86
340
10B87
340
10B88
340
10B8C
340
10B8B
340
10AE0
340
10AA2
340
10ADC
340
10AA7
340
10ADB
340
10AA6
340
10ADA
340
10AA0
340
10A8C
  0
GROUP
  5
63EC
102
{ACAD_REACTORS
330
18
102
}
330
18
100
AcDbGroup
300

 70
     3
 71
     0
  0
GROUP
  5
640F
102
{ACAD_REACTORS
330
18
102
}
330
18
100
AcDbGroup
300

 70
     3
 71
     0
  0
GROUP
  5
4999
102
{ACAD_REACTORS
330
18
102
}
330
18
100
AcDbGroup
300

 70
     3
 71
     0
  0
GROUP
  5
629A
102
{ACAD_REACTORS
330
18
102
}
330
18
100
AcDbGroup
300

 70
     3
 71
     0
  0
GROUP
  5
6222
102
{ACAD_REACTORS
330
18
102
}
330
18
100
AcDbGroup
300

 70
     3
 71
     0
  0
GROUP
  5
6218
102
{ACAD_REACTORS
330
18
102
}
330
18
100
AcDbGroup
300

 70
     3
 71
     0
  0
GROUP
  5
4915
102
{ACAD_REACTORS
330
18
102
}
330
18
100
AcDbGroup
300

 70
     3
 71
     0
  0
GROUP
  5
491A
102
{ACAD_REACTORS
330
18
102
}
330
18
100
AcDbGroup
300

 70
     3
 71
     0
  0
GROUP
  5
48FE
102
{ACAD_REACTORS
330
18
102
}
330
18
100
AcDbGroup
300

 70
     3
 71
     0
  0
GROUP
  5
1C29
102
{ACAD_REACTORS
330
18
102
}
330
18
100
AcDbGroup
300

 70
     3
 71
     0
  0
GROUP
  5
1B9F
102
{ACAD_REACTORS
330
18
102
}
330
18
100
AcDbGroup
300

 70
     3
 71
     0
  0
GROUP
  5
1BEB
102
{ACAD_REACTORS
330
18
102
}
330
18
100
AcDbGroup
300

 70
     3
 71
     0
  0
GROUP
  5
6309
102
{ACAD_REACTORS
330
18
102
}
330
18
100
AcDbGroup
300

 70
     3
 71
     0
  0
GROUP
  5
4906
102
{ACAD_REACTORS
330
18
102
}
330
18
100
AcDbGroup
300

 70
     3
 71
     0
  0
GROUP
  5
6420
102
{ACAD_REACTORS
330
18
102
}
330
18
100
AcDbGroup
300

 70
     3
 71
     0
  0
GROUP
  5
1BF8
102
{ACAD_REACTORS
330
18
102
}
330
18
100
AcDbGroup
300

 70
     3
 71
     0
  0
GROUP
  5
624F
102
{ACAD_REACTORS
330
18
102
}
330
18
100
AcDbGroup
300

 70
     3
 71
     0
  0
GROUP
  5
1AF2
102
{ACAD_REACTORS
330
18
102
}
330
18
100
AcDbGroup
300

 70
     3
 71
     0
  0
GROUP
  5
48B2
102
{ACAD_REACTORS
330
18
102
}
330
18
100
AcDbGroup
300

 70
     3
 71
     0
  0
GROUP
  5
63D7
102
{ACAD_REACTORS
330
18
102
}
330
18
100
AcDbGroup
300

 70
     3
 71
     0
  0
GROUP
  5
6216
102
{ACAD_REACTORS
330
18
102
}
330
18
100
AcDbGroup
300

 70
     3
 71
     0
  0
GROUP
  5
1B37
102
{ACAD_REACTORS
330
18
102
}
330
18
100
AcDbGroup
300

 70
     3
 71
     0
  0
GROUP
  5
6333
102
{ACAD_REACTORS
330
18
102
}
330
18
100
AcDbGroup
300

 70
     3
 71
     0
  0
GROUP
  5
4986
102
{ACAD_REACTORS
330
18
102
}
330
18
100
AcDbGroup
300

 70
     3
 71
     0
  0
GROUP
  5
1B54
102
{ACAD_REACTORS
330
18
102
}
330
18
100
AcDbGroup
300

 70
     3
 71
     0
  0
GROUP
  5
1C0A
102
{ACAD_REACTORS
330
18
102
}
330
18
100
AcDbGroup
300

 70
     3
 71
     0
  0
GROUP
  5
4821
102
{ACAD_REACTORS
330
18
102
}
330
18
100
AcDbGroup
300

 70
     3
 71
     0
  0
GROUP
  5
1BA5
102
{ACAD_REACTORS
330
18
102
}
330
18
100
AcDbGroup
300

 70
     3
 71
     0
  0
GROUP
  5
6424
102
{ACAD_REACTORS
330
18
102
}
330
18
100
AcDbGroup
300

 70
     3
 71
     0
  0
GROUP
  5
37A1
102
{ACAD_REACTORS
330
18
102
}
330
18
100
AcDbGroup
300

 70
     3
 71
     0
  0
GROUP
  5
6378
102
{ACAD_REACTORS
330
18
102
}
330
18
100
AcDbGroup
300

 70
     3
 71
     0
  0
GROUP
  5
1B34
102
{ACAD_REACTORS
330
18
102
}
330
18
100
AcDbGroup
300

 70
     3
 71
     0
  0
GROUP
  5
1B8E
102
{ACAD_REACTORS
330
18
102
}
330
18
100
AcDbGroup
300

 70
     3
 71
     0
  0
GROUP
  5
63DC
102
{ACAD_REACTORS
330
18
102
}
330
18
100
AcDbGroup
300

 70
     3
 71
     0
  0
GROUP
  5
1B49
102
{ACAD_REACTORS
330
18
102
}
330
18
100
AcDbGroup
300

 70
     3
 71
     0
  0
GROUP
  5
1B9D
102
{ACAD_REACTORS
330
18
102
}
330
18
100
AcDbGroup
300

 70
     3
 71
     0
  0
GROUP
  5
4893
102
{ACAD_REACTORS
330
18
102
}
330
18
100
AcDbGroup
300

 70
     3
 71
     0
  0
GROUP
  5
6231
102
{ACAD_REACTORS
330
18
102
}
330
18
100
AcDbGroup
300

 70
     3
 71
     0
  0
GROUP
  5
63BF
102
{ACAD_REACTORS
330
18
102
}
330
18
100
AcDbGroup
300

 70
     3
 71
     0
  0
GROUP
  5
6364
102
{ACAD_REACTORS
330
18
102
}
330
18
100
AcDbGroup
300

 70
     3
 71
     0
  0
GROUP
  5
6405
102
{ACAD_REACTORS
330
18
102
}
330
18
100
AcDbGroup
300

 70
     3
 71
     0
  0
GROUP
  5
623D
102
{ACAD_REACTORS
330
18
102
}
330
18
100
AcDbGroup
300

 70
     3
 71
     0
  0
GROUP
  5
4845
102
{ACAD_REACTORS
330
18
102
}
330
18
100
AcDbGroup
300

 70
     3
 71
     0
  0
GROUP
  5
627C
102
{ACAD_REACTORS
330
18
102
}
330
18
100
AcDbGroup
300

 70
     3
 71
     0
  0
GROUP
  5
4998
102
{ACAD_REACTORS
330
18
102
}
330
18
100
AcDbGroup
300

 70
     3
 71
     0
  0
GROUP
  5
4839
102
{ACAD_REACTORS
330
18
102
}
330
18
100
AcDbGroup
300

 70
     3
 71
     0
  0
GROUP
  5
1B36
102
{ACAD_REACTORS
330
18
102
}
330
18
100
AcDbGroup
300

 70
     3
 71
     0
  0
GROUP
  5
62A9
102
{ACAD_REACTORS
330
18
102
}
330
18
100
AcDbGroup
300

 70
     3
 71
     0
  0
GROUP
  5
1454
102
{ACAD_REACTORS
330
18
102
}
330
18
100
AcDbGroup
300

 70
     3
 71
     0
  0
GROUP
  5
1B19
102
{ACAD_REACTORS
330
18
102
}
330
18
100
AcDbGroup
300

 70
     3
 71
     0
  0
GROUP
  5
62BF
102
{ACAD_REACTORS
330
18
102
}
330
18
100
AcDbGroup
300

 70
     3
 71
     0
  0
GROUP
  5
4830
102
{ACAD_REACTORS
330
18
102
}
330
18
100
AcDbGroup
300

 70
     3
 71
     0
  0
GROUP
  5
63C7
102
{ACAD_REACTORS
330
18
102
}
330
18
100
AcDbGroup
300

 70
     3
 71
     0
  0
GROUP
  5
1C25
102
{ACAD_REACTORS
330
18
102
}
330
18
100
AcDbGroup
300

 70
     3
 71
     0
  0
GROUP
  5
4944
102
{ACAD_REACTORS
330
18
102
}
330
18
100
AcDbGroup
300

 70
     3
 71
     0
  0
GROUP
  5
480B
102
{ACAD_REACTORS
330
18
102
}
330
18
100
AcDbGroup
300

 70
     3
 71
     0
  0
GROUP
  5
6263
102
{ACAD_REACTORS
330
18
102
}
330
18
100
AcDbGroup
300

 70
     3
 71
     0
  0
GROUP
  5
49AE
102
{ACAD_REACTORS
330
18
102
}
330
18
100
AcDbGroup
300

 70
     3
 71
     0
  0
GROUP
  5
1B65
102
{ACAD_REACTORS
330
18
102
}
330
18
100
AcDbGroup
300

 70
     3
 71
     0
  0
GROUP
  5
1BD7
102
{ACAD_REACTORS
330
18
102
}
330
18
100
AcDbGroup
300

 70
     3
 71
     0
  0
GROUP
  5
49FF
102
{ACAD_REACTORS
330
18
102
}
330
18
100
AcDbGroup
300

 70
     3
 71
     0
  0
GROUP
  5
48C0
102
{ACAD_REACTORS
330
18
102
}
330
18
100
AcDbGroup
300

 70
     3
 71
     0
  0
GROUP
  5
49F3
102
{ACAD_REACTORS
330
18
102
}
330
18
100
AcDbGroup
300

 70
     3
 71
     0
  0
GROUP
  5
1AF6
102
{ACAD_REACTORS
330
18
102
}
330
18
100
AcDbGroup
300

 70
     3
 71
     0
  0
GROUP
  5
1C0D
102
{ACAD_REACTORS
330
18
102
}
330
18
100
AcDbGroup
300

 70
     3
 71
     0
  0
GROUP
  5
480C
102
{ACAD_REACTORS
330
18
102
}
330
18
100
AcDbGroup
300

 70
     3
 71
     0
  0
GROUP
  5
625A
102
{ACAD_REACTORS
330
18
102
}
330
18
100
AcDbGroup
300

 70
     3
 71
     0
  0
GROUP
  5
4A18
102
{ACAD_REACTORS
330
18
102
}
330
18
100
AcDbGroup
300

 70
     3
 71
     0
  0
GROUP
  5
49E5
102
{ACAD_REACTORS
330
18
102
}
330
18
100
AcDbGroup
300

 70
     3
 71
     0
  0
GROUP
  5
4825
102
{ACAD_REACTORS
330
18
102
}
330
18
100
AcDbGroup
300

 70
     3
 71
     0
  0
GROUP
  5
1C10
102
{ACAD_REACTORS
330
18
102
}
330
18
100
AcDbGroup
300

 70
     3
 71
     0
  0
GROUP
  5
1C22
102
{ACAD_REACTORS
330
18
102
}
330
18
100
AcDbGroup
300

 70
     3
 71
     0
  0
GROUP
  5
1BDC
102
{ACAD_REACTORS
330
18
102
}
330
18
100
AcDbGroup
300

 70
     3
 71
     0
  0
GROUP
  5
627A
102
{ACAD_REACTORS
330
18
102
}
330
18
100
AcDbGroup
300

 70
     3
 71
     0
  0
GROUP
  5
37B4
102
{ACAD_REACTORS
330
18
102
}
330
18
100
AcDbGroup
300

 70
     3
 71
     0
  0
GROUP
  5
1B57
102
{ACAD_REACTORS
330
18
102
}
330
18
100
AcDbGroup
300

 70
     3
 71
     0
  0
GROUP
  5
4A09
102
{ACAD_REACTORS
330
18
102
}
330
18
100
AcDbGroup
300

 70
     3
 71
     0
  0
GROUP
  5
6271
102
{ACAD_REACTORS
330
18
102
}
330
18
100
AcDbGroup
300

 70
     3
 71
     0
  0
GROUP
  5
1C3E
102
{ACAD_REACTORS
330
18
102
}
330
18
100
AcDbGroup
300

 70
     3
 71
     0
  0
GROUP
  5
1C4F
102
{ACAD_REACTORS
330
18
102
}
330
18
100
AcDbGroup
300

 70
     3
 71
     0
  0
GROUP
  5
49C4
102
{ACAD_REACTORS
330
18
102
}
330
18
100
AcDbGroup
300

 70
     3
 71
     0
  0
GROUP
  5
62FB
102
{ACAD_REACTORS
330
18
102
}
330
18
100
AcDbGroup
300

 70
     3
 71
     0
  0
GROUP
  5
627E
102
{ACAD_REACTORS
330
18
102
}
330
18
100
AcDbGroup
300

 70
     3
 71
     0
  0
GROUP
  5
6237
102
{ACAD_REACTORS
330
18
102
}
330
18
100
AcDbGroup
300

 70
     3
 71
     0
  0
GROUP
  5
1C1F
102
{ACAD_REACTORS
330
18
102
}
330
18
100
AcDbGroup
300

 70
     3
 71
     0
  0
GROUP
  5
1C5F
102
{ACAD_REACTORS
330
18
102
}
330
18
100
AcDbGroup
300

 70
     3
 71
     0
  0
GROUP
  5
49E4
102
{ACAD_REACTORS
330
18
102
}
330
18
100
AcDbGroup
300

 70
     3
 71
     0
  0
GROUP
  5
6320
102
{ACAD_REACTORS
330
18
102
}
330
18
100
AcDbGroup
300

 70
     3
 71
     0
  0
GROUP
  5
48C3
102
{ACAD_REACTORS
330
18
102
}
330
18
100
AcDbGroup
300

 70
     3
 71
     0
  0
GROUP
  5
493A
102
{ACAD_REACTORS
330
18
102
}
330
18
100
AcDbGroup
300

 70
     3
 71
     0
  0
GROUP
  5
631F
102
{ACAD_REACTORS
330
18
102
}
330
18
100
AcDbGroup
300

 70
     3
 71
     0
  0
GROUP
  5
379C
102
{ACAD_REACTORS
330
18
102
}
330
18
100
AcDbGroup
300

 70
     3
 71
     0
  0
GROUP
  5
1B46
102
{ACAD_REACTORS
330
18
102
}
330
18
100
AcDbGroup
300

 70
     3
 71
     0
  0
GROUP
  5
1C04
102
{ACAD_REACTORS
330
18
102
}
330
18
100
AcDbGroup
300

 70
     3
 71
     0
  0
GROUP
  5
637D
102
{ACAD_REACTORS
330
18
102
}
330
18
100
AcDbGroup
300

 70
     3
 71
     0
  0
GROUP
  5
63AB
102
{ACAD_REACTORS
330
18
102
}
330
18
100
AcDbGroup
300

 70
     3
 71
     0
  0
GROUP
  5
49C5
102
{ACAD_REACTORS
330
18
102
}
330
18
100
AcDbGroup
300

 70
     3
 71
     0
  0
GROUP
  5
1B6B
102
{ACAD_REACTORS
330
18
102
}
330
18
100
AcDbGroup
300

 70
     3
 71
     0
  0
GROUP
  5
62E4
102
{ACAD_REACTORS
330
18
102
}
330
18
100
AcDbGroup
300

 70
     3
 71
     0
  0
GROUP
  5
495F
102
{ACAD_REACTORS
330
18
102
}
330
18
100
AcDbGroup
300

 70
     3
 71
     0
  0
GROUP
  5
1B42
102
{ACAD_REACTORS
330
18
102
}
330
18
100
AcDbGroup
300

 70
     3
 71
     0
  0
GROUP
  5
1AFB
102
{ACAD_REACTORS
330
18
102
}
330
18
100
AcDbGroup
300

 70
     3
 71
     0
  0
GROUP
  5
63D4
102
{ACAD_REACTORS
330
18
102
}
330
18
100
AcDbGroup
300

 70
     3
 71
     0
  0
GROUP
  5
1ADC
102
{ACAD_REACTORS
330
18
102
}
330
18
100
AcDbGroup
300

 70
     3
 71
     0
  0
GROUP
  5
1B97
102
{ACAD_REACTORS
330
18
102
}
330
18
100
AcDbGroup
300

 70
     3
 71
     0
  0
GROUP
  5
624B
102
{ACAD_REACTORS
330
18
102
}
330
18
100
AcDbGroup
300

 70
     3
 71
     0
  0
GROUP
  5
4A19
102
{ACAD_REACTORS
330
18
102
}
330
18
100
AcDbGroup
300

 70
     3
 71
     0
  0
GROUP
  5
1BE4
102
{ACAD_REACTORS
330
18
102
}
330
18
100
AcDbGroup
300

 70
     3
 71
     0
  0
GROUP
  5
4818
102
{ACAD_REACTORS
330
18
102
}
330
18
100
AcDbGroup
300

 70
     3
 71
     0
  0
GROUP
  5
63A6
102
{ACAD_REACTORS
330
18
102
}
330
18
100
AcDbGroup
300

 70
     3
 71
     0
  0
GROUP
  5
1BCF
102
{ACAD_REACTORS
330
18
102
}
330
18
100
AcDbGroup
300

 70
     3
 71
     0
  0
GROUP
  5
63B0
102
{ACAD_REACTORS
330
18
102
}
330
18
100
AcDbGroup
300

 70
     3
 71
     0
  0
GROUP
  5
1C26
102
{ACAD_REACTORS
330
18
102
}
330
18
100
AcDbGroup
300

 70
     3
 71
     0
  0
GROUP
  5
4910
102
{ACAD_REACTORS
330
18
102
}
330
18
100
AcDbGroup
300

 70
     3
 71
     0
  0
GROUP
  5
6389
102
{ACAD_REACTORS
330
18
102
}
330
18
100
AcDbGroup
300

 70
     3
 71
     0
  0
GROUP
  5
145C
102
{ACAD_REACTORS
330
18
102
}
330
18
100
AcDbGroup
300

 70
     3
 71
     0
  0
GROUP
  5
1B44
102
{ACAD_REACTORS
330
18
102
}
330
18
100
AcDbGroup
300

 70
     3
 71
     0
  0
GROUP
  5
63FE
102
{ACAD_REACTORS
330
18
102
}
330
18
100
AcDbGroup
300

 70
     3
 71
     0
  0
GROUP
  5
490E
102
{ACAD_REACTORS
330
18
102
}
330
18
100
AcDbGroup
300

 70
     3
 71
     0
  0
GROUP
  5
1C40
102
{ACAD_REACTORS
330
18
102
}
330
18
100
AcDbGroup
300

 70
     3
 71
     0
  0
GROUP
  5
1C33
102
{ACAD_REACTORS
330
18
102
}
330
18
100
AcDbGroup
300

 70
     3
 71
     0
  0
GROUP
  5
489D
102
{ACAD_REACTORS
330
18
102
}
330
18
100
AcDbGroup
300

 70
     3
 71
     0
  0
GROUP
  5
48AF
102
{ACAD_REACTORS
330
18
102
}
330
18
100
AcDbGroup
300

 70
     3
 71
     0
  0
GROUP
  5
1C0F
102
{ACAD_REACTORS
330
18
102
}
330
18
100
AcDbGroup
300

 70
     3
 71
     0
  0
GROUP
  5
624A
102
{ACAD_REACTORS
330
18
102
}
330
18
100
AcDbGroup
300

 70
     3
 71
     0
  0
GROUP
  5
48CD
102
{ACAD_REACTORS
330
18
102
}
330
18
100
AcDbGroup
300

 70
     3
 71
     0
  0
GROUP
  5
6358
102
{ACAD_REACTORS
330
18
102
}
330
18
100
AcDbGroup
300

 70
     3
 71
     0
  0
GROUP
  5
1C2C
102
{ACAD_REACTORS
330
18
102
}
330
18
100
AcDbGroup
300

 70
     3
 71
     0
  0
GROUP
  5
49BF
102
{ACAD_REACTORS
330
18
102
}
330
18
100
AcDbGroup
300

 70
     3
 71
     0
  0
GROUP
  5
1BC3
102
{ACAD_REACTORS
330
18
102
}
330
18
100
AcDbGroup
300

 70
     3
 71
     0
  0
GROUP
  5
4838
102
{ACAD_REACTORS
330
18
102
}
330
18
100
AcDbGroup
300

 70
     3
 71
     0
  0
GROUP
  5
1B98
102
{ACAD_REACTORS
330
18
102
}
330
18
100
AcDbGroup
300

 70
     3
 71
     0
  0
GROUP
  5
1B17
102
{ACAD_REACTORS
330
18
102
}
330
18
100
AcDbGroup
300

 70
     3
 71
     0
  0
GROUP
  5
62A3
102
{ACAD_REACTORS
330
18
102
}
330
18
100
AcDbGroup
300

 70
     3
 71
     0
  0
GROUP
  5
1B71
102
{ACAD_REACTORS
330
18
102
}
330
18
100
AcDbGroup
300

 70
     3
 71
     0
  0
GROUP
  5
37BC
102
{ACAD_REACTORS
330
18
102
}
330
18
100
AcDbGroup
300

 70
     3
 71
     0
  0
GROUP
  5
1C2A
102
{ACAD_REACTORS
330
18
102
}
330
18
100
AcDbGroup
300

 70
     3
 71
     0
  0
GROUP
  5
4895
102
{ACAD_REACTORS
330
18
102
}
330
18
100
AcDbGroup
300

 70
     3
 71
     0
  0
GROUP
  5
145D
102
{ACAD_REACTORS
330
18
102
}
330
18
100
AcDbGroup
300

 70
     3
 71
     0
  0
GROUP
  5
4820
102
{ACAD_REACTORS
330
18
102
}
330
18
100
AcDbGroup
300

 70
     3
 71
     0
  0
GROUP
  5
1C31
102
{ACAD_REACTORS
330
18
102
}
330
18
100
AcDbGroup
300

 70
     3
 71
     0
  0
GROUP
  5
6416
102
{ACAD_REACTORS
330
18
102
}
330
18
100
AcDbGroup
300

 70
     3
 71
     0
  0
GROUP
  5
62D6
102
{ACAD_REACTORS
330
18
102
}
330
18
100
AcDbGroup
300

 70
     3
 71
     0
  0
GROUP
  5
640E
102
{ACAD_REACTORS
330
18
102
}
330
18
100
AcDbGroup
300

 70
     3
 71
     0
  0
GROUP
  5
634B
102
{ACAD_REACTORS
330
18
102
}
330
18
100
AcDbGroup
300

 70
     3
 71
     0
  0
GROUP
  5
1B5A
102
{ACAD_REACTORS
330
18
102
}
330
18
100
AcDbGroup
300

 70
     3
 71
     0
  0
GROUP
  5
631B
102
{ACAD_REACTORS
330
18
102
}
330
18
100
AcDbGroup
300

 70
     3
 71
     0
  0
GROUP
  5
639D
102
{ACAD_REACTORS
330
18
102
}
330
18
100
AcDbGroup
300

 70
     3
 71
     0
  0
GROUP
  5
48A7
102
{ACAD_REACTORS
330
18
102
}
330
18
100
AcDbGroup
300

 70
     3
 71
     0
  0
GROUP
  5
48F7
102
{ACAD_REACTORS
330
18
102
}
330
18
100
AcDbGroup
300

 70
     3
 71
     0
  0
GROUP
  5
6239
102
{ACAD_REACTORS
330
18
102
}
330
18
100
AcDbGroup
300

 70
     3
 71
     0
  0
GROUP
  5
1B40
102
{ACAD_REACTORS
330
18
102
}
330
18
100
AcDbGroup
300

 70
     3
 71
     0
  0
GROUP
  5
1C2E
102
{ACAD_REACTORS
330
18
102
}
330
18
100
AcDbGroup
300

 70
     3
 71
     0
  0
GROUP
  5
4885
102
{ACAD_REACTORS
330
18
102
}
330
18
100
AcDbGroup
300

 70
     3
 71
     0
  0
GROUP
  5
62D5
102
{ACAD_REACTORS
330
18
102
}
330
18
100
AcDbGroup
300

 70
     3
 71
     0
  0
GROUP
  5
1C16
102
{ACAD_REACTORS
330
18
102
}
330
18
100
AcDbGroup
300

 70
     3
 71
     0
  0
GROUP
  5
6344
102
{ACAD_REACTORS
330
18
102
}
330
18
100
AcDbGroup
300

 70
     3
 71
     0
  0
GROUP
  5
486A
102
{ACAD_REACTORS
330
18
102
}
330
18
100
AcDbGroup
300

 70
     3
 71
     0
  0
GROUP
  5
1B3F
102
{ACAD_REACTORS
330
18
102
}
330
18
100
AcDbGroup
300

 70
     3
 71
     0
  0
GROUP
  5
628B
102
{ACAD_REACTORS
330
18
102
}
330
18
100
AcDbGroup
300

 70
     3
 71
     0
  0
GROUP
  5
62F0
102
{ACAD_REACTORS
330
18
102
}
330
18
100
AcDbGroup
300

 70
     3
 71
     0
  0
GROUP
  5
494E
102
{ACAD_REACTORS
330
18
102
}
330
18
100
AcDbGroup
300

 70
     3
 71
     0
  0
GROUP
  5
62D9
102
{ACAD_REACTORS
330
18
102
}
330
18
100
AcDbGroup
300

 70
     3
 71
     0
  0
GROUP
  5
1BFC
102
{ACAD_REACTORS
330
18
102
}
330
18
100
AcDbGroup
300

 70
     3
 71
     0
  0
GROUP
  5
49CE
102
{ACAD_REACTORS
330
18
102
}
330
18
100
AcDbGroup
300

 70
     3
 71
     0
  0
GROUP
  5
6312
102
{ACAD_REACTORS
330
18
102
}
330
18
100
AcDbGroup
300

 70
     3
 71
     0
  0
GROUP
  5
1C28
102
{ACAD_REACTORS
330
18
102
}
330
18
100
AcDbGroup
300

 70
     3
 71
     0
  0
GROUP
  5
48C7
102
{ACAD_REACTORS
330
18
102
}
330
18
100
AcDbGroup
300

 70
     3
 71
     1
  0
GROUP
  5
1BAC
102
{ACAD_REACTORS
330
18
102
}
330
18
100
AcDbGroup
300

 70
     3
 71
     0
  0
GROUP
  5
493B
102
{ACAD_REACTORS
330
18
102
}
330
18
100
AcDbGroup
300

 70
     3
 71
     0
  0
GROUP
  5
62A1
102
{ACAD_REACTORS
330
18
102
}
330
18
100
AcDbGroup
300

 70
     3
 71
     0
  0
GROUP
  5
1B11
102
{ACAD_REACTORS
330
18
102
}
330
18
100
AcDbGroup
300

 70
     3
 71
     0
  0
GROUP
  5
4987
102
{ACAD_REACTORS
330
18
102
}
330
18
100
AcDbGroup
300

 70
     3
 71
     0
  0
GROUP
  5
633F
102
{ACAD_REACTORS
330
18
102
}
330
18
100
AcDbGroup
300

 70
     3
 71
     0
  0
GROUP
  5
1464
102
{ACAD_REACTORS
330
18
102
}
330
18
100
AcDbGroup
300

 70
     3
 71
     0
  0
GROUP
  5
48EE
102
{ACAD_REACTORS
330
18
102
}
330
18
100
AcDbGroup
300

 70
     3
 71
     0
  0
GROUP
  5
633A
102
{ACAD_REACTORS
330
18
102
}
330
18
100
AcDbGroup
300

 70
     3
 71
     0
  0
GROUP
  5
490A
102
{ACAD_REACTORS
330
18
102
}
330
18
100
AcDbGroup
300

 70
     3
 71
     0
  0
GROUP
  5
4877
102
{ACAD_REACTORS
330
18
102
}
330
18
100
AcDbGroup
300

 70
     3
 71
     0
  0
GROUP
  5
484D
102
{ACAD_REACTORS
330
18
102
}
330
18
100
AcDbGroup
300

 70
     3
 71
     0
  0
GROUP
  5
49D0
102
{ACAD_REACTORS
330
18
102
}
330
18
100
AcDbGroup
300

 70
     3
 71
     0
  0
GROUP
  5
1B61
102
{ACAD_REACTORS
330
18
102
}
330
18
100
AcDbGroup
300

 70
     3
 71
     0
  0
GROUP
  5
63B8
102
{ACAD_REACTORS
330
18
102
}
330
18
100
AcDbGroup
300

 70
     3
 71
     0
  0
GROUP
  5
48DE
102
{ACAD_REACTORS
330
18
102
}
330
18
100
AcDbGroup
300

 70
     3
 71
     0
  0
GROUP
  5
6282
102
{ACAD_REACTORS
330
18
102
}
330
18
100
AcDbGroup
300

 70
     3
 71
     0
  0
GROUP
  5
492F
102
{ACAD_REACTORS
330
18
102
}
330
18
100
AcDbGroup
300

 70
     3
 71
     0
  0
GROUP
  5
145F
102
{ACAD_REACTORS
330
18
102
}
330
18
100
AcDbGroup
300

 70
     3
 71
     0
  0
GROUP
  5
63AA
102
{ACAD_REACTORS
330
18
102
}
330
18
100
AcDbGroup
300

 70
     3
 71
     0
  0
GROUP
  5
4943
102
{ACAD_REACTORS
330
18
102
}
330
18
100
AcDbGroup
300

 70
     3
 71
     0
  0
GROUP
  5
48E2
102
{ACAD_REACTORS
330
18
102
}
330
18
100
AcDbGroup
300

 70
     3
 71
     0
  0
GROUP
  5
4864
102
{ACAD_REACTORS
330
18
102
}
330
18
100
AcDbGroup
300

 70
     3
 71
     0
  0
GROUP
  5
48A1
102
{ACAD_REACTORS
330
18
102
}
330
18
100
AcDbGroup
300

 70
     3
 71
     0
  0
GROUP
  5
499F
102
{ACAD_REACTORS
330
18
102
}
330
18
100
AcDbGroup
300

 70
     3
 71
     0
  0
GROUP
  5
1B45
102
{ACAD_REACTORS
330
18
102
}
330
18
100
AcDbGroup
300

 70
     3
 71
     0
  0
GROUP
  5
6388
102
{ACAD_REACTORS
330
18
102
}
330
18
100
AcDbGroup
300

 70
     3
 71
     0
  0
GROUP
  5
4860
102
{ACAD_REACTORS
330
18
102
}
330
18
100
AcDbGroup
300

 70
     3
 71
     0
  0
GROUP
  5
48A5
102
{ACAD_REACTORS
330
18
102
}
330
18
100
AcDbGroup
300

 70
     3
 71
     0
  0
GROUP
  5
1BF1
102
{ACAD_REACTORS
330
18
102
}
330
18
100
AcDbGroup
300

 70
     3
 71
     0
  0
GROUP
  5
1468
102
{ACAD_REACTORS
330
18
102
}
330
18
100
AcDbGroup
300

 70
     3
 71
     0
  0
GROUP
  5
1BFF
102
{ACAD_REACTORS
330
18
102
}
330
18
100
AcDbGroup
300

 70
     3
 71
     0
  0
GROUP
  5
6281
102
{ACAD_REACTORS
330
18
102
}
330
18
100
AcDbGroup
300

 70
     3
 71
     0
  0
GROUP
  5
4828
102
{ACAD_REACTORS
330
18
102
}
330
18
100
AcDbGroup
300

 70
     3
 71
     0
  0
GROUP
  5
4938
102
{ACAD_REACTORS
330
18
102
}
330
18
100
AcDbGroup
300

 70
     3
 71
     0
  0
GROUP
  5
4940
102
{ACAD_REACTORS
330
18
102
}
330
18
100
AcDbGroup
300

 70
     3
 71
     0
  0
GROUP
  5
492D
102
{ACAD_REACTORS
330
18
102
}
330
18
100
AcDbGroup
300

 70
     3
 71
     0
  0
GROUP
  5
48D8
102
{ACAD_REACTORS
330
18
102
}
330
18
100
AcDbGroup
300

 70
     3
 71
     0
  0
GROUP
  5
63F1
102
{ACAD_REACTORS
330
18
102
}
330
18
100
AcDbGroup
300

 70
     3
 71
     0
  0
GROUP
  5
48ED
102
{ACAD_REACTORS
330
18
102
}
330
18
100
AcDbGroup
300

 70
     3
 71
     0
  0
GROUP
  5
37AE
102
{ACAD_REACTORS
330
18
102
}
330
18
100
AcDbGroup
300

 70
     3
 71
     0
  0
GROUP
  5
6409
102
{ACAD_REACTORS
330
18
102
}
330
18
100
AcDbGroup
300

 70
     3
 71
     0
  0
GROUP
  5
1B15
102
{ACAD_REACTORS
330
18
102
}
330
18
100
AcDbGroup
300

 70
     3
 71
     0
  0
GROUP
  5
62DC
102
{ACAD_REACTORS
330
18
102
}
330
18
100
AcDbGroup
300

 70
     3
 71
     0
  0
GROUP
  5
62BD
102
{ACAD_REACTORS
330
18
102
}
330
18
100
AcDbGroup
300

 70
     3
 71
     0
  0
GROUP
  5
1C2F
102
{ACAD_REACTORS
330
18
102
}
330
18
100
AcDbGroup
300

 70
     3
 71
     0
  0
GROUP
  5
1B7C
102
{ACAD_REACTORS
330
18
102
}
330
18
100
AcDbGroup
300

 70
     3
 71
     0
  0
GROUP
  5
1AE3
102
{ACAD_REACTORS
330
18
102
}
330
18
100
AcDbGroup
300

 70
     3
 71
     0
  0
GROUP
  5
636C
102
{ACAD_REACTORS
330
18
102
}
330
18
100
AcDbGroup
300

 70
     3
 71
     0
  0
GROUP
  5
1B28
102
{ACAD_REACTORS
330
18
102
}
330
18
100
AcDbGroup
300

 70
     3
 71
     0
  0
GROUP
  5
4889
102
{ACAD_REACTORS
330
18
102
}
330
18
100
AcDbGroup
300

 70
     3
 71
     0
  0
GROUP
  5
63C4
102
{ACAD_REACTORS
330
18
102
}
330
18
100
AcDbGroup
300

 70
     3
 71
     0
  0
GROUP
  5
1B33
102
{ACAD_REACTORS
330
18
102
}
330
18
100
AcDbGroup
300

 70
     3
 71
     0
  0
GROUP
  5
4934
102
{ACAD_REACTORS
330
18
102
}
330
18
100
AcDbGroup
300

 70
     3
 71
     0
  0
GROUP
  5
49ED
102
{ACAD_REACTORS
330
18
102
}
330
18
100
AcDbGroup
300

 70
     3
 71
     0
  0
GROUP
  5
629E
102
{ACAD_REACTORS
330
18
102
}
330
18
100
AcDbGroup
300

 70
     3
 71
     0
  0
GROUP
  5
63D3
102
{ACAD_REACTORS
330
18
102
}
330
18
100
AcDbGroup
300

 70
     3
 71
     0
  0
GROUP
  5
623C
102
{ACAD_REACTORS
330
18
102
}
330
18
100
AcDbGroup
300

 70
     3
 71
     0
  0
GROUP
  5
484B
102
{ACAD_REACTORS
330
18
102
}
330
18
100
AcDbGroup
300

 70
     3
 71
     0
  0
GROUP
  5
1B76
102
{ACAD_REACTORS
330
18
102
}
330
18
100
AcDbGroup
300

 70
     3
 71
     0
  0
GROUP
  5
1BA1
102
{ACAD_REACTORS
330
18
102
}
330
18
100
AcDbGroup
300

 70
     3
 71
     0
  0
GROUP
  5
63DB
102
{ACAD_REACTORS
330
18
102
}
330
18
100
AcDbGroup
300

 70
     3
 71
     0
  0
GROUP
  5
6308
102
{ACAD_REACTORS
330
18
102
}
330
18
100
AcDbGroup
300

 70
     3
 71
     0
  0
GROUP
  5
4851
102
{ACAD_REACTORS
330
18
102
}
330
18
100
AcDbGroup
300

 70
     3
 71
     0
  0
GROUP
  5
62E2
102
{ACAD_REACTORS
330
18
102
}
330
18
100
AcDbGroup
300

 70
     3
 71
     0
  0
GROUP
  5
4843
102
{ACAD_REACTORS
330
18
102
}
330
18
100
AcDbGroup
300

 70
     3
 71
     0
  0
GROUP
  5
48C9
102
{ACAD_REACTORS
330
18
102
}
330
18
100
AcDbGroup
300

 70
     3
 71
     0
  0
GROUP
  5
623B
102
{ACAD_REACTORS
330
18
102
}
330
18
100
AcDbGroup
300

 70
     3
 71
     0
  0
GROUP
  5
1AE4
102
{ACAD_REACTORS
330
18
102
}
330
18
100
AcDbGroup
300

 70
     3
 71
     0
  0
GROUP
  5
628D
102
{ACAD_REACTORS
330
18
102
}
330
18
100
AcDbGroup
300

 70
     3
 71
     0
  0
GROUP
  5
641E
102
{ACAD_REACTORS
330
18
102
}
330
18
100
AcDbGroup
300

 70
     3
 71
     0
  0
GROUP
  5
494C
102
{ACAD_REACTORS
330
18
102
}
330
18
100
AcDbGroup
300

 70
     3
 71
     0
  0
GROUP
  5
639B
102
{ACAD_REACTORS
330
18
102
}
330
18
100
AcDbGroup
300

 70
     3
 71
     0
  0
GROUP
  5
6259
102
{ACAD_REACTORS
330
18
102
}
330
18
100
AcDbGroup
300

 70
     3
 71
     0
  0
GROUP
  5
62BC
102
{ACAD_REACTORS
330
18
102
}
330
18
100
AcDbGroup
300

 70
     3
 71
     0
  0
GROUP
  5
4985
102
{ACAD_REACTORS
330
18
102
}
330
18
100
AcDbGroup
300

 70
     3
 71
     0
  0
GROUP
  5
48B0
102
{ACAD_REACTORS
330
18
102
}
330
18
100
AcDbGroup
300

 70
     3
 71
     0
  0
GROUP
  5
63F7
102
{ACAD_REACTORS
330
18
102
}
330
18
100
AcDbGroup
300

 70
     3
 71
     0
  0
GROUP
  5
495A
102
{ACAD_REACTORS
330
18
102
}
330
18
100
AcDbGroup
300

 70
     3
 71
     0
  0
GROUP
  5
62AB
102
{ACAD_REACTORS
330
18
102
}
330
18
100
AcDbGroup
300

 70
     3
 71
     0
  0
GROUP
  5
48F3
102
{ACAD_REACTORS
330
18
102
}
330
18
100
AcDbGroup
300

 70
     3
 71
     0
  0
GROUP
  5
622E
102
{ACAD_REACTORS
330
18
102
}
330
18
100
AcDbGroup
300

 70
     3
 71
     0
  0
GROUP
  5
1B90
102
{ACAD_REACTORS
330
18
102
}
330
18
100
AcDbGroup
300

 70
     3
 71
     0
  0
GROUP
  5
4A0A
102
{ACAD_REACTORS
330
18
102
}
330
18
100
AcDbGroup
300

 70
     3
 71
     0
  0
GROUP
  5
632A
102
{ACAD_REACTORS
330
18
102
}
330
18
100
AcDbGroup
300

 70
     3
 71
     0
  0
GROUP
  5
62F3
102
{ACAD_REACTORS
330
18
102
}
330
18
100
AcDbGroup
300

 70
     3
 71
     0
  0
GROUP
  5
1C06
102
{ACAD_REACTORS
330
18
102
}
330
18
100
AcDbGroup
300

 70
     3
 71
     0
  0
GROUP
  5
379D
102
{ACAD_REACTORS
330
18
102
}
330
18
100
AcDbGroup
300

 70
     3
 71
     0
  0
GROUP
  5
62EB
102
{ACAD_REACTORS
330
18
102
}
330
18
100
AcDbGroup
300

 70
     3
 71
     0
  0
GROUP
  5
1B21
102
{ACAD_REACTORS
330
18
102
}
330
18
100
AcDbGroup
300

 70
     3
 71
     0
  0
GROUP
  5
63CA
102
{ACAD_REACTORS
330
18
102
}
330
18
100
AcDbGroup
300

 70
     3
 71
     0
  0
GROUP
  5
499D
102
{ACAD_REACTORS
330
18
102
}
330
18
100
AcDbGroup
300

 70
     3
 71
     0
  0
GROUP
  5
1BA4
102
{ACAD_REACTORS
330
18
102
}
330
18
100
AcDbGroup
300

 70
     3
 71
     0
  0
GROUP
  5
6366
102
{ACAD_REACTORS
330
18
102
}
330
18
100
AcDbGroup
300

 70
     3
 71
     0
  0
GROUP
  5
1C0B
102
{ACAD_REACTORS
330
18
102
}
330
18
100
AcDbGroup
300

 70
     3
 71
     0
  0
GROUP
  5
49A3
102
{ACAD_REACTORS
330
18
102
}
330
18
100
AcDbGroup
300

 70
     3
 71
     0
  0
GROUP
  5
1B0F
102
{ACAD_REACTORS
330
18
102
}
330
18
100
AcDbGroup
300

 70
     3
 71
     0
  0
GROUP
  5
1ADB
102
{ACAD_REACTORS
330
18
102
}
330
18
100
AcDbGroup
300

 70
     3
 71
     0
  0
GROUP
  5
6385
102
{ACAD_REACTORS
330
18
102
}
330
18
100
AcDbGroup
300

 70
     3
 71
     0
  0
GROUP
  5
494F
102
{ACAD_REACTORS
330
18
102
}
330
18
100
AcDbGroup
300

 70
     3
 71
     0
  0
GROUP
  5
4970
102
{ACAD_REACTORS
330
18
102
}
330
18
100
AcDbGroup
300

 70
     3
 71
     0
  0
GROUP
  5
6235
102
{ACAD_REACTORS
330
18
102
}
330
18
100
AcDbGroup
300

 70
     3
 71
     0
  0
GROUP
  5
48FD
102
{ACAD_REACTORS
330
18
102
}
330
18
100
AcDbGroup
300

 70
     3
 71
     0
  0
GROUP
  5
63C6
102
{ACAD_REACTORS
330
18
102
}
330
18
100
AcDbGroup
300

 70
     3
 71
     0
  0
GROUP
  5
630A
102
{ACAD_REACTORS
330
18
102
}
330
18
100
AcDbGroup
300

 70
     3
 71
     0
  0
GROUP
  5
1BD5
102
{ACAD_REACTORS
330
18
102
}
330
18
100
AcDbGroup
300

 70
     3
 71
     0
  0
GROUP
  5
1B9B
102
{ACAD_REACTORS
330
18
102
}
330
18
100
AcDbGroup
300

 70
     3
 71
     0
  0
GROUP
  5
6380
102
{ACAD_REACTORS
330
18
102
}
330
18
100
AcDbGroup
300

 70
     3
 71
     0
  0
GROUP
  5
486D
102
{ACAD_REACTORS
330
18
102
}
330
18
100
AcDbGroup
300

 70
     3
 71
     0
  0
GROUP
  5
4842
102
{ACAD_REACTORS
330
18
102
}
330
18
100
AcDbGroup
300

 70
     3
 71
     0
  0
GROUP
  5
482A
102
{ACAD_REACTORS
330
18
102
}
330
18
100
AcDbGroup
300

 70
     3
 71
     0
  0
GROUP
  5
4835
102
{ACAD_REACTORS
330
18
102
}
330
18
100
AcDbGroup
300

 70
     3
 71
     0
  0
GROUP
  5
1C11
102
{ACAD_REACTORS
330
18
102
}
330
18
100
AcDbGroup
300

 70
     3
 71
     0
  0
GROUP
  5
483B
102
{ACAD_REACTORS
330
18
102
}
330
18
100
AcDbGroup
300

 70
     3
 71
     0
  0
GROUP
  5
4965
102
{ACAD_REACTORS
330
18
102
}
330
18
100
AcDbGroup
300

 70
     3
 71
     0
  0
GROUP
  5
63EF
102
{ACAD_REACTORS
330
18
102
}
330
18
100
AcDbGroup
300

 70
     3
 71
     0
  0
GROUP
  5
37A0
102
{ACAD_REACTORS
330
18
102
}
330
18
100
AcDbGroup
300

 70
     3
 71
     0
  0
GROUP
  5
4904
102
{ACAD_REACTORS
330
18
102
}
330
18
100
AcDbGroup
300

 70
     3
 71
     0
  0
GROUP
  5
49B2
102
{ACAD_REACTORS
330
18
102
}
330
18
100
AcDbGroup
300

 70
     3
 71
     0
  0
GROUP
  5
1AEA
102
{ACAD_REACTORS
330
18
102
}
330
18
100
AcDbGroup
300

 70
     3
 71
     0
  0
GROUP
  5
1AFC
102
{ACAD_REACTORS
330
18
102
}
330
18
100
AcDbGroup
300

 70
     3
 71
     0
  0
GROUP
  5
1AD3
102
{ACAD_REACTORS
330
18
102
}
330
18
100
AcDbGroup
300

 70
     3
 71
     0
  0
GROUP
  5
6296
102
{ACAD_REACTORS
330
18
102
}
330
18
100
AcDbGroup
300

 70
     3
 71
     0
  0
GROUP
  5
6257
102
{ACAD_REACTORS
330
18
102
}
330
18
100
AcDbGroup
300

 70
     3
 71
     0
  0
GROUP
  5
1ACB
102
{ACAD_REACTORS
330
18
102
}
330
18
100
AcDbGroup
300

 70
     3
 71
     0
  0
GROUP
  5
1B05
102
{ACAD_REACTORS
330
18
102
}
330
18
100
AcDbGroup
300

 70
     3
 71
     0
  0
GROUP
  5
48B6
102
{ACAD_REACTORS
330
18
102
}
330
18
100
AcDbGroup
300

 70
     3
 71
     0
  0
GROUP
  5
1BEA
102
{ACAD_REACTORS
330
18
102
}
330
18
100
AcDbGroup
300

 70
     3
 71
     0
  0
GROUP
  5
498E
102
{ACAD_REACTORS
330
18
102
}
330
18
100
AcDbGroup
300

 70
     3
 71
     0
  0
GROUP
  5
4876
102
{ACAD_REACTORS
330
18
102
}
330
18
100
AcDbGroup
300

 70
     3
 71
     0
  0
GROUP
  5
1B85
102
{ACAD_REACTORS
330
18
102
}
330
18
100
AcDbGroup
300

 70
     3
 71
     0
  0
GROUP
  5
63BA
102
{ACAD_REACTORS
330
18
102
}
330
18
100
AcDbGroup
300

 70
     3
 71
     0
  0
GROUP
  5
1BC0
102
{ACAD_REACTORS
330
18
102
}
330
18
100
AcDbGroup
300

 70
     3
 71
     0
  0
GROUP
  5
62FC
102
{ACAD_REACTORS
330
18
102
}
330
18
100
AcDbGroup
300

 70
     3
 71
     0
  0
GROUP
  5
484F
102
{ACAD_REACTORS
330
18
102
}
330
18
100
AcDbGroup
300

 70
     3
 71
     0
  0
GROUP
  5
4976
102
{ACAD_REACTORS
330
18
102
}
330
18
100
AcDbGroup
300

 70
     3
 71
     0
  0
GROUP
  5
1BA0
102
{ACAD_REACTORS
330
18
102
}
330
18
100
AcDbGroup
300

 70
     3
 71
     0
  0
GROUP
  5
1BA9
102
{ACAD_REACTORS
330
18
102
}
330
18
100
AcDbGroup
300

 70
     3
 71
     0
  0
GROUP
  5
48A6
102
{ACAD_REACTORS
330
18
102
}
330
18
100
AcDbGroup
300

 70
     3
 71
     0
  0
GROUP
  5
6346
102
{ACAD_REACTORS
330
18
102
}
330
18
100
AcDbGroup
300

 70
     3
 71
     0
  0
GROUP
  5
6411
102
{ACAD_REACTORS
330
18
102
}
330
18
100
AcDbGroup
300

 70
     3
 71
     0
  0
GROUP
  5
6374
102
{ACAD_REACTORS
330
18
102
}
330
18
100
AcDbGroup
300

 70
     3
 71
     0
  0
GROUP
  5
63D0
102
{ACAD_REACTORS
330
18
102
}
330
18
100
AcDbGroup
300

 70
     3
 71
     0
  0
GROUP
  5
4959
102
{ACAD_REACTORS
330
18
102
}
330
18
100
AcDbGroup
300

 70
     3
 71
     0
  0
GROUP
  5
1C55
102
{ACAD_REACTORS
330
18
102
}
330
18
100
AcDbGroup
300

 70
     3
 71
     0
  0
GROUP
  5
1B81
102
{ACAD_REACTORS
330
18
102
}
330
18
100
AcDbGroup
300

 70
     3
 71
     0
  0
GROUP
  5
37AD
102
{ACAD_REACTORS
330
18
102
}
330
18
100
AcDbGroup
300

 70
     3
 71
     0
  0
GROUP
  5
63F3
102
{ACAD_REACTORS
330
18
102
}
330
18
100
AcDbGroup
300

 70
     3
 71
     0
  0
GROUP
  5
635D
102
{ACAD_REACTORS
330
18
102
}
330
18
100
AcDbGroup
300

 70
     3
 71
     0
  0
GROUP
  5
1B29
102
{ACAD_REACTORS
330
18
102
}
330
18
100
AcDbGroup
300

 70
     3
 71
     0
  0
GROUP
  5
48FB
102
{ACAD_REACTORS
330
18
102
}
330
18
100
AcDbGroup
300

 70
     3
 71
     0
  0
GROUP
  5
63A7
102
{ACAD_REACTORS
330
18
102
}
330
18
100
AcDbGroup
300

 70
     3
 71
     0
  0
GROUP
  5
4898
102
{ACAD_REACTORS
330
18
102
}
330
18
100
AcDbGroup
300

 70
     3
 71
     0
  0
GROUP
  5
4854
102
{ACAD_REACTORS
330
18
102
}
330
18
100
AcDbGroup
300

 70
     3
 71
     0
  0
GROUP
  5
49D9
102
{ACAD_REACTORS
330
18
102
}
330
18
100
AcDbGroup
300

 70
     3
 71
     0
  0
GROUP
  5
6265
102
{ACAD_REACTORS
330
18
102
}
330
18
100
AcDbGroup
300

 70
     3
 71
     0
  0
GROUP
  5
37C3
102
{ACAD_REACTORS
330
18
102
}
330
18
100
AcDbGroup
300

 70
     3
 71
     0
  0
GROUP
  5
480D
102
{ACAD_REACTORS
330
18
102
}
330
18
100
AcDbGroup
300

 70
     3
 71
     0
  0
GROUP
  5
49C6
102
{ACAD_REACTORS
330
18
102
}
330
18
100
AcDbGroup
300

 70
     3
 71
     0
  0
GROUP
  5
1BD6
102
{ACAD_REACTORS
330
18
102
}
330
18
100
AcDbGroup
300

 70
     3
 71
     0
  0
GROUP
  5
6254
102
{ACAD_REACTORS
330
18
102
}
330
18
100
AcDbGroup
300

 70
     3
 71
     0
  0
GROUP
  5
1BC5
102
{ACAD_REACTORS
330
18
102
}
330
18
100
AcDbGroup
300

 70
     3
 71
     0
  0
GROUP
  5
638E
102
{ACAD_REACTORS
330
18
102
}
330
18
100
AcDbGroup
300

 70
     3
 71
     0
  0
GROUP
  5
1455
102
{ACAD_REACTORS
330
18
102
}
330
18
100
AcDbGroup
300

 70
     3
 71
     0
  0
GROUP
  5
6291
102
{ACAD_REACTORS
330
18
102
}
330
18
100
AcDbGroup
300

 70
     3
 71
     0
  0
GROUP
  5
1C32
102
{ACAD_REACTORS
330
18
102
}
330
18
100
AcDbGroup
300

 70
     3
 71
     0
  0
GROUP
  5
48CE
102
{ACAD_REACTORS
330
18
102
}
330
18
100
AcDbGroup
300

 70
     3
 71
     0
  0
GROUP
  5
6345
102
{ACAD_REACTORS
330
18
102
}
330
18
100
AcDbGroup
300

 70
     3
 71
     0
  0
GROUP
  5
6287
102
{ACAD_REACTORS
330
18
102
}
330
18
100
AcDbGroup
300

 70
     3
 71
     0
  0
GROUP
  5
37A2
102
{ACAD_REACTORS
330
18
102
}
330
18
100
AcDbGroup
300

 70
     3
 71
     0
  0
GROUP
  5
1B32
102
{ACAD_REACTORS
330
18
102
}
330
18
100
AcDbGroup
300

 70
     3
 71
     0
  0
GROUP
  5
6367
102
{ACAD_REACTORS
330
18
102
}
330
18
100
AcDbGroup
300

 70
     3
 71
     0
  0
GROUP
  5
1C1C
102
{ACAD_REACTORS
330
18
102
}
330
18
100
AcDbGroup
300

 70
     3
 71
     0
  0
GROUP
  5
494B
102
{ACAD_REACTORS
330
18
102
}
330
18
100
AcDbGroup
300

 70
     3
 71
     0
  0
GROUP
  5
1C49
102
{ACAD_REACTORS
330
18
102
}
330
18
100
AcDbGroup
300

 70
     3
 71
     0
  0
GROUP
  5
1B30
102
{ACAD_REACTORS
330
18
102
}
330
18
100
AcDbGroup
300

 70
     3
 71
     0
  0
GROUP
  5
491E
102
{ACAD_REACTORS
330
18
102
}
330
18
100
AcDbGroup
300

 70
     3
 71
     0
  0
GROUP
  5
629F
102
{ACAD_REACTORS
330
18
102
}
330
18
100
AcDbGroup
300

 70
     3
 71
     0
  0
GROUP
  5
1B1C
102
{ACAD_REACTORS
330
18
102
}
330
18
100
AcDbGroup
300

 70
     3
 71
     0
  0
GROUP
  5
49DF
102
{ACAD_REACTORS
330
18
102
}
330
18
100
AcDbGroup
300

 70
     3
 71
     0
  0
GROUP
  5
629D
102
{ACAD_REACTORS
330
18
102
}
330
18
100
AcDbGroup
300

 70
     3
 71
     0
  0
GROUP
  5
6419
102
{ACAD_REACTORS
330
18
102
}
330
18
100
AcDbGroup
300

 70
     3
 71
     0
  0
GROUP
  5
49F7
102
{ACAD_REACTORS
330
18
102
}
330
18
100
AcDbGroup
300

 70
     3
 71
     0
  0
GROUP
  5
6355
102
{ACAD_REACTORS
330
18
102
}
330
18
100
AcDbGroup
300

 70
     3
 71
     0
  0
GROUP
  5
63C0
102
{ACAD_REACTORS
330
18
102
}
330
18
100
AcDbGroup
300

 70
     3
 71
     0
  0
GROUP
  5
1B52
102
{ACAD_REACTORS
330
18
102
}
330
18
100
AcDbGroup
300

 70
     3
 71
     0
  0
GROUP
  5
62DB
102
{ACAD_REACTORS
330
18
102
}
330
18
100
AcDbGroup
300

 70
     3
 71
     0
  0
GROUP
  5
1AE9
102
{ACAD_REACTORS
330
18
102
}
330
18
100
AcDbGroup
300

 70
     3
 71
     0
  0
GROUP
  5
4826
102
{ACAD_REACTORS
330
18
102
}
330
18
100
AcDbGroup
300

 70
     3
 71
     0
  0
GROUP
  5
1B6E
102
{ACAD_REACTORS
330
18
102
}
330
18
100
AcDbGroup
300

 70
     3
 71
     0
  0
GROUP
  5
1BA2
102
{ACAD_REACTORS
330
18
102
}
330
18
100
AcDbGroup
300

 70
     3
 71
     0
  0
GROUP
  5
6305
102
{ACAD_REACTORS
330
18
102
}
330
18
100
AcDbGroup
300

 70
     3
 71
     0
  0
GROUP
  5
6293
102
{ACAD_REACTORS
330
18
102
}
330
18
100
AcDbGroup
300

 70
     3
 71
     0
  0
GROUP
  5
4A13
102
{ACAD_REACTORS
330
18
102
}
330
18
100
AcDbGroup
300

 70
     3
 71
     0
  0
GROUP
  5
1AE7
102
{ACAD_REACTORS
330
18
102
}
330
18
100
AcDbGroup
300

 70
     3
 71
     0
  0
GROUP
  5
6426
102
{ACAD_REACTORS
330
18
102
}
330
18
100
AcDbGroup
300

 70
     3
 71
     0
  0
GROUP
  5
6410
102
{ACAD_REACTORS
330
18
102
}
330
18
100
AcDbGroup
300

 70
     3
 71
     0
  0
GROUP
  5
1B4E
102
{ACAD_REACTORS
330
18
102
}
330
18
100
AcDbGroup
300

 70
     3
 71
     0
  0
GROUP
  5
1B2C
102
{ACAD_REACTORS
330
18
102
}
330
18
100
AcDbGroup
300

 70
     3
 71
     0
  0
GROUP
  5
48D7
102
{ACAD_REACTORS
330
18
102
}
330
18
100
AcDbGroup
300

 70
     3
 71
     0
  0
GROUP
  5
1BFD
102
{ACAD_REACTORS
330
18
102
}
330
18
100
AcDbGroup
300

 70
     3
 71
     0
  0
GROUP
  5
1BE7
102
{ACAD_REACTORS
330
18
102
}
330
18
100
AcDbGroup
300

 70
     3
 71
     0
  0
GROUP
  5
1B3B
102
{ACAD_REACTORS
330
18
102
}
330
18
100
AcDbGroup
300

 70
     3
 71
     0
  0
GROUP
  5
6376
102
{ACAD_REACTORS
330
18
102
}
330
18
100
AcDbGroup
300

 70
     3
 71
     0
  0
GROUP
  5
49F9
102
{ACAD_REACTORS
330
18
102
}
330
18
100
AcDbGroup
300

 70
     3
 71
     0
  0
GROUP
  5
37B8
102
{ACAD_REACTORS
330
18
102
}
330
18
100
AcDbGroup
300

 70
     3
 71
     0
  0
GROUP
  5
1AF9
102
{ACAD_REACTORS
330
18
102
}
330
18
100
AcDbGroup
300

 70
     3
 71
     0
  0
GROUP
  5
6310
102
{ACAD_REACTORS
330
18
102
}
330
18
100
AcDbGroup
300

 70
     3
 71
     0
  0
GROUP
  5
4994
102
{ACAD_REACTORS
330
18
102
}
330
18
100
AcDbGroup
300

 70
     3
 71
     0
  0
GROUP
  5
1469
102
{ACAD_REACTORS
330
18
102
}
330
18
100
AcDbGroup
300

 70
     3
 71
     0
  0
GROUP
  5
1BA7
102
{ACAD_REACTORS
330
18
102
}
330
18
100
AcDbGroup
300

 70
     3
 71
     0
  0
GROUP
  5
1B67
102
{ACAD_REACTORS
330
18
102
}
330
18
100
AcDbGroup
300

 70
     3
 71
     0
  0
GROUP
  5
37AF
102
{ACAD_REACTORS
330
18
102
}
330
18
100
AcDbGroup
300

 70
     3
 71
     0
  0
GROUP
  5
48DA
102
{ACAD_REACTORS
330
18
102
}
330
18
100
AcDbGroup
300

 70
     3
 71
     0
  0
GROUP
  5
1B7E
102
{ACAD_REACTORS
330
18
102
}
330
18
100
AcDbGroup
300

 70
     3
 71
     0
  0
GROUP
  5
1B31
102
{ACAD_REACTORS
330
18
102
}
330
18
100
AcDbGroup
300

 70
     3
 71
     0
  0
GROUP
  5
6336
102
{ACAD_REACTORS
330
18
102
}
330
18
100
AcDbGroup
300

 70
     3
 71
     0
  0
GROUP
  5
1B4D
102
{ACAD_REACTORS
330
18
102
}
330
18
100
AcDbGroup
300

 70
     3
 71
     0
  0
GROUP
  5
1AF8
102
{ACAD_REACTORS
330
18
102
}
330
18
100
AcDbGroup
300

 70
     3
 71
     0
  0
GROUP
  5
63DF
102
{ACAD_REACTORS
330
18
102
}
330
18
100
AcDbGroup
300

 70
     3
 71
     0
  0
GROUP
  5
1C36
102
{ACAD_REACTORS
330
18
102
}
330
18
100
AcDbGroup
300

 70
     3
 71
     0
  0
GROUP
  5
63D8
102
{ACAD_REACTORS
330
18
102
}
330
18
100
AcDbGroup
300

 70
     3
 71
     0
  0
GROUP
  5
62B6
102
{ACAD_REACTORS
330
18
102
}
330
18
100
AcDbGroup
300

 70
     3
 71
     0
  0
GROUP
  5
6251
102
{ACAD_REACTORS
330
18
102
}
330
18
100
AcDbGroup
300

 70
     3
 71
     0
  0
GROUP
  5
482F
102
{ACAD_REACTORS
330
18
102
}
330
18
100
AcDbGroup
300

 70
     3
 71
     0
  0
GROUP
  5
488E
102
{ACAD_REACTORS
330
18
102
}
330
18
100
AcDbGroup
300

 70
     3
 71
     0
  0
GROUP
  5
49AD
102
{ACAD_REACTORS
330
18
102
}
330
18
100
AcDbGroup
300

 70
     3
 71
     0
  0
GROUP
  5
1B1A
102
{ACAD_REACTORS
330
18
102
}
330
18
100
AcDbGroup
300

 70
     3
 71
     0
  0
GROUP
  5
1BC6
102
{ACAD_REACTORS
330
18
102
}
330
18
100
AcDbGroup
300

 70
     3
 71
     0
  0
GROUP
  5
49A7
102
{ACAD_REACTORS
330
18
102
}
330
18
100
AcDbGroup
300

 70
     3
 71
     0
  0
GROUP
  5
489A
102
{ACAD_REACTORS
330
18
102
}
330
18
100
AcDbGroup
300

 70
     3
 71
     0
  0
GROUP
  5
1BD2
102
{ACAD_REACTORS
330
18
102
}
330
18
100
AcDbGroup
300

 70
     3
 71
     0
  0
GROUP
  5
6246
102
{ACAD_REACTORS
330
18
102
}
330
18
100
AcDbGroup
300

 70
     3
 71
     0
  0
GROUP
  5
496D
102
{ACAD_REACTORS
330
18
102
}
330
18
100
AcDbGroup
300

 70
     3
 71
     0
  0
GROUP
  5
62DA
102
{ACAD_REACTORS
330
18
102
}
330
18
100
AcDbGroup
300

 70
     3
 71
     0
  0
GROUP
  5
499E
102
{ACAD_REACTORS
330
18
102
}
330
18
100
AcDbGroup
300

 70
     3
 71
     0
  0
GROUP
  5
3798
102
{ACAD_REACTORS
330
18
102
}
330
18
100
AcDbGroup
300

 70
     3
 71
     0
  0
GROUP
  5
640D
102
{ACAD_REACTORS
330
18
102
}
330
18
100
AcDbGroup
300

 70
     3
 71
     0
  0
GROUP
  5
62C1
102
{ACAD_REACTORS
330
18
102
}
330
18
100
AcDbGroup
300

 70
     3
 71
     0
  0
GROUP
  5
1BAF
102
{ACAD_REACTORS
330
18
102
}
330
18
100
AcDbGroup
300

 70
     3
 71
     0
  0
GROUP
  5
1B7B
102
{ACAD_REACTORS
330
18
102
}
330
18
100
AcDbGroup
300

 70
     3
 71
     0
  0
GROUP
  5
1B80
102
{ACAD_REACTORS
330
18
102
}
330
18
100
AcDbGroup
300

 70
     3
 71
     0
  0
GROUP
  5
49C2
102
{ACAD_REACTORS
330
18
102
}
330
18
100
AcDbGroup
300

 70
     3
 71
     0
  0
GROUP
  5
6349
102
{ACAD_REACTORS
330
18
102
}
330
18
100
AcDbGroup
300

 70
     3
 71
     0
  0
GROUP
  5
1C30
102
{ACAD_REACTORS
330
18
102
}
330
18
100
AcDbGroup
300

 70
     3
 71
     0
  0
GROUP
  5
49D1
102
{ACAD_REACTORS
330
18
102
}
330
18
100
AcDbGroup
300

 70
     3
 71
     0
  0
GROUP
  5
4969
102
{ACAD_REACTORS
330
18
102
}
330
18
100
AcDbGroup
300

 70
     3
 71
     0
  0
GROUP
  5
48EA
102
{ACAD_REACTORS
330
18
102
}
330
18
100
AcDbGroup
300

 70
     3
 71
     0
  0
GROUP
  5
493E
102
{ACAD_REACTORS
330
18
102
}
330
18
100
AcDbGroup
300

 70
     3
 71
     0
  0
GROUP
  5
49F2
102
{ACAD_REACTORS
330
18
102
}
330
18
100
AcDbGroup
300

 70
     3
 71
     0
  0
GROUP
  5
6292
102
{ACAD_REACTORS
330
18
102
}
330
18
100
AcDbGroup
300

 70
     3
 71
     0
  0
GROUP
  5
62E8
102
{ACAD_REACTORS
330
18
102
}
330
18
100
AcDbGroup
300

 70
     3
 71
     0
  0
GROUP
  5
1B63
102
{ACAD_REACTORS
330
18
102
}
330
18
100
AcDbGroup
300

 70
     3
 71
     0
  0
MLINESTYLE
  5
1D
102
{ACAD_REACTORS
330
19
102
}
330
19
100
AcDbMlineStyle
  2
STANDARD
 70
     0
  3

 62
     0
 51
90.0
 52
90.0
 71
     2
 49
0.5
 62
   256
  6
BYLAYER
 49
-0.5
 62
   256
  6
BYLAYER
  0
ACDBPLACEHOLDER
  5
EDC6
102
{ACAD_REACTORS
330
EDC5
102
}
330
EDC5
100
AcDbPlaceHolder
280
     0
  0
XRECORD
  5
10C71
102
{ACAD_REACTORS
330
10C67
102
}
330
10C67
100
AcDbXrecord
 90
        0
  0
XRECORD
  5
10C72
102
{ACAD_REACTORS
330
10C67
102
}
330
10C67
100
AcDbXrecord
  1
{4F33E493-6F1A-4313-A0BA-FA21A108B8F3}
  0
XRECORD
  5
10C6A
102
{ACAD_REACTORS
330
10C67
102
}
330
10C67
100
AcDbXrecord
  1

  0
XRECORD
  5
10C70
102
{ACAD_REACTORS
330
10C67
102
}
330
10C67
100
AcDbXrecord
 90
        0
  0
XRECORD
  5
10C6C
102
{ACAD_REACTORS
330
10C67
102
}
330
10C67
100
AcDbXrecord
340
EDC7
  0
XRECORD
  5
10C6F
102
{ACAD_REACTORS
330
10C67
102
}
330
10C67
100
AcDbXrecord
 90
    14877
  0
XRECORD
  5
10C6D
102
{ACAD_REACTORS
330
10C67
102
}
330
10C67
100
AcDbXrecord
340
EDC8
  0
XRECORD
  5
10C6E
102
{ACAD_REACTORS
330
10C67
102
}
330
10C67
100
AcDbXrecord
340
EDC5
  0
XRECORD
  5
10C74
102
{ACAD_REACTORS
330
10C67
102
}
330
10C67
100
AcDbXrecord
 40
0.0
  0
XRECORD
  5
10C77
102
{ACAD_REACTORS
330
10C67
102
}
330
10C67
100
AcDbXrecord
340
0
  0
XRECORD
  5
10C7D
102
{ACAD_REACTORS
330
10C67
102
}
330
10C67
100
AcDbXrecord
 10
0.0
 20
0.0
 30
0.0
  0
XRECORD
  5
10C79
102
{ACAD_REACTORS
330
10C67
102
}
330
10C67
100
AcDbXrecord
 10
0.0
 20
0.0
 30
0.0
  0
XRECORD
  5
10C7C
102
{ACAD_REACTORS
330
10C67
102
}
330
10C67
100
AcDbXrecord
 10
0.0
 20
0.0
 30
0.0
  0
XRECORD
  5
10C7A
102
{ACAD_REACTORS
330
10C67
102
}
330
10C67
100
AcDbXrecord
 10
0.0
 20
0.0
 30
0.0
  0
XRECORD
  5
10C7B
102
{ACAD_REACTORS
330
10C67
102
}
330
10C67
100
AcDbXrecord
 10
0.0
 20
0.0
 30
0.0
  0
XRECORD
  5
10C78
102
{ACAD_REACTORS
330
10C67
102
}
330
10C67
100
AcDbXrecord
 10
0.0
 20
0.0
 30
0.0
  0
XRECORD
  5
10C75
102
{ACAD_REACTORS
330
10C67
102
}
330
10C67
100
AcDbXrecord
340
0
  0
XRECORD
  5
10C76
102
{ACAD_REACTORS
330
10C67
102
}
330
10C67
100
AcDbXrecord
 70
     0
  0
XRECORD
  5
10C6B
102
{ACAD_REACTORS
330
10C67
102
}
330
10C67
100
AcDbXrecord
  1

  0
XRECORD
  5
10C68
102
{ACAD_REACTORS
330
10C67
102
}
330
10C67
100
AcDbXrecord
 90
        1
  0
XRECORD
  5
10C69
102
{ACAD_REACTORS
330
10C67
102
}
330
10C67
100
AcDbXrecord
 90
       70
  0
XRECORD
  5
10C80
102
{ACAD_REACTORS
330
10C67
102
}
330
10C67
100
AcDbXrecord
340
0
  0
XRECORD
  5
10C86
102
{ACAD_REACTORS
330
10C67
102
}
330
10C67
100
AcDbXrecord
 10
0.0
 20
0.0
 30
0.0
  0
XRECORD
  5
10C82
102
{ACAD_REACTORS
330
10C67
102
}
330
10C67
100
AcDbXrecord
 10
0.0
 20
0.0
 30
0.0
  0
XRECORD
  5
10C85
102
{ACAD_REACTORS
330
10C67
102
}
330
10C67
100
AcDbXrecord
 10
0.0
 20
0.0
 30
0.0
  0
XRECORD
  5
10C83
102
{ACAD_REACTORS
330
10C67
102
}
330
10C67
100
AcDbXrecord
 10
0.0
 20
0.0
 30
0.0
  0
XRECORD
  5
10C84
102
{ACAD_REACTORS
330
10C67
102
}
330
10C67
100
AcDbXrecord
 10
0.0
 20
0.0
 30
0.0
  0
XRECORD
  5
10C81
102
{ACAD_REACTORS
330
10C67
102
}
330
10C67
100
AcDbXrecord
 10
0.0
 20
0.0
 30
0.0
  0
XRECORD
  5
10C7E
102
{ACAD_REACTORS
330
10C67
102
}
330
10C67
100
AcDbXrecord
340
0
  0
XRECORD
  5
10C7F
102
{ACAD_REACTORS
330
10C67
102
}
330
10C67
100
AcDbXrecord
 70
     0
  0
XRECORD
  5
10C73
102
{ACAD_REACTORS
330
10C67
102
}
330
10C67
100
AcDbXrecord
  1
{B688A647-F3DA-44D3-813A-12D135767D2D}
  0
DICTIONARYVAR
  5
EDD3
102
{ACAD_REACTORS
330
EDD2
102
}
330
EDD2
100
DictionaryVariables
280
     0
  1
1
  0
ENDSEC
  0
EOF
