  0
SECTION
  2
HEADER
  9
$ACADVER
  1
AC1014
  9
$ACADMAINTVER
 70
     9
  9
$DWGCODEPAGE
  3
ANSI_1252
  9
$INSBASE
 10
421.0218958999721
 20
357.7769748938917
 30
0.0
  9
$EXTMIN
 10
10050.53693699716
 20
-2537.362751178102
 30
0.0
  9
$EXTMAX
 10
11140.26601308227
 20
-3.475351772167186
 30
0.0
  9
$LIMMIN
 10
9749.260046900117
 20
-1602.70564605534
  9
$LIMMAX
 10
11438.24325486453
 20
-732.5285748461251
  9
$ORTHOMODE
 70
     1
  9
$REGENMODE
 70
     1
  9
$FILLMODE
 70
     1
  9
$QTEXTMODE
 70
     0
  9
$MIRRTEXT
 70
     1
  9
$DRAGMODE
 70
     2
  9
$LTSCALE
 40
5.0
  9
$OSMODE
 70
     8
  9
$ATTMODE
 70
     1
  9
$TEXTSIZE
 40
40.0
  9
$TRACEWID
 40
1.0
  9
$TEXTSTYLE
  7
ROMANS8
  9
$CLAYER
  8
VLB
  9
$CELTYPE
  6
BYLAYER
  9
$CECOLOR
 62
   256
  9
$CELTSCALE
 40
1.0
  9
$DELOBJ
 70
     1
  9
$DISPSILH
 70
     0
  9
$DIMSCALE
 40
0.0
  9
$DIMASZ
 40
3.5
  9
$DIMEXO
 40
0.1
  9
$DIMDLI
 40
7.0
  9
$DIMRND
 40
0.0
  9
$DIMDLE
 40
0.0
  9
$DIMEXE
 40
1.8
  9
$DIMTP
 40
0.0
  9
$DIMTM
 40
0.0
  9
$DIMTXT
 40
3.5
  9
$DIMCEN
 40
0.0
  9
$DIMTSZ
 40
0.0
  9
$DIMTOL
 70
     0
  9
$DIMLIM
 70
     0
  9
$DIMTIH
 70
     0
  9
$DIMTOH
 70
     0
  9
$DIMSE1
 70
     0
  9
$DIMSE2
 70
     0
  9
$DIMTAD
 70
     1
  9
$DIMZIN
 70
     8
  9
$DIMBLK
  1

  9
$DIMASO
 70
     1
  9
$DIMSHO
 70
     0
  9
$DIMPOST
  1

  9
$DIMAPOST
  1

  9
$DIMALT
 70
     0
  9
$DIMALTD
 70
     2
  9
$DIMALTF
 40
25.4
  9
$DIMLFAC
 40
1.0
  9
$DIMTOFL
 70
     0
  9
$DIMTVP
 40
0.0
  9
$DIMTIX
 70
     0
  9
$DIMSOXD
 70
     0
  9
$DIMSAH
 70
     0
  9
$DIMBLK1
  1

  9
$DIMBLK2
  1

  9
$DIMSTYLE
  2
1_1
  9
$DIMCLRD
 70
   256
  9
$DIMCLRE
 70
   256
  9
$DIMCLRT
 70
   256
  9
$DIMTFAC
 40
1.0
  9
$DIMGAP
 40
1.7
  9
$DIMJUST
 70
     0
  9
$DIMSD1
 70
     0
  9
$DIMSD2
 70
     0
  9
$DIMTOLJ
 70
     1
  9
$DIMTZIN
 70
     8
  9
$DIMALTZ
 70
     0
  9
$DIMALTTZ
 70
     0
  9
$DIMFIT
 70
     3
  9
$DIMUPT
 70
     1
  9
$DIMUNIT
 70
     2
  9
$DIMDEC
 70
     4
  9
$DIMTDEC
 70
     4
  9
$DIMALTU
 70
     2
  9
$DIMALTTD
 70
     2
  9
$DIMTXSTY
  7
ROMANS
  9
$DIMAUNIT
 70
     0
  9
$LUNITS
 70
     2
  9
$LUPREC
 70
     2
  9
$SKETCHINC
 40
1.0
  9
$FILLETRAD
 40
0.0
  9
$AUNITS
 70
     0
  9
$AUPREC
 70
     2
  9
$MENU
  1
ACAD
  9
$ELEVATION
 40
0.0
  9
$PELEVATION
 40
0.0
  9
$THICKNESS
 40
0.0
  9
$LIMCHECK
 70
     0
  9
$BLIPMODE
 70
     0
  9
$CHAMFERA
 40
15.0
  9
$CHAMFERB
 40
15.0
  9
$CHAMFERC
 40
0.0
  9
$CHAMFERD
 40
0.0
  9
$SKPOLY
 70
     0
  9
$TDCREATE
 40
2453661.441286678
  9
$TDUPDATE
 40
2453679.605845521
  9
$TDINDWG
 40
0.0009935648
  9
$TDUSRTIMER
 40
0.0009926389
  9
$USRTIMER
 70
     1
  9
$ANGBASE
 50
0.0
  9
$ANGDIR
 70
     0
  9
$PDMODE
 70
     2
  9
$PDSIZE
 40
2.0
  9
$PLINEWID
 40
0.0
  9
$COORDS
 70
     0
  9
$SPLFRAME
 70
     0
  9
$SPLINETYPE
 70
     6
  9
$SPLINESEGS
 70
     8
  9
$ATTDIA
 70
     0
  9
$ATTREQ
 70
     1
  9
$HANDLING
 70
 22529
  9
$HANDSEED
  5
F410
  9
$SURFTAB1
 70
     6
  9
$SURFTAB2
 70
     6
  9
$SURFTYPE
 70
     6
  9
$SURFU
 70
     6
  9
$SURFV
 70
     6
  9
$UCSNAME
  2

  9
$UCSORG
 10
10154.57763192681
 20
-1347.460051185509
 30
0.0
  9
$UCSXDIR
 10
1.0
 20
0.0
 30
0.0
  9
$UCSYDIR
 10
0.0
 20
1.0
 30
0.0
  9
$PUCSNAME
  2

  9
$PUCSORG
 10
0.0
 20
0.0
 30
0.0
  9
$PUCSXDIR
 10
1.0
 20
0.0
 30
0.0
  9
$PUCSYDIR
 10
0.0
 20
1.0
 30
0.0
  9
$USERI1
 70
     0
  9
$USERI2
 70
     0
  9
$USERI3
 70
     0
  9
$USERI4
 70
     0
  9
$USERI5
 70
     0
  9
$USERR1
 40
0.0
  9
$USERR2
 40
0.0
  9
$USERR3
 40
0.0
  9
$USERR4
 40
0.0
  9
$USERR5
 40
0.0
  9
$WORLDVIEW
 70
     1
  9
$SHADEDGE
 70
     3
  9
$SHADEDIF
 70
    70
  9
$TILEMODE
 70
     1
  9
$MAXACTVP
 70
    16
  9
$PINSBASE
 10
0.0
 20
0.0
 30
0.0
  9
$PLIMCHECK
 70
     0
  9
$PEXTMIN
 10
-559.9955194189885
 20
-11.99914987354685
 30
0.0
  9
$PEXTMAX
 10
898.8167291158939
 20
692.004025362777
 30
5.0
  9
$PLIMMIN
 10
-581.4504078847034
 20
-42.42333302514301
  9
$PLIMMAX
 10
920.2716460794404
 20
1019.530090726515
  9
$UNITMODE
 70
     1
  9
$VISRETAIN
 70
     0
  9
$PLINEGEN
 70
     0
  9
$PSLTSCALE
 70
     0
  9
$TREEDEPTH
 70
  3020
  9
$PICKSTYLE
 70
     1
  9
$CMLSTYLE
  2
STANDARD
  9
$CMLJUST
 70
     0
  9
$CMLSCALE
 40
1.0
  9
$PROXYGRAPHICS
 70
     1
  9
$MEASUREMENT
 70
     1
  0
ENDSEC
  0
SECTION
  2
CLASSES
  0
CLASS
  1
IDBUFFER
  2
AcDbIdBuffer
  3
AutoCAD 2000
 90
        0
280
     0
281
     0
  0
CLASS
  1
LWPOLYLINE
  2
AcDbPolyline
  3
AutoCAD 2000
 90
        0
280
     0
281
     1
  0
CLASS
  1
DICTIONARYVAR
  2
AcDbDictionaryVar
  3
AutoCAD 2000
 90
        0
280
     0
281
     0
  0
CLASS
  1
HATCH
  2
AcDbHatch
  3
AutoCAD 2000
 90
        0
280
     0
281
     1
  0
CLASS
  1
ACDBDICTIONARYWDFLT
  2
AcDbDictionaryWithDefault
  3
AutoCAD 2000
 90
        0
280
     0
281
     0
  0
CLASS
  1
ACDBPLACEHOLDER
  2
AcDbPlaceHolder
  3
AutoCAD 2000
 90
        0
280
     0
281
     0
  0
CLASS
  1
LAYOUT
  2
AcDbLayout
  3
AutoCAD 2000
 90
        0
280
     0
281
     0
  0
CLASS
  1
LONG_TRANSACTION
  2
AcDbLongTransaction
  3
AutoCAD 2000
 90
        0
280
     0
281
     0
  0
CLASS
  1
LWPOLYLINE
  2
AcDbPolyline
  3
AutoCAD 2000
 90
        0
280
     0
281
     1
  0
CLASS
  1
HATCH
  2
AcDbHatch
  3
AutoCAD 2000
 90
        0
280
     0
281
     1
  0
CLASS
  1
XRECORD
  2
AcDbXrecord
  3
AutoCAD 2000
 90
        0
280
     0
281
     0
  0
ENDSEC
  0
SECTION
  2
TABLES
  0
TABLE
  2
VPORT
  5
12
330
0
100
AcDbSymbolTable
 70
     2
  0
VPORT
  5
F3EA
330
12
100
AcDbSymbolTableRecord
100
AcDbViewportTableRecord
  2
*ACTIVE
 70
     0
 10
0.0
 20
0.0
 11
1.0
 21
1.0
 12
11138.58183639979
 22
-1228.449179120868
 13
0.0
 23
0.0
 14
1.0
 24
1.0
 15
10.0
 25
10.0
 16
0.0
 26
0.0
 36
1.0
 17
0.0
 27
0.0
 37
0.0
 40
3559.060701682877
 41
1.751219512195122
 42
50.0
 43
0.0
 44
0.0
 50
0.0
 51
0.0
 71
     0
 72
     0
 73
     1
 74
     1
 75
     0
 76
     0
 77
     0
 78
     0
  0
ENDTAB
  0
TABLE
  2
LTYPE
  5
D
330
0
100
AcDbSymbolTable
 70
     3
  0
LTYPE
  5
E
330
D
100
AcDbSymbolTableRecord
100
AcDbLinetypeTableRecord
  2
BYBLOCK
 70
     0
  3

 72
    65
 73
     0
 40
0.0
  0
LTYPE
  5
F
330
D
100
AcDbSymbolTableRecord
100
AcDbLinetypeTableRecord
  2
BYLAYER
 70
     0
  3

 72
    65
 73
     0
 40
0.0
  0
LTYPE
  5
5
330
D
100
AcDbSymbolTableRecord
100
AcDbLinetypeTableRecord
  2
AUSGEZOGEN
 70
     0
  3
Ausgezogene Linie
 72
    65
 73
     0
 40
0.0
  0
LTYPE
  5
21
330
D
100
AcDbSymbolTableRecord
100
AcDbLinetypeTableRecord
  2
MLA3
 70
     0
  3
------ - -------
 72
    65
 73
     4
 40
15.0
 49
10.0
 74
     0
 49
-2.0
 74
     0
 49
1.0
 74
     0
 49
-2.0
 74
     0
  0
LTYPE
  5
540
330
D
100
AcDbSymbolTableRecord
100
AcDbLinetypeTableRecord
  2
CONTINUOUS
 70
     0
  3
Solid line
 72
    65
 73
     0
 40
0.0
  0
ENDTAB
  0
TABLE
  2
LAYER
  5
A
330
0
100
AcDbSymbolTable
 70
     5
  0
LAYER
  5
4
330
A
100
AcDbSymbolTableRecord
100
AcDbLayerTableRecord
  2
0
 70
     0
 62
     7
  6
AUSGEZOGEN
  0
LAYER
  5
1B
330
A
100
AcDbSymbolTableRecord
100
AcDbLayerTableRecord
  2
VLB
 70
     0
 62
     7
  6
AUSGEZOGEN
  0
LAYER
  5
20
330
A
100
AcDbSymbolTableRecord
100
AcDbLayerTableRecord
  2
SPS
 70
     0
 62
     1
  6
MLA3
  0
LAYER
  5
5B
330
A
100
AcDbSymbolTableRecord
100
AcDbLayerTableRecord
  2
VLS
 70
     0
 62
   252
  6
AUSGEZOGEN
  0
LAYER
  5
541
330
A
100
AcDbSymbolTableRecord
100
AcDbLayerTableRecord
  2
TSK
 70
     0
 62
   150
  6
AUSGEZOGEN
  0
ENDTAB
  0
TABLE
  2
STYLE
  5
B
330
0
100
AcDbSymbolTable
 70
     3
  0
STYLE
  5
C
330
B
100
AcDbSymbolTableRecord
100
AcDbTextStyleTableRecord
  2
STANDARD
 70
     0
 40
0.0
 41
1.0
 50
0.0
 71
     0
 42
3.0
  3
txt
  4

  0
STYLE
  5
1C
330
B
100
AcDbSymbolTableRecord
100
AcDbTextStyleTableRecord
  2
ROMANS
 70
     0
 40
0.0
 41
1.0
 50
0.0
 71
     0
 42
3.5
  3
romans.shx
  4

  0
STYLE
  5
1451
330
B
100
AcDbSymbolTableRecord
100
AcDbTextStyleTableRecord
  2
ROMANS8
 70
     0
 40
0.0
 41
1.0
 50
0.0
 71
     0
 42
40.0
  3
simplex.shx
  4

  0
ENDTAB
  0
TABLE
  2
VIEW
  5
10
330
0
100
AcDbSymbolTable
 70
     0
  0
ENDTAB
  0
TABLE
  2
UCS
  5
11
330
0
100
AcDbSymbolTable
 70
     0
  0
ENDTAB
  0
TABLE
  2
APPID
  5
14
330
0
100
AcDbSymbolTable
 70
     6
  0
APPID
  5
15
330
14
100
AcDbSymbolTableRecord
100
AcDbRegAppTableRecord
  2
ACAD
 70
     0
  0
APPID
  5
81B
330
14
100
AcDbSymbolTableRecord
100
AcDbRegAppTableRecord
  2
CONTENTTABDATA
 70
     0
  0
APPID
  5
81C
330
14
100
AcDbSymbolTableRecord
100
AcDbRegAppTableRecord
  2
CONTENTCURRENTTAB
 70
     0
  0
APPID
  5
9B6
330
14
100
AcDbSymbolTableRecord
100
AcDbRegAppTableRecord
  2
CONTENTBLOCKDESCRIPTION
 70
     0
  0
APPID
  5
B5D
330
14
100
AcDbSymbolTableRecord
100
AcDbRegAppTableRecord
  2
CONTENTBLOCKICON
 70
     0
  0
APPID
  5
1453
330
14
100
AcDbSymbolTableRecord
100
AcDbRegAppTableRecord
  2
AVE_RENDER
 70
     0
  0
ENDTAB
  0
TABLE
  2
DIMSTYLE
  5
16
330
0
100
AcDbSymbolTable
 70
     1
  0
DIMSTYLE
105
1AC9
330
16
100
AcDbSymbolTableRecord
100
AcDbDimStyleTableRecord
  2
1_1
 70
     0
  3

  4

  5

  6

  7

 40
0.0
 41
3.5
 42
0.1
 43
7.0
 44
1.8
 45
0.0
 46
0.0
 47
0.0
 48
0.0
140
3.5
141
0.0
142
0.0
143
25.4
144
1.0
145
0.0
146
1.0
147
1.7
 71
     0
 72
     0
 73
     0
 74
     0
 75
     0
 76
     0
 77
     1
 78
     8
170
     0
171
     2
172
     0
173
     0
174
     0
175
     0
176
   256
177
   256
178
   256
270
     2
271
     4
272
     4
273
     2
274
     2
340
1C
275
     0
280
     0
281
     0
282
     0
283
     1
284
     8
285
     0
286
     0
287
     3
288
     1
  0
ENDTAB
  0
TABLE
  2
BLOCK_RECORD
  5
1
330
0
100
AcDbSymbolTable
 70
     1
  0
BLOCK_RECORD
  5
2
102
{ACAD_XDICTIONARY
360
F40C
102
}
330
1
100
AcDbSymbolTableRecord
100
AcDbBlockTableRecord
  2
*MODEL_SPACE
  0
BLOCK_RECORD
  5
7
102
{ACAD_XDICTIONARY
360
F40E
102
}
330
1
100
AcDbSymbolTableRecord
100
AcDbBlockTableRecord
  2
*PAPER_SPACE
  0
ENDTAB
  0
ENDSEC
  0
SECTION
  2
BLOCKS
  0
BLOCK
  5
3
330
2
100
AcDbEntity
  8
0
100
AcDbBlockBegin
  2
*MODEL_SPACE
 70
     2
 10
0.0
 20
0.0
 30
0.0
  3
*MODEL_SPACE
  1

  0
ENDBLK
  5
6
330
2
100
AcDbEntity
  8
0
100
AcDbBlockEnd
  0
BLOCK
  5
8
330
7
100
AcDbEntity
 67
     1
  8
0
100
AcDbBlockBegin
  2
*PAPER_SPACE
 70
     2
 10
0.0
 20
0.0
 30
0.0
  3
*PAPER_SPACE
  1

  0
ENDBLK
  5
9
330
7
100
AcDbEntity
 67
     1
  8
0
100
AcDbBlockEnd
  0
ENDSEC
  0
SECTION
  2
ENTITIES
  0
LINE
  5
F0E5
330
2
100
AcDbEntity
  8
VLB
100
AcDbLine
 10
10970.76601308227
 20
-1084.718309758246
 30
0.0
 11
10995.5253048601
 21
-1367.718309758247
 31
0.0
  0
LINE
  5
F0E6
330
2
100
AcDbEntity
  8
SPS
100
AcDbLine
 10
10773.26601308227
 20
-1064.718309758247
 30
0.0
 11
10773.26601308227
 21
-1387.718309758247
 31
0.0
  0
LINE
  5
F0E7
330
2
100
AcDbEntity
  8
VLB
100
AcDbLine
 10
10575.76601308227
 20
-1084.718309758246
 30
0.0
 11
10551.00672130443
 21
-1367.718309758247
 31
0.0
  0
TEXT
  5
F0E8
330
2
100
AcDbEntity
  8
TSK
100
AcDbText
 10
10090.53693699717
 20
-1273.381281765608
 30
0.0
 40
40.0
  1
Baugr. 2528 & 2531  RFM 31
 50
90.0
  7
ROMANS8
100
AcDbText
  0
LINE
  5
F0E9
330
2
100
AcDbEntity
  8
VLB
100
AcDbLine
 10
10418.26601308228
 20
-1367.718309758247
 30
0.0
 11
11128.26601308227
 21
-1367.718309758247
 31
0.0
  0
LINE
  5
F0EA
330
2
100
AcDbEntity
  8
SPS
100
AcDbLine
 10
11109.22372322058
 20
-2005.362751178112
 30
0.0
 11
11087.82455765657
 21
-2005.362751178112
 31
0.0
  0
LINE
  5
F0EB
330
2
100
AcDbEntity
  8
SPS
100
AcDbLine
 10
11109.22372322056
 20
-2335.362751178112
 30
0.0
 11
11087.82455765656
 21
-2335.362751178112
 31
0.0
  0
LINE
  5
F0EC
330
2
100
AcDbEntity
  8
VLB
100
AcDbLine
 10
11134.26601308227
 20
-1809.362751178103
 30
0.0
 11
10773.26601308226
 21
-2170.362751178094
 31
0.0
  0
LINE
  5
F0ED
330
2
100
AcDbEntity
  8
VLB
100
AcDbLine
 10
11134.26601308227
 20
-2531.362751178102
 30
0.0
 11
10773.26601308226
 21
-2170.362751178096
 31
0.0
  0
LINE
  5
F0EE
330
2
100
AcDbEntity
  8
VLB
100
AcDbLine
 10
10412.26601308226
 20
-2531.362751178102
 30
0.0
 11
11134.26601308227
 21
-2531.362751178102
 31
0.0
  0
LINE
  5
F0EF
330
2
100
AcDbEntity
  8
SPS
100
AcDbLine
 10
10406.26601308227
 20
-2170.362751178101
 30
0.0
 11
11140.26601308227
 21
-2170.362751178101
 31
0.0
  0
LINE
  5
F0F0
330
2
100
AcDbEntity
  8
VLB
100
AcDbLine
 10
11134.26601308227
 20
-1809.362751178103
 30
0.0
 11
10412.26601308226
 21
-1809.362751178102
 31
0.0
  0
LINE
  5
F0F1
330
2
100
AcDbEntity
  8
VLB
100
AcDbLine
 10
10412.26601308226
 20
-1809.362751178102
 30
0.0
 11
10773.26601308226
 21
-2170.362751178105
 31
0.0
  0
LINE
  5
F0F2
330
2
100
AcDbEntity
  8
VLB
100
AcDbLine
 10
10412.26601308227
 20
-2531.362751178102
 30
0.0
 11
10773.26601308226
 21
-2170.362751178111
 31
0.0
  0
LINE
  5
F0F3
330
2
100
AcDbEntity
  8
VLB
100
AcDbLine
 10
10412.26601308226
 20
-1809.362751178102
 30
0.0
 11
10412.26601308226
 21
-2531.362751178102
 31
0.0
  0
LINE
  5
F0F4
330
2
100
AcDbEntity
  8
SPS
100
AcDbLine
 10
10427.72169201046
 20
-2512.064503910333
 30
0.0
 11
10414.06139825443
 21
-2512.064503910333
 31
0.0
  0
ELLIPSE
  5
F0F5
330
2
100
AcDbEntity
  8
VLB
100
AcDbEllipse
 10
10419.89154513248
 20
-2512.064503910333
 30
0.0
 11
-0.0000000000000084
 21
-5.0
 31
0.0
210
0.0
220
0.0
230
1.0
 40
0.8660254037843287
 41
0.0
 42
6.283185307179586
  0
ELLIPSE
  5
F0F6
330
2
100
AcDbEntity
  8
VLB
100
AcDbEllipse
 10
10420.89154513245
 20
-2512.064503910333
 30
0.0
 11
0.0000000000000084
 21
5.0
 31
0.0
210
0.0
220
0.0
230
1.0
 40
0.7660254037896266
 41
3.141592653589793
 42
6.283185307179586
  0
LINE
  5
F0F7
330
2
100
AcDbEntity
  8
SPS
100
AcDbLine
 10
10420.89154513245
 20
-2520.064503910333
 30
0.0
 11
10420.89154513245
 21
-2504.064503910333
 31
0.0
  0
LINE
  5
F0F8
330
2
100
AcDbEntity
  8
VLB
100
AcDbLine
 10
10419.89154513248
 20
-2517.064503910333
 30
0.0
 11
10420.89154513245
 21
-2517.064503910333
 31
0.0
  0
LINE
  5
F0F9
330
2
100
AcDbEntity
  8
VLB
100
AcDbLine
 10
10420.89154513245
 20
-2507.064503910333
 30
0.0
 11
10419.89154513248
 21
-2507.064503910333
 31
0.0
  0
ELLIPSE
  5
F0FA
330
2
100
AcDbEntity
  8
VLB
100
AcDbEllipse
 10
10419.39154513248
 20
-2512.064503910333
 30
0.0
 11
-0.0000000000000025
 21
-1.5
 31
0.0
210
0.0
220
0.0
230
1.0
 40
0.837082593832747
 41
0.0
 42
6.283185307179586
  0
HATCH
  5
F0FB
330
2
100
AcDbEntity
  8
VLB
100
AcDbHatch
 10
0.0
 20
0.0
 30
0.0
210
0.0
220
0.0
230
1.0
  2
SOLID
 70
     1
 71
     0
 91
        2
 92
        5
 93
        2
 72
     3
 10
10419.39154513248
 20
-2512.064503910333
 11
-0.0000000000000025
 21
-1.5
 40
0.837082593832747
 50
90.0
 51
270.0
 73
     1
 72
     1
 10
10418.13592124173
 20
-2512.064503910333
 11
10420.64716902323
 21
-2512.064503910333
 97
        0
 92
        5
 93
        2
 72
     3
 10
10419.39154513248
 20
-2512.064503910333
 11
-0.0000000000000025
 21
-1.5
 40
0.837082593832747
 50
270.0
 51
450.0
 73
     1
 72
     1
 10
10420.64716902323
 20
-2512.064503910333
 11
10418.13592124173
 21
-2512.064503910333
 97
        0
 75
     0
 76
     1
 47
0.0516579537025894
 98
        2
 10
10419.63349505772
 20
-2511.233298821575
 10
10419.68515306335
 20
-2512.525813106315
  0
LINE
  5
F0FC
330
2
100
AcDbEntity
  8
SPS
100
AcDbLine
 10
10494.32169201046
 20
-2445.464503910333
 30
0.0
 11
10480.66139825443
 21
-2445.464503910333
 31
0.0
  0
ELLIPSE
  5
F0FD
330
2
100
AcDbEntity
  8
VLB
100
AcDbEllipse
 10
10486.49154513248
 20
-2445.464503910333
 30
0.0
 11
-0.0000000000000084
 21
-5.0
 31
0.0
210
0.0
220
0.0
230
1.0
 40
0.8660254037843287
 41
0.0
 42
6.283185307179586
  0
ELLIPSE
  5
F0FE
330
2
100
AcDbEntity
  8
VLB
100
AcDbEllipse
 10
10487.49154513245
 20
-2445.464503910333
 30
0.0
 11
0.0000000000000084
 21
5.0
 31
0.0
210
0.0
220
0.0
230
1.0
 40
0.7660254037896266
 41
3.141592653589793
 42
6.283185307179586
  0
LINE
  5
F0FF
330
2
100
AcDbEntity
  8
SPS
100
AcDbLine
 10
10487.49154513245
 20
-2453.464503910333
 30
0.0
 11
10487.49154513245
 21
-2437.464503910333
 31
0.0
  0
LINE
  5
F100
330
2
100
AcDbEntity
  8
VLB
100
AcDbLine
 10
10486.49154513248
 20
-2450.464503910333
 30
0.0
 11
10487.49154513245
 21
-2450.464503910333
 31
0.0
  0
LINE
  5
F101
330
2
100
AcDbEntity
  8
VLB
100
AcDbLine
 10
10487.49154513245
 20
-2440.464503910332
 30
0.0
 11
10486.49154513248
 21
-2440.464503910332
 31
0.0
  0
ELLIPSE
  5
F102
330
2
100
AcDbEntity
  8
VLB
100
AcDbEllipse
 10
10485.99154513248
 20
-2445.464503910333
 30
0.0
 11
-0.0000000000000025
 21
-1.5
 31
0.0
210
0.0
220
0.0
230
1.0
 40
0.837082593832747
 41
0.0
 42
6.283185307179586
  0
HATCH
  5
F103
330
2
100
AcDbEntity
  8
VLB
100
AcDbHatch
 10
0.0
 20
0.0
 30
0.0
210
0.0
220
0.0
230
1.0
  2
SOLID
 70
     1
 71
     0
 91
        2
 92
        5
 93
        2
 72
     3
 10
10485.99154513248
 20
-2445.464503910333
 11
-0.0000000000000025
 21
-1.5
 40
0.837082593832747
 50
90.0
 51
270.0
 73
     1
 72
     1
 10
10484.73592124173
 20
-2445.464503910333
 11
10487.24716902323
 21
-2445.464503910333
 97
        0
 92
        5
 93
        2
 72
     3
 10
10485.99154513248
 20
-2445.464503910333
 11
-0.0000000000000025
 21
-1.5
 40
0.837082593832747
 50
270.0
 51
450.0
 73
     1
 72
     1
 10
10487.24716902323
 20
-2445.464503910333
 11
10484.73592124173
 21
-2445.464503910333
 97
        0
 75
     0
 76
     1
 47
0.0516579537025894
 98
        2
 10
10486.23349505772
 20
-2444.633298821575
 10
10486.28515306335
 20
-2445.925813106315
  0
LINE
  5
F104
330
2
100
AcDbEntity
  8
VLB
100
AcDbLine
 10
10450.3858271211
 20
-2329.589248486198
 30
0.0
 11
10446.60853959169
 21
-2329.589248486198
 31
0.0
  0
LINE
  5
F105
330
2
100
AcDbEntity
  8
VLB
100
AcDbLine
 10
10450.60177636729
 20
-2329.862751178094
 30
0.0
 11
10451.43208696154
 21
-2329.862751178094
 31
0.0
  0
ELLIPSE
  5
F106
330
2
100
AcDbEntity
  8
VLB
100
AcDbEllipse
 10
10446.30411091598
 20
-2335.362751178094
 30
0.0
 11
0.0000000000000024
 21
4.999999999999545
 31
0.0
210
0.0
220
0.0
230
1.0
 40
0.4484972699691251
 41
0.0
 42
6.283185307179586
  0
ARC
  5
F107
330
2
100
AcDbEntity
  8
VLB
100
AcDbCircle
 10
10460.92788043915
 20
-2335.362751178092
 30
0.0
 40
12.3812831733212
100
AcDbArc
 50
166.5171407809547
 51
193.4828592190325
  0
LINE
  5
F108
330
2
100
AcDbEntity
  8
VLB
100
AcDbLine
 10
10452.66511648674
 20
-2338.249502524042
 30
0.0
 11
10448.88782895734
 21
-2338.249502524042
 31
0.0
  0
LINE
  5
F109
330
2
100
AcDbEntity
  8
VLB
100
AcDbLine
 10
10452.66511648674
 20
-2332.475999832146
 30
0.0
 11
10448.88782895734
 21
-2332.475999832146
 31
0.0
  0
LINE
  5
F10A
330
2
100
AcDbEntity
  8
VLB
100
AcDbLine
 10
10452.66511648674
 20
-2332.475999832146
 30
0.0
 11
10452.66511648674
 21
-2338.249502524042
 31
0.0
  0
LINE
  5
F10B
330
2
100
AcDbEntity
  8
VLB
100
AcDbLine
 10
10450.3858271211
 20
-2341.136253869994
 30
0.0
 11
10446.60853959169
 21
-2341.136253869994
 31
0.0
  0
LINE
  5
F10C
330
2
100
AcDbEntity
  8
VLB
100
AcDbLine
 10
10450.3858271211
 20
-2341.136253869994
 30
0.0
 11
10452.66511648674
 21
-2338.249502524046
 31
0.0
  0
LINE
  5
F10D
330
2
100
AcDbEntity
  8
VLB
100
AcDbLine
 10
10451.43208696154
 20
-2340.862751178094
 30
0.0
 11
10450.60177636729
 21
-2340.862751178094
 31
0.0
  0
ARC
  5
F10E
330
2
100
AcDbEntity
  8
VLB
100
AcDbCircle
 10
10452.82500821381
 20
-2343.701380984179
 30
0.0
 40
6.724905890916827
100
AcDbArc
 50
125.8356601628762
 51
157.5772853193951
  0
LINE
  5
F10F
330
2
100
AcDbEntity
  8
VLB
100
AcDbLine
 10
10444.81758996983
 20
-2331.619165534688
 30
0.0
 11
10444.06162456614
 21
-2332.475999832146
 31
0.0
  0
LINE
  5
F110
330
2
100
AcDbEntity
  8
VLB
100
AcDbLine
 10
10444.81758996983
 20
-2339.106336821502
 30
0.0
 11
10444.06162456614
 21
-2338.249502524042
 31
0.0
  0
LINE
  5
F111
330
2
100
AcDbEntity
  8
VLB
100
AcDbLine
 10
10446.60853959169
 20
-2341.136253869994
 30
0.0
 11
10445.82365843721
 21
-2340.246645576675
 31
0.0
  0
LINE
  5
F112
330
2
100
AcDbEntity
  8
VLB
100
AcDbLine
 10
10444.06162456614
 20
-2338.249502524042
 30
0.0
 11
10444.06162456614
 21
-2332.475999832146
 31
0.0
  0
LINE
  5
F113
330
2
100
AcDbEntity
  8
SPS
100
AcDbLine
 10
10451.43208696154
 20
-2343.912224663331
 30
0.0
 11
10451.43208696154
 21
-2326.812751178095
 31
0.0
  0
ELLIPSE
  5
F114
330
2
100
AcDbEntity
  8
VLB
100
AcDbEllipse
 10
10451.43208696154
 20
-2335.362751178094
 30
0.0
 11
0.0000000000000027
 21
5.5
 31
0.0
210
0.0
220
0.0
230
1.0
 40
0.5018190223973679
 41
3.141592653589793
 42
6.283185307179586
  0
LINE
  5
F115
330
2
100
AcDbEntity
  8
VLB
100
AcDbLine
 10
10450.3858271211
 20
-2329.589248486198
 30
0.0
 11
10452.66511648674
 21
-2332.475999832148
 31
0.0
  0
ARC
  5
F116
330
2
100
AcDbEntity
  8
VLB
100
AcDbCircle
 10
10452.82500821381
 20
-2327.024121372009
 30
0.0
 40
6.724905890916827
100
AcDbArc
 50
202.4227146806048
 51
234.1643398371238
  0
ELLIPSE
  5
F117
330
2
100
AcDbEntity
  8
VLB
100
AcDbEllipse
 10
10450.46104099354
 20
-2335.362751178094
 30
0.0
 11
0.0000000000000027
 21
5.5
 31
0.0
210
0.0
220
0.0
230
1.0
 40
0.4708029923769408
 41
3.198708688530862
 42
6.226069272239205
  0
LINE
  5
F118
330
2
100
AcDbEntity
  8
VLB
100
AcDbLine
 10
10446.60853959169
 20
-2329.589248486198
 30
0.0
 11
10445.82365843721
 21
-2330.478856779513
 31
0.0
  0
LINE
  5
F119
330
2
100
AcDbEntity
  8
SPS
100
AcDbLine
 10
10437.30830294395
 20
-2335.362751178094
 30
0.0
 11
10458.70746850795
 21
-2335.362751178094
 31
0.0
  0
LINE
  5
F11A
330
2
100
AcDbEntity
  8
SPS
100
AcDbLine
 10
10513.29504321347
 20
-2373.362751178111
 30
0.0
 11
10513.29504321347
 21
-2357.362751178111
 31
0.0
  0
LINE
  5
F11B
330
2
100
AcDbEntity
  8
VLB
100
AcDbLine
 10
10512.29504321351
 20
-2370.362751178111
 30
0.0
 11
10513.29504321347
 21
-2370.362751178111
 31
0.0
  0
LINE
  5
F11C
330
2
100
AcDbEntity
  8
VLB
100
AcDbLine
 10
10513.29504321347
 20
-2360.362751178111
 30
0.0
 11
10512.29504321351
 21
-2360.362751178111
 31
0.0
  0
ELLIPSE
  5
F11D
330
2
100
AcDbEntity
  8
VLB
100
AcDbEllipse
 10
10511.79504321351
 20
-2365.362751178111
 30
0.0
 11
-0.0000000000000022
 21
-1.5
 31
0.0
210
0.0
220
0.0
230
1.0
 40
0.837082593832747
 41
0.0
 42
6.283185307179586
  0
HATCH
  5
F11E
330
2
100
AcDbEntity
  8
VLB
100
AcDbHatch
 10
0.0
 20
0.0
 30
0.0
210
0.0
220
0.0
230
1.0
  2
SOLID
 70
     1
 71
     0
 91
        2
 92
        5
 93
        2
 72
     3
 10
10511.79504321351
 20
-2365.362751178111
 11
-0.0000000000000022
 21
-1.5
 40
0.837082593832747
 50
90.0
 51
270.0
 73
     1
 72
     1
 10
10510.53941932276
 20
-2365.362751178111
 11
10513.05066710426
 21
-2365.362751178111
 97
        0
 92
        5
 93
        2
 72
     3
 10
10511.79504321351
 20
-2365.362751178111
 11
-0.0000000000000022
 21
-1.5
 40
0.837082593832747
 50
270.0
 51
450.0
 73
     1
 72
     1
 10
10513.05066710426
 20
-2365.362751178111
 11
10510.53941932275
 21
-2365.362751178111
 97
        0
 75
     0
 76
     1
 47
0.0516579537025894
 98
        2
 10
10512.03699313875
 20
-2364.531546089353
 10
10512.08865114438
 20
-2365.824060374092
  0
LINE
  5
F11F
330
2
100
AcDbEntity
  8
SPS
100
AcDbLine
 10
10520.12519009149
 20
-2365.362751178111
 30
0.0
 11
10506.46489633546
 21
-2365.362751178111
 31
0.0
  0
ELLIPSE
  5
F120
330
2
100
AcDbEntity
  8
VLB
100
AcDbEllipse
 10
10512.29504321351
 20
-2365.362751178111
 30
0.0
 11
-0.0000000000000073
 21
-5.0
 31
0.0
210
0.0
220
0.0
230
1.0
 40
0.8660254037843287
 41
0.0
 42
6.283185307179586
  0
ELLIPSE
  5
F121
330
2
100
AcDbEntity
  8
VLB
100
AcDbEllipse
 10
10513.29504321347
 20
-2365.362751178111
 30
0.0
 11
0.0000000000000073
 21
5.0
 31
0.0
210
0.0
220
0.0
230
1.0
 40
0.7660254037896266
 41
3.141592653589793
 42
6.283185307179586
  0
HATCH
  5
F122
330
2
100
AcDbEntity
  8
VLB
100
AcDbHatch
 10
0.0
 20
0.0
 30
0.0
210
0.0
220
0.0
230
1.0
  2
SOLID
 70
     1
 71
     0
 91
        2
 92
        5
 93
        2
 72
     3
 10
10511.79504321351
 20
-2170.362751178094
 11
-0.0000000000000022
 21
-1.5
 40
0.837082593832747
 50
90.0
 51
270.0
 73
     1
 72
     1
 10
10510.53941932276
 20
-2170.362751178094
 11
10513.05066710426
 21
-2170.362751178094
 97
        0
 92
        5
 93
        2
 72
     3
 10
10511.79504321351
 20
-2170.362751178094
 11
-0.0000000000000022
 21
-1.5
 40
0.837082593832747
 50
270.0
 51
450.0
 73
     1
 72
     1
 10
10513.05066710426
 20
-2170.362751178094
 11
10510.53941932275
 21
-2170.362751178094
 97
        0
 75
     0
 76
     1
 47
0.0516579537025894
 98
        2
 10
10512.03699313875
 20
-2169.531546089336
 10
10512.08865114438
 20
-2170.824060374076
  0
ELLIPSE
  5
F123
330
2
100
AcDbEntity
  8
VLB
100
AcDbEllipse
 10
10511.79504321351
 20
-2170.362751178094
 30
0.0
 11
-0.0000000000000022
 21
-1.5
 31
0.0
210
0.0
220
0.0
230
1.0
 40
0.837082593832747
 41
0.0
 42
6.283185307179586
  0
LINE
  5
F124
330
2
100
AcDbEntity
  8
VLB
100
AcDbLine
 10
10513.29504321347
 20
-2165.362751178094
 30
0.0
 11
10512.29504321351
 21
-2165.362751178094
 31
0.0
  0
LINE
  5
F125
330
2
100
AcDbEntity
  8
VLB
100
AcDbLine
 10
10512.29504321351
 20
-2175.362751178095
 30
0.0
 11
10513.29504321347
 21
-2175.362751178095
 31
0.0
  0
LINE
  5
F126
330
2
100
AcDbEntity
  8
SPS
100
AcDbLine
 10
10513.29504321347
 20
-2178.362751178094
 30
0.0
 11
10513.29504321347
 21
-2162.362751178094
 31
0.0
  0
ELLIPSE
  5
F127
330
2
100
AcDbEntity
  8
VLB
100
AcDbEllipse
 10
10513.29504321347
 20
-2170.362751178094
 30
0.0
 11
0.0000000000000073
 21
5.0
 31
0.0
210
0.0
220
0.0
230
1.0
 40
0.7660254037896266
 41
3.141592653589793
 42
6.283185307179586
  0
ELLIPSE
  5
F128
330
2
100
AcDbEntity
  8
VLB
100
AcDbEllipse
 10
10512.29504321351
 20
-2170.362751178094
 30
0.0
 11
-0.0000000000000073
 21
-5.0
 31
0.0
210
0.0
220
0.0
230
1.0
 40
0.8660254037843287
 41
0.0
 42
6.283185307179586
  0
LINE
  5
F129
330
2
100
AcDbEntity
  8
SPS
100
AcDbLine
 10
10520.12519009149
 20
-2170.362751178094
 30
0.0
 11
10506.46489633546
 21
-2170.362751178094
 31
0.0
  0
LINE
  5
F12A
330
2
100
AcDbEntity
  8
VLB
100
AcDbLine
 10
10444.81758996983
 20
-2009.106336821502
 30
0.0
 11
10444.06162456614
 21
-2008.249502524042
 31
0.0
  0
LINE
  5
F12B
330
2
100
AcDbEntity
  8
VLB
100
AcDbLine
 10
10444.81758996983
 20
-2001.619165534688
 30
0.0
 11
10444.06162456614
 21
-2002.475999832146
 31
0.0
  0
LINE
  5
F12C
330
2
100
AcDbEntity
  8
VLB
100
AcDbLine
 10
10446.60853959169
 20
-2011.136253869994
 30
0.0
 11
10445.82365843721
 21
-2010.246645576676
 31
0.0
  0
LINE
  5
F12D
330
2
100
AcDbEntity
  8
VLB
100
AcDbLine
 10
10446.60853959169
 20
-1999.589248486198
 30
0.0
 11
10445.82365843721
 21
-2000.478856779513
 31
0.0
  0
LINE
  5
F12E
330
2
100
AcDbEntity
  8
VLB
100
AcDbLine
 10
10444.06162456614
 20
-2008.249502524042
 30
0.0
 11
10444.06162456614
 21
-2002.475999832146
 31
0.0
  0
ARC
  5
F12F
330
2
100
AcDbEntity
  8
VLB
100
AcDbCircle
 10
10452.82500821381
 20
-2013.701380984179
 30
0.0
 40
6.724905890916827
100
AcDbArc
 50
125.8356601628762
 51
157.5772853193951
  0
ARC
  5
F130
330
2
100
AcDbEntity
  8
VLB
100
AcDbCircle
 10
10452.82500821381
 20
-1997.024121372009
 30
0.0
 40
6.724905890916827
100
AcDbArc
 50
202.4227146806048
 51
234.1643398371238
  0
LINE
  5
F131
330
2
100
AcDbEntity
  8
VLB
100
AcDbLine
 10
10450.3858271211
 20
-2011.136253869994
 30
0.0
 11
10452.66511648674
 21
-2008.249502524046
 31
0.0
  0
LINE
  5
F132
330
2
100
AcDbEntity
  8
VLB
100
AcDbLine
 10
10450.3858271211
 20
-2011.136253869994
 30
0.0
 11
10446.60853959169
 21
-2011.136253869994
 31
0.0
  0
LINE
  5
F133
330
2
100
AcDbEntity
  8
VLB
100
AcDbLine
 10
10452.66511648674
 20
-2002.475999832146
 30
0.0
 11
10452.66511648674
 21
-2008.249502524042
 31
0.0
  0
LINE
  5
F134
330
2
100
AcDbEntity
  8
VLB
100
AcDbLine
 10
10450.3858271211
 20
-1999.589248486198
 30
0.0
 11
10452.66511648674
 21
-2002.475999832148
 31
0.0
  0
LINE
  5
F135
330
2
100
AcDbEntity
  8
VLB
100
AcDbLine
 10
10450.3858271211
 20
-1999.589248486198
 30
0.0
 11
10446.60853959169
 21
-1999.589248486198
 31
0.0
  0
ARC
  5
F136
330
2
100
AcDbEntity
  8
VLB
100
AcDbCircle
 10
10460.92788043915
 20
-2005.362751178092
 30
0.0
 40
12.3812831733212
100
AcDbArc
 50
166.5171407809547
 51
193.4828592190325
  0
LINE
  5
F137
330
2
100
AcDbEntity
  8
VLB
100
AcDbLine
 10
10452.66511648674
 20
-2008.249502524042
 30
0.0
 11
10448.88782895734
 21
-2008.249502524042
 31
0.0
  0
LINE
  5
F138
330
2
100
AcDbEntity
  8
VLB
100
AcDbLine
 10
10452.66511648674
 20
-2002.475999832146
 30
0.0
 11
10448.88782895734
 21
-2002.475999832146
 31
0.0
  0
ELLIPSE
  5
F139
330
2
100
AcDbEntity
  8
VLB
100
AcDbEllipse
 10
10446.30411091598
 20
-2005.362751178094
 30
0.0
 11
0.0000000000000024
 21
4.999999999999545
 31
0.0
210
0.0
220
0.0
230
1.0
 40
0.4484972699691251
 41
0.0
 42
6.283185307179586
  0
LINE
  5
F13A
330
2
100
AcDbEntity
  8
VLB
100
AcDbLine
 10
10451.43208696154
 20
-2010.862751178094
 30
0.0
 11
10450.60177636729
 21
-2010.862751178094
 31
0.0
  0
ELLIPSE
  5
F13B
330
2
100
AcDbEntity
  8
VLB
100
AcDbEllipse
 10
10450.46104099354
 20
-2005.362751178094
 30
0.0
 11
0.0000000000000027
 21
5.5
 31
0.0
210
0.0
220
0.0
230
1.0
 40
0.4708029923769408
 41
3.198708688530862
 42
6.226069272239205
  0
ELLIPSE
  5
F13C
330
2
100
AcDbEntity
  8
VLB
100
AcDbEllipse
 10
10451.43208696154
 20
-2005.362751178094
 30
0.0
 11
0.0000000000000027
 21
5.5
 31
0.0
210
0.0
220
0.0
230
1.0
 40
0.5018190223973679
 41
3.141592653589793
 42
6.283185307179586
  0
LINE
  5
F13D
330
2
100
AcDbEntity
  8
VLB
100
AcDbLine
 10
10450.60177636729
 20
-1999.862751178094
 30
0.0
 11
10451.43208696154
 21
-1999.862751178094
 31
0.0
  0
LINE
  5
F13E
330
2
100
AcDbEntity
  8
SPS
100
AcDbLine
 10
10451.43208696154
 20
-2013.91222466333
 30
0.0
 11
10451.43208696154
 21
-1996.812751178095
 31
0.0
  0
LINE
  5
F13F
330
2
100
AcDbEntity
  8
SPS
100
AcDbLine
 10
10437.30830294395
 20
-2005.362751178094
 30
0.0
 11
10458.70746850795
 21
-2005.362751178094
 31
0.0
  0
HATCH
  5
F140
330
2
100
AcDbEntity
  8
VLB
100
AcDbHatch
 10
0.0
 20
0.0
 30
0.0
210
0.0
220
0.0
230
1.0
  2
SOLID
 70
     1
 71
     0
 91
        2
 92
        5
 93
        2
 72
     3
 10
10511.79504321351
 20
-1975.362751178111
 11
-0.0000000000000022
 21
-1.5
 40
0.837082593832747
 50
90.0
 51
270.0
 73
     1
 72
     1
 10
10510.53941932276
 20
-1975.362751178111
 11
10513.05066710426
 21
-1975.362751178111
 97
        0
 92
        5
 93
        2
 72
     3
 10
10511.79504321351
 20
-1975.362751178111
 11
-0.0000000000000022
 21
-1.5
 40
0.837082593832747
 50
270.0
 51
450.0
 73
     1
 72
     1
 10
10513.05066710426
 20
-1975.362751178111
 11
10510.53941932275
 21
-1975.362751178111
 97
        0
 75
     0
 76
     1
 47
0.0516579537025894
 98
        2
 10
10512.03699313875
 20
-1974.531546089353
 10
10512.08865114438
 20
-1975.824060374092
  0
ELLIPSE
  5
F141
330
2
100
AcDbEntity
  8
VLB
100
AcDbEllipse
 10
10511.79504321351
 20
-1975.362751178111
 30
0.0
 11
-0.0000000000000022
 21
-1.5
 31
0.0
210
0.0
220
0.0
230
1.0
 40
0.837082593832747
 41
0.0
 42
6.283185307179586
  0
LINE
  5
F142
330
2
100
AcDbEntity
  8
VLB
100
AcDbLine
 10
10513.29504321347
 20
-1970.362751178111
 30
0.0
 11
10512.29504321351
 21
-1970.362751178111
 31
0.0
  0
LINE
  5
F143
330
2
100
AcDbEntity
  8
VLB
100
AcDbLine
 10
10512.29504321351
 20
-1980.362751178111
 30
0.0
 11
10513.29504321347
 21
-1980.362751178111
 31
0.0
  0
LINE
  5
F144
330
2
100
AcDbEntity
  8
SPS
100
AcDbLine
 10
10513.29504321347
 20
-1983.362751178111
 30
0.0
 11
10513.29504321347
 21
-1967.362751178111
 31
0.0
  0
ELLIPSE
  5
F145
330
2
100
AcDbEntity
  8
VLB
100
AcDbEllipse
 10
10513.29504321347
 20
-1975.362751178111
 30
0.0
 11
0.0000000000000073
 21
5.0
 31
0.0
210
0.0
220
0.0
230
1.0
 40
0.7660254037896266
 41
3.141592653589793
 42
6.283185307179586
  0
ELLIPSE
  5
F146
330
2
100
AcDbEntity
  8
VLB
100
AcDbEllipse
 10
10512.29504321351
 20
-1975.362751178111
 30
0.0
 11
-0.0000000000000073
 21
-5.0
 31
0.0
210
0.0
220
0.0
230
1.0
 40
0.8660254037843287
 41
0.0
 42
6.283185307179586
  0
LINE
  5
F147
330
2
100
AcDbEntity
  8
SPS
100
AcDbLine
 10
10520.12519009149
 20
-1975.362751178111
 30
0.0
 11
10506.46489633546
 21
-1975.362751178111
 31
0.0
  0
LINE
  5
F148
330
2
100
AcDbEntity
  8
SPS
100
AcDbLine
 10
10498.16426035003
 20
-1891.418430106305
 30
0.0
 11
10498.16426035003
 21
-1877.758136350274
 31
0.0
  0
ELLIPSE
  5
F149
330
2
100
AcDbEntity
  8
VLB
100
AcDbEllipse
 10
10498.16426035003
 20
-1883.588283228319
 30
0.0
 11
-5.0
 21
0.0000000000000059
 31
0.0
210
0.0
220
0.0
230
1.0
 40
0.8660254037843287
 41
0.0
 42
6.283185307179586
  0
ELLIPSE
  5
F14A
330
2
100
AcDbEntity
  8
VLB
100
AcDbEllipse
 10
10498.16426035003
 20
-1884.588283228289
 30
0.0
 11
5.0
 21
-0.0000000000000059
 31
0.0
210
0.0
220
0.0
230
1.0
 40
0.7660254037896266
 41
3.141592653589793
 42
6.283185307179586
  0
LINE
  5
F14B
330
2
100
AcDbEntity
  8
SPS
100
AcDbLine
 10
10490.16426035003
 20
-1884.588283228289
 30
0.0
 11
10506.16426035003
 21
-1884.588283228289
 31
0.0
  0
LINE
  5
F14C
330
2
100
AcDbEntity
  8
VLB
100
AcDbLine
 10
10493.16426035003
 20
-1883.588283228319
 30
0.0
 11
10493.16426035003
 21
-1884.588283228289
 31
0.0
  0
LINE
  5
F14D
330
2
100
AcDbEntity
  8
VLB
100
AcDbLine
 10
10503.16426035003
 20
-1884.588283228289
 30
0.0
 11
10503.16426035003
 21
-1883.588283228319
 31
0.0
  0
ELLIPSE
  5
F14E
330
2
100
AcDbEntity
  8
VLB
100
AcDbEllipse
 10
10498.16426035003
 20
-1883.088283228319
 30
0.0
 11
-1.5
 21
0.0000000000000018
 31
0.0
210
0.0
220
0.0
230
1.0
 40
0.837082593832747
 41
0.0
 42
6.283185307179586
  0
HATCH
  5
F14F
330
2
100
AcDbEntity
  8
VLB
100
AcDbHatch
 10
0.0
 20
0.0
 30
0.0
210
0.0
220
0.0
230
1.0
  2
SOLID
 70
     1
 71
     0
 91
        2
 92
        5
 93
        2
 72
     3
 10
10498.16426035003
 20
-1883.088283228319
 11
-1.5
 21
0.0000000000000018
 40
0.837082593832747
 50
90.0
 51
270.0
 73
     1
 72
     1
 10
10498.16426035003
 20
-1881.83265933757
 11
10498.16426035003
 21
-1884.343907119068
 97
        0
 92
        5
 93
        2
 72
     3
 10
10498.16426035003
 20
-1883.088283228319
 11
-1.5
 21
0.0000000000000018
 40
0.837082593832747
 50
270.0
 51
450.0
 73
     1
 72
     1
 10
10498.16426035003
 20
-1884.343907119068
 11
10498.16426035003
 21
-1881.83265933757
 97
        0
 75
     0
 76
     1
 47
0.0516579537025894
 98
        2
 10
10498.99546543878
 20
-1883.330233153565
 10
10497.70295115405
 20
-1883.381891159194
  0
LINE
  5
F150
330
2
100
AcDbEntity
  8
SPS
100
AcDbLine
 10
10431.56426035003
 20
-1824.818430106305
 30
0.0
 11
10431.56426035003
 21
-1811.158136350274
 31
0.0
  0
ELLIPSE
  5
F151
330
2
100
AcDbEntity
  8
VLB
100
AcDbEllipse
 10
10431.56426035003
 20
-1816.988283228319
 30
0.0
 11
-5.0
 21
0.0000000000000059
 31
0.0
210
0.0
220
0.0
230
1.0
 40
0.8660254037843287
 41
0.0
 42
6.283185307179586
  0
ELLIPSE
  5
F152
330
2
100
AcDbEntity
  8
VLB
100
AcDbEllipse
 10
10431.56426035003
 20
-1817.988283228289
 30
0.0
 11
5.0
 21
-0.0000000000000059
 31
0.0
210
0.0
220
0.0
230
1.0
 40
0.7660254037896266
 41
3.141592653589793
 42
6.283185307179586
  0
LINE
  5
F153
330
2
100
AcDbEntity
  8
SPS
100
AcDbLine
 10
10423.56426035003
 20
-1817.988283228289
 30
0.0
 11
10439.56426035003
 21
-1817.988283228289
 31
0.0
  0
LINE
  5
F154
330
2
100
AcDbEntity
  8
VLB
100
AcDbLine
 10
10426.56426035003
 20
-1816.988283228319
 30
0.0
 11
10426.56426035003
 21
-1817.988283228289
 31
0.0
  0
LINE
  5
F155
330
2
100
AcDbEntity
  8
VLB
100
AcDbLine
 10
10436.56426035003
 20
-1817.988283228289
 30
0.0
 11
10436.56426035003
 21
-1816.988283228319
 31
0.0
  0
ELLIPSE
  5
F156
330
2
100
AcDbEntity
  8
VLB
100
AcDbEllipse
 10
10431.56426035003
 20
-1816.488283228318
 30
0.0
 11
-1.5
 21
0.0000000000000018
 31
0.0
210
0.0
220
0.0
230
1.0
 40
0.837082593832747
 41
0.0
 42
6.283185307179586
  0
HATCH
  5
F157
330
2
100
AcDbEntity
  8
VLB
100
AcDbHatch
 10
0.0
 20
0.0
 30
0.0
210
0.0
220
0.0
230
1.0
  2
SOLID
 70
     1
 71
     0
 91
        2
 92
        5
 93
        2
 72
     3
 10
10431.56426035003
 20
-1816.488283228318
 11
-1.5
 21
0.0000000000000018
 40
0.837082593832747
 50
90.0
 51
270.0
 73
     1
 72
     1
 10
10431.56426035003
 20
-1815.232659337569
 11
10431.56426035003
 21
-1817.743907119067
 97
        0
 92
        5
 93
        2
 72
     3
 10
10431.56426035003
 20
-1816.488283228318
 11
-1.5
 21
0.0000000000000018
 40
0.837082593832747
 50
270.0
 51
450.0
 73
     1
 72
     1
 10
10431.56426035003
 20
-1817.743907119067
 11
10431.56426035003
 21
-1815.232659337569
 97
        0
 75
     0
 76
     1
 47
0.0516579537025894
 98
        2
 10
10432.39546543878
 20
-1816.730233153565
 10
10431.10295115404
 20
-1816.781891159193
  0
LINE
  5
F158
330
2
100
AcDbEntity
  8
SPS
100
AcDbLine
 10
10773.26601308226
 20
-1803.362751178103
 30
0.0
 11
10773.26601308226
 21
-2537.362751178102
 31
0.0
  0
LINE
  5
F159
330
2
100
AcDbEntity
  8
VLB
100
AcDbLine
 10
10983.97733794766
 20
-2381.0740760435
 30
0.0
 11
10562.55468821687
 21
-2381.074076043498
 31
0.0
  0
LINE
  5
F15A
330
2
100
AcDbEntity
  8
VLB
100
AcDbLine
 10
10561.39998767848
 20
-2382.228776581884
 30
0.0
 11
10985.13203848605
 21
-2382.228776581884
 31
0.0
  0
LINE
  5
F15B
330
2
100
AcDbEntity
  8
VLB
100
AcDbLine
 10
10562.55468821687
 20
-1959.651426312703
 30
0.0
 11
10983.97733794766
 21
-1959.651426312705
 31
0.0
  0
LINE
  5
F15C
330
2
100
AcDbEntity
  8
VLB
100
AcDbLine
 10
10985.13203848605
 20
-1958.496725774321
 30
0.0
 11
10561.39998767848
 21
-1958.496725774319
 31
0.0
  0
LINE
  5
F15D
330
2
100
AcDbEntity
  8
VLB
100
AcDbLine
 10
10562.55468821687
 20
-2381.074076043498
 30
0.0
 11
10562.55468821687
 21
-1959.651426312703
 31
0.0
  0
LINE
  5
F15E
330
2
100
AcDbEntity
  8
VLB
100
AcDbLine
 10
10561.39998767848
 20
-1958.496725774319
 30
0.0
 11
10561.39998767848
 21
-2382.228776581884
 31
0.0
  0
ELLIPSE
  5
F15F
330
2
100
AcDbEntity
  8
VLB
100
AcDbEllipse
 10
10608.26601308225
 20
-2492.196677298824
 30
0.0
 11
-2.549999999999272
 21
0.0000000000000027
 31
0.0
210
0.0
220
0.0
230
-1.0
 40
0.5
 41
0.0
 42
6.283185307179586
  0
LINE
  5
F160
330
2
100
AcDbEntity
  8
SPS
100
AcDbLine
 10
10616.81548656749
 20
-2492.196677298824
 30
0.0
 11
10599.71601308225
 21
-2492.196677298824
 31
0.0
  0
HATCH
  5
F161
330
2
100
AcDbEntity
  8
VLB
100
AcDbHatch
 10
0.0
 20
0.0
 30
0.0
210
0.0
220
0.0
230
1.0
  2
SOLID
 70
     1
 71
     0
 91
        2
 92
        5
 93
        2
 72
     3
 10
10578.26601308227
 20
-2431.833721046855
 11
1.5
 21
-0.0000000000000026
 40
0.837082593832747
 50
90.0
 51
270.0
 73
     1
 72
     1
 10
10578.26601308227
 20
-2433.089344937604
 11
10578.26601308227
 21
-2430.578097156105
 97
        0
 92
        5
 93
        2
 72
     3
 10
10578.26601308227
 20
-2431.833721046855
 11
1.5
 21
-0.0000000000000026
 40
0.837082593832747
 50
270.0
 51
450.0
 73
     1
 72
     1
 10
10578.26601308227
 20
-2430.578097156105
 11
10578.26601308227
 21
-2433.089344937604
 97
        0
 75
     0
 76
     1
 47
0.0516579537025894
 98
        2
 10
10577.43480799351
 20
-2431.591771121608
 10
10578.72732227825
 20
-2431.54011311598
  0
ELLIPSE
  5
F162
330
2
100
AcDbEntity
  8
VLB
100
AcDbEllipse
 10
10578.26601308227
 20
-2431.833721046855
 30
0.0
 11
1.5
 21
-0.0000000000000026
 31
0.0
210
0.0
220
0.0
230
1.0
 40
0.837082593832747
 41
0.0
 42
6.283185307179586
  0
LINE
  5
F163
330
2
100
AcDbEntity
  8
VLB
100
AcDbLine
 10
10573.26601308227
 20
-2430.333721046884
 30
0.0
 11
10573.26601308227
 21
-2431.333721046855
 31
0.0
  0
LINE
  5
F164
330
2
100
AcDbEntity
  8
VLB
100
AcDbLine
 10
10583.26601308227
 20
-2431.333721046855
 30
0.0
 11
10583.26601308227
 21
-2430.333721046884
 31
0.0
  0
LINE
  5
F165
330
2
100
AcDbEntity
  8
SPS
100
AcDbLine
 10
10586.26601308227
 20
-2430.333721046884
 30
0.0
 11
10570.26601308227
 21
-2430.333721046884
 31
0.0
  0
ELLIPSE
  5
F166
330
2
100
AcDbEntity
  8
VLB
100
AcDbEllipse
 10
10578.26601308227
 20
-2430.333721046884
 30
0.0
 11
-5.0
 21
0.0000000000000087
 31
0.0
210
0.0
220
0.0
230
1.0
 40
0.7660254037896266
 41
3.141592653589793
 42
6.283185307179586
  0
ELLIPSE
  5
F167
330
2
100
AcDbEntity
  8
VLB
100
AcDbEllipse
 10
10578.26601308227
 20
-2431.333721046855
 30
0.0
 11
5.0
 21
-0.0000000000000087
 31
0.0
210
0.0
220
0.0
230
1.0
 40
0.8660254037843287
 41
0.0
 42
6.283185307179586
  0
LINE
  5
F168
330
2
100
AcDbEntity
  8
SPS
100
AcDbLine
 10
10578.26601308227
 20
-2423.503574168868
 30
0.0
 11
10578.26601308227
 21
-2437.163867924899
 31
0.0
  0
LINE
  5
F169
330
2
100
AcDbEntity
  8
SPS
100
AcDbLine
 10
10608.26601308225
 20
-2499.471758824844
 30
0.0
 11
10608.26601308225
 21
-2484.92129575241
 31
0.0
  0
HATCH
  5
F16A
330
2
100
AcDbEntity
  8
VLB
100
AcDbHatch
 10
0.0
 20
0.0
 30
0.0
210
0.0
220
0.0
230
1.0
  2
SOLID
 70
     1
 71
     0
 91
        2
 92
        5
 93
        2
 72
     3
 10
10552.59154513248
 20
-2378.864503910329
 11
-0.0000000000000025
 21
-1.5
 40
0.837082593832747
 50
90.0
 51
270.0
 73
     1
 72
     1
 10
10551.33592124173
 20
-2378.864503910329
 11
10553.84716902323
 21
-2378.864503910329
 97
        0
 92
        5
 93
        2
 72
     3
 10
10552.59154513248
 20
-2378.864503910329
 11
-0.0000000000000025
 21
-1.5
 40
0.837082593832747
 50
270.0
 51
450.0
 73
     1
 72
     1
 10
10553.84716902323
 20
-2378.864503910329
 11
10551.33592124173
 21
-2378.864503910329
 97
        0
 75
     0
 76
     1
 47
0.0516579537025894
 98
        2
 10
10552.83349505772
 20
-2378.033298821571
 10
10552.88515306335
 20
-2379.32581310631
  0
ELLIPSE
  5
F16B
330
2
100
AcDbEntity
  8
VLB
100
AcDbEllipse
 10
10552.59154513248
 20
-2378.864503910329
 30
0.0
 11
-0.0000000000000025
 21
-1.5
 31
0.0
210
0.0
220
0.0
230
1.0
 40
0.837082593832747
 41
0.0
 42
6.283185307179586
  0
LINE
  5
F16C
330
2
100
AcDbEntity
  8
VLB
100
AcDbLine
 10
10554.09154513245
 20
-2373.864503910329
 30
0.0
 11
10553.09154513248
 21
-2373.864503910329
 31
0.0
  0
LINE
  5
F16D
330
2
100
AcDbEntity
  8
VLB
100
AcDbLine
 10
10553.09154513248
 20
-2383.864503910329
 30
0.0
 11
10554.09154513245
 21
-2383.864503910329
 31
0.0
  0
LINE
  5
F16E
330
2
100
AcDbEntity
  8
SPS
100
AcDbLine
 10
10554.09154513245
 20
-2386.864503910329
 30
0.0
 11
10554.09154513245
 21
-2370.864503910329
 31
0.0
  0
ELLIPSE
  5
F16F
330
2
100
AcDbEntity
  8
VLB
100
AcDbEllipse
 10
10554.09154513245
 20
-2378.864503910329
 30
0.0
 11
0.0000000000000084
 21
5.0
 31
0.0
210
0.0
220
0.0
230
1.0
 40
0.7660254037896266
 41
3.141592653589793
 42
6.283185307179586
  0
ELLIPSE
  5
F170
330
2
100
AcDbEntity
  8
VLB
100
AcDbEllipse
 10
10553.09154513248
 20
-2378.864503910329
 30
0.0
 11
-0.0000000000000084
 21
-5.0
 31
0.0
210
0.0
220
0.0
230
1.0
 40
0.8660254037843287
 41
0.0
 42
6.283185307179586
  0
LINE
  5
F171
330
2
100
AcDbEntity
  8
SPS
100
AcDbLine
 10
10560.92169201046
 20
-2378.864503910329
 30
0.0
 11
10547.26139825443
 21
-2378.864503910329
 31
0.0
  0
HATCH
  5
F172
330
2
100
AcDbEntity
  8
VLB
100
AcDbHatch
 10
0.0
 20
0.0
 30
0.0
210
0.0
220
0.0
230
1.0
  2
SOLID
 70
     1
 71
     0
 91
        2
 92
        5
 93
        2
 72
     3
 10
10657.94124508651
 20
-2272.923223691338
 11
-0.0000000000000025
 21
-1.5
 40
0.837082593832747
 50
90.0
 51
270.0
 73
     1
 72
     1
 10
10656.68562119576
 20
-2272.923223691338
 11
10659.19686897725
 21
-2272.923223691338
 97
        0
 92
        5
 93
        2
 72
     3
 10
10657.94124508651
 20
-2272.923223691338
 11
-0.0000000000000025
 21
-1.5
 40
0.837082593832747
 50
270.0
 51
450.0
 73
     1
 72
     1
 10
10659.19686897725
 20
-2272.923223691338
 11
10656.68562119576
 21
-2272.923223691338
 97
        0
 75
     0
 76
     1
 47
0.0516579537025894
 98
        2
 10
10658.18319501175
 20
-2272.09201860258
 10
10658.23485301738
 20
-2273.384532887319
  0
ELLIPSE
  5
F173
330
2
100
AcDbEntity
  8
VLB
100
AcDbEllipse
 10
10657.94124508651
 20
-2272.923223691338
 30
0.0
 11
-0.0000000000000025
 21
-1.5
 31
0.0
210
0.0
220
0.0
230
1.0
 40
0.837082593832747
 41
0.0
 42
6.283185307179586
  0
LINE
  5
F174
330
2
100
AcDbEntity
  8
VLB
100
AcDbLine
 10
10659.44124508648
 20
-2267.923223691338
 30
0.0
 11
10658.4412450865
 21
-2267.923223691338
 31
0.0
  0
LINE
  5
F175
330
2
100
AcDbEntity
  8
VLB
100
AcDbLine
 10
10658.4412450865
 20
-2277.923223691338
 30
0.0
 11
10659.44124508648
 21
-2277.923223691338
 31
0.0
  0
LINE
  5
F176
330
2
100
AcDbEntity
  8
SPS
100
AcDbLine
 10
10659.44124508648
 20
-2280.923223691338
 30
0.0
 11
10659.44124508648
 21
-2264.923223691338
 31
0.0
  0
ELLIPSE
  5
F177
330
2
100
AcDbEntity
  8
VLB
100
AcDbEllipse
 10
10659.44124508648
 20
-2272.923223691338
 30
0.0
 11
0.0000000000000084
 21
5.0
 31
0.0
210
0.0
220
0.0
230
1.0
 40
0.7660254037896266
 41
3.141592653589793
 42
6.283185307179586
  0
ELLIPSE
  5
F178
330
2
100
AcDbEntity
  8
VLB
100
AcDbEllipse
 10
10658.4412450865
 20
-2272.923223691338
 30
0.0
 11
-0.0000000000000084
 21
-5.0
 31
0.0
210
0.0
220
0.0
230
1.0
 40
0.8660254037843287
 41
0.0
 42
6.283185307179586
  0
LINE
  5
F179
330
2
100
AcDbEntity
  8
SPS
100
AcDbLine
 10
10666.27139196449
 20
-2272.923223691338
 30
0.0
 11
10652.61109820846
 21
-2272.923223691338
 31
0.0
  0
HATCH
  5
F17A
330
2
100
AcDbEntity
  8
VLB
100
AcDbHatch
 10
0.0
 20
0.0
 30
0.0
210
0.0
220
0.0
230
1.0
  2
SOLID
 70
     1
 71
     0
 91
        2
 92
        5
 93
        2
 72
     3
 10
10773.26601308225
 20
-2431.833721046855
 11
1.5
 21
-0.0000000000000026
 40
0.837082593832747
 50
90.0
 51
270.0
 73
     1
 72
     1
 10
10773.26601308225
 20
-2433.089344937604
 11
10773.26601308225
 21
-2430.578097156105
 97
        0
 92
        5
 93
        2
 72
     3
 10
10773.26601308225
 20
-2431.833721046855
 11
1.5
 21
-0.0000000000000026
 40
0.837082593832747
 50
270.0
 51
450.0
 73
     1
 72
     1
 10
10773.26601308225
 20
-2430.578097156105
 11
10773.26601308225
 21
-2433.089344937604
 97
        0
 75
     0
 76
     1
 47
0.0516579537025894
 98
        2
 10
10772.43480799349
 20
-2431.591771121608
 10
10773.72732227823
 20
-2431.54011311598
  0
ELLIPSE
  5
F17B
330
2
100
AcDbEntity
  8
VLB
100
AcDbEllipse
 10
10773.26601308225
 20
-2431.833721046855
 30
0.0
 11
1.5
 21
-0.0000000000000026
 31
0.0
210
0.0
220
0.0
230
1.0
 40
0.837082593832747
 41
0.0
 42
6.283185307179586
  0
LINE
  5
F17C
330
2
100
AcDbEntity
  8
VLB
100
AcDbLine
 10
10768.26601308225
 20
-2430.333721046884
 30
0.0
 11
10768.26601308225
 21
-2431.333721046855
 31
0.0
  0
LINE
  5
F17D
330
2
100
AcDbEntity
  8
VLB
100
AcDbLine
 10
10778.26601308225
 20
-2431.333721046855
 30
0.0
 11
10778.26601308225
 21
-2430.333721046884
 31
0.0
  0
LINE
  5
F17E
330
2
100
AcDbEntity
  8
SPS
100
AcDbLine
 10
10781.26601308225
 20
-2430.333721046884
 30
0.0
 11
10765.26601308225
 21
-2430.333721046884
 31
0.0
  0
ELLIPSE
  5
F17F
330
2
100
AcDbEntity
  8
VLB
100
AcDbEllipse
 10
10773.26601308225
 20
-2430.333721046884
 30
0.0
 11
-5.0
 21
0.0000000000000087
 31
0.0
210
0.0
220
0.0
230
1.0
 40
0.7660254037896266
 41
3.141592653589793
 42
6.283185307179586
  0
ELLIPSE
  5
F180
330
2
100
AcDbEntity
  8
VLB
100
AcDbEllipse
 10
10773.26601308225
 20
-2431.333721046855
 30
0.0
 11
5.0
 21
-0.0000000000000087
 31
0.0
210
0.0
220
0.0
230
1.0
 40
0.8660254037843287
 41
0.0
 42
6.283185307179586
  0
LINE
  5
F181
330
2
100
AcDbEntity
  8
SPS
100
AcDbLine
 10
10773.26601308225
 20
-2423.503574168868
 30
0.0
 11
10773.26601308225
 21
-2437.163867924899
 31
0.0
  0
LINE
  5
F182
330
2
100
AcDbEntity
  8
SPS
100
AcDbLine
 10
10662.70554056902
 20
-2056.537983182317
 30
0.0
 11
10678.70554056902
 21
-2056.537983182317
 31
0.0
  0
HATCH
  5
F183
330
2
100
AcDbEntity
  8
VLB
100
AcDbHatch
 10
0.0
 20
0.0
 30
0.0
210
0.0
220
0.0
230
1.0
  2
SOLID
 70
     1
 71
     0
 91
        2
 92
        5
 93
        2
 72
     3
 10
10670.70554056902
 20
-2055.037983182347
 11
-1.5
 21
0.0000000000000018
 40
0.837082593832747
 50
90.0
 51
270.0
 73
     1
 72
     1
 10
10670.70554056902
 20
-2053.782359291598
 11
10670.70554056902
 21
-2056.293607073096
 97
        0
 92
        5
 93
        2
 72
     3
 10
10670.70554056902
 20
-2055.037983182347
 11
-1.5
 21
0.0000000000000018
 40
0.837082593832747
 50
270.0
 51
450.0
 73
     1
 72
     1
 10
10670.70554056902
 20
-2056.293607073096
 11
10670.70554056902
 21
-2053.782359291598
 97
        0
 75
     0
 76
     1
 47
0.0516579537025894
 98
        2
 10
10671.53674565778
 20
-2055.279933107593
 10
10670.24423137304
 20
-2055.331591113221
  0
ELLIPSE
  5
F184
330
2
100
AcDbEntity
  8
VLB
100
AcDbEllipse
 10
10670.70554056902
 20
-2055.037983182347
 30
0.0
 11
-1.5
 21
0.0000000000000018
 31
0.0
210
0.0
220
0.0
230
1.0
 40
0.837082593832747
 41
0.0
 42
6.283185307179586
  0
LINE
  5
F185
330
2
100
AcDbEntity
  8
VLB
100
AcDbLine
 10
10675.70554056902
 20
-2056.537983182317
 30
0.0
 11
10675.70554056902
 21
-2055.537983182346
 31
0.0
  0
LINE
  5
F186
330
2
100
AcDbEntity
  8
SPS
100
AcDbLine
 10
10670.70554056902
 20
-2063.368130060333
 30
0.0
 11
10670.70554056902
 21
-2049.707836304302
 31
0.0
  0
LINE
  5
F187
330
2
100
AcDbEntity
  8
VLB
100
AcDbLine
 10
10665.70554056902
 20
-2055.537983182346
 30
0.0
 11
10665.70554056902
 21
-2056.537983182317
 31
0.0
  0
ELLIPSE
  5
F188
330
2
100
AcDbEntity
  8
VLB
100
AcDbEllipse
 10
10670.70554056902
 20
-2056.537983182317
 30
0.0
 11
5.0
 21
-0.0000000000000059
 31
0.0
210
0.0
220
0.0
230
1.0
 40
0.7660254037896266
 41
3.141592653589793
 42
6.283185307179586
  0
ELLIPSE
  5
F189
330
2
100
AcDbEntity
  8
VLB
100
AcDbEllipse
 10
10670.70554056902
 20
-2055.537983182346
 30
0.0
 11
-5.0
 21
0.0000000000000059
 31
0.0
210
0.0
220
0.0
230
1.0
 40
0.8660254037843287
 41
0.0
 42
6.283185307179586
  0
ELLIPSE
  5
F18A
330
2
100
AcDbEntity
  8
VLB
100
AcDbEllipse
 10
10578.26601308225
 20
-1910.39178130932
 30
0.0
 11
5.0
 21
-0.0000000000000059
 31
0.0
210
0.0
220
0.0
230
1.0
 40
0.7660254037896266
 41
3.141592653589793
 42
6.283185307179586
  0
HATCH
  5
F18B
330
2
100
AcDbEntity
  8
VLB
100
AcDbHatch
 10
0.0
 20
0.0
 30
0.0
210
0.0
220
0.0
230
1.0
  2
SOLID
 70
     1
 71
     0
 91
        2
 92
        5
 93
        2
 72
     3
 10
10578.26601308225
 20
-1908.891781309349
 11
-1.5
 21
0.0000000000000018
 40
0.837082593832747
 50
90.0
 51
270.0
 73
     1
 72
     1
 10
10578.26601308225
 20
-1907.6361574186
 11
10578.26601308225
 21
-1910.147405200098
 97
        0
 92
        5
 93
        2
 72
     3
 10
10578.26601308225
 20
-1908.891781309349
 11
-1.5
 21
0.0000000000000018
 40
0.837082593832747
 50
270.0
 51
450.0
 73
     1
 72
     1
 10
10578.26601308225
 20
-1910.147405200098
 11
10578.26601308225
 21
-1907.6361574186
 97
        0
 75
     0
 76
     1
 47
0.0516579537025894
 98
        2
 10
10579.09721817101
 20
-1909.133731234595
 10
10577.80470388627
 20
-1909.185389240222
  0
ELLIPSE
  5
F18C
330
2
100
AcDbEntity
  8
VLB
100
AcDbEllipse
 10
10578.26601308225
 20
-1908.891781309349
 30
0.0
 11
-1.5
 21
0.0000000000000018
 31
0.0
210
0.0
220
0.0
230
1.0
 40
0.837082593832747
 41
0.0
 42
6.283185307179586
  0
LINE
  5
F18D
330
2
100
AcDbEntity
  8
VLB
100
AcDbLine
 10
10583.26601308225
 20
-1910.39178130932
 30
0.0
 11
10583.26601308225
 21
-1909.391781309349
 31
0.0
  0
LINE
  5
F18E
330
2
100
AcDbEntity
  8
VLB
100
AcDbLine
 10
10573.26601308225
 20
-1909.391781309349
 30
0.0
 11
10573.26601308225
 21
-1910.39178130932
 31
0.0
  0
LINE
  5
F18F
330
2
100
AcDbEntity
  8
SPS
100
AcDbLine
 10
10570.26601308225
 20
-1910.39178130932
 30
0.0
 11
10586.26601308225
 21
-1910.39178130932
 31
0.0
  0
ELLIPSE
  5
F190
330
2
100
AcDbEntity
  8
VLB
100
AcDbEllipse
 10
10578.26601308225
 20
-1909.391781309349
 30
0.0
 11
-5.0
 21
0.0000000000000059
 31
0.0
210
0.0
220
0.0
230
1.0
 40
0.8660254037843287
 41
0.0
 42
6.283185307179586
  0
LINE
  5
F191
330
2
100
AcDbEntity
  8
SPS
100
AcDbLine
 10
10578.26601308225
 20
-1917.221928187333
 30
0.0
 11
10578.26601308225
 21
-1903.561634431304
 31
0.0
  0
HATCH
  5
F192
330
2
100
AcDbEntity
  8
VLB
100
AcDbHatch
 10
0.0
 20
0.0
 30
0.0
210
0.0
220
0.0
230
1.0
  2
SOLID
 70
     1
 71
     0
 91
        2
 92
        5
 93
        2
 72
     3
 10
10564.76426035003
 20
-1949.688283228321
 11
-1.5
 21
0.0000000000000018
 40
0.837082593832747
 50
90.0
 51
270.0
 73
     1
 72
     1
 10
10564.76426035003
 20
-1948.432659337572
 11
10564.76426035003
 21
-1950.94390711907
 97
        0
 92
        5
 93
        2
 72
     3
 10
10564.76426035003
 20
-1949.688283228321
 11
-1.5
 21
0.0000000000000018
 40
0.837082593832747
 50
270.0
 51
450.0
 73
     1
 72
     1
 10
10564.76426035003
 20
-1950.94390711907
 11
10564.76426035003
 21
-1948.432659337572
 97
        0
 75
     0
 76
     1
 47
0.0516579537025894
 98
        2
 10
10565.59546543879
 20
-1949.930233153567
 10
10564.30295115405
 20
-1949.981891159196
  0
ELLIPSE
  5
F193
330
2
100
AcDbEntity
  8
VLB
100
AcDbEllipse
 10
10564.76426035003
 20
-1949.688283228321
 30
0.0
 11
-1.5
 21
0.0000000000000018
 31
0.0
210
0.0
220
0.0
230
1.0
 40
0.837082593832747
 41
0.0
 42
6.283185307179586
  0
LINE
  5
F194
330
2
100
AcDbEntity
  8
VLB
100
AcDbLine
 10
10569.76426035003
 20
-1951.188283228292
 30
0.0
 11
10569.76426035003
 21
-1950.188283228321
 31
0.0
  0
LINE
  5
F195
330
2
100
AcDbEntity
  8
VLB
100
AcDbLine
 10
10559.76426035003
 20
-1950.188283228321
 30
0.0
 11
10559.76426035003
 21
-1951.188283228292
 31
0.0
  0
LINE
  5
F196
330
2
100
AcDbEntity
  8
SPS
100
AcDbLine
 10
10556.76426035003
 20
-1951.188283228292
 30
0.0
 11
10572.76426035003
 21
-1951.188283228292
 31
0.0
  0
ELLIPSE
  5
F197
330
2
100
AcDbEntity
  8
VLB
100
AcDbEllipse
 10
10564.76426035003
 20
-1951.188283228292
 30
0.0
 11
5.0
 21
-0.0000000000000059
 31
0.0
210
0.0
220
0.0
230
1.0
 40
0.7660254037896266
 41
3.141592653589793
 42
6.283185307179586
  0
ELLIPSE
  5
F198
330
2
100
AcDbEntity
  8
VLB
100
AcDbEllipse
 10
10564.76426035003
 20
-1950.188283228321
 30
0.0
 11
-5.0
 21
0.0000000000000059
 31
0.0
210
0.0
220
0.0
230
1.0
 40
0.8660254037843287
 41
0.0
 42
6.283185307179586
  0
LINE
  5
F199
330
2
100
AcDbEntity
  8
SPS
100
AcDbLine
 10
10564.76426035003
 20
-1958.018430106307
 30
0.0
 11
10564.76426035003
 21
-1944.358136350277
 31
0.0
  0
LINE
  5
F19A
330
2
100
AcDbEntity
  8
SPS
100
AcDbLine
 10
10760.21184102637
 20
-2178.982774629458
 30
0.0
 11
10746.55154727034
 21
-2178.982774629458
 31
0.0
  0
ELLIPSE
  5
F19B
330
2
100
AcDbEntity
  8
VLB
100
AcDbEllipse
 10
10752.38169414838
 20
-2178.982774629458
 30
0.0
 11
-0.0000000000000084
 21
-5.0
 31
0.0
210
0.0
220
0.0
230
1.0
 40
0.8660254037843287
 41
0.0
 42
6.283185307179586
  0
ELLIPSE
  5
F19C
330
2
100
AcDbEntity
  8
VLB
100
AcDbEllipse
 10
10753.38169414835
 20
-2178.982774629458
 30
0.0
 11
0.0000000000000084
 21
5.0
 31
0.0
210
0.0
220
0.0
230
1.0
 40
0.7660254037896266
 41
3.141592653589793
 42
6.283185307179586
  0
LINE
  5
F19D
330
2
100
AcDbEntity
  8
SPS
100
AcDbLine
 10
10753.38169414835
 20
-2186.982774629458
 30
0.0
 11
10753.38169414835
 21
-2170.982774629458
 31
0.0
  0
LINE
  5
F19E
330
2
100
AcDbEntity
  8
VLB
100
AcDbLine
 10
10752.38169414838
 20
-2183.982774629458
 30
0.0
 11
10753.38169414835
 21
-2183.982774629458
 31
0.0
  0
LINE
  5
F19F
330
2
100
AcDbEntity
  8
VLB
100
AcDbLine
 10
10753.38169414835
 20
-2173.982774629458
 30
0.0
 11
10752.38169414838
 21
-2173.982774629458
 31
0.0
  0
ELLIPSE
  5
F1A0
330
2
100
AcDbEntity
  8
VLB
100
AcDbEllipse
 10
10751.88169414838
 20
-2178.982774629458
 30
0.0
 11
-0.0000000000000025
 21
-1.5
 31
0.0
210
0.0
220
0.0
230
1.0
 40
0.837082593832747
 41
0.0
 42
6.283185307179586
  0
HATCH
  5
F1A1
330
2
100
AcDbEntity
  8
VLB
100
AcDbHatch
 10
0.0
 20
0.0
 30
0.0
210
0.0
220
0.0
230
1.0
  2
SOLID
 70
     1
 71
     0
 91
        2
 92
        5
 93
        2
 72
     3
 10
10751.88169414838
 20
-2178.982774629458
 11
-0.0000000000000025
 21
-1.5
 40
0.837082593832747
 50
90.0
 51
270.0
 73
     1
 72
     1
 10
10750.62607025763
 20
-2178.982774629458
 11
10753.13731803913
 21
-2178.982774629458
 97
        0
 92
        5
 93
        2
 72
     3
 10
10751.88169414838
 20
-2178.982774629458
 11
-0.0000000000000025
 21
-1.5
 40
0.837082593832747
 50
270.0
 51
450.0
 73
     1
 72
     1
 10
10753.13731803913
 20
-2178.982774629458
 11
10750.62607025763
 21
-2178.982774629458
 97
        0
 75
     0
 76
     1
 47
0.0516579537025894
 98
        2
 10
10752.12364407363
 20
-2178.1515695407
 10
10752.17530207926
 20
-2179.44408382544
  0
LINE
  5
F1A2
330
2
100
AcDbEntity
  8
SPS
100
AcDbLine
 10
10764.6459896309
 20
-2157.308579122209
 30
0.0
 11
10764.6459896309
 21
-2143.648285366178
 31
0.0
  0
ELLIPSE
  5
F1A3
330
2
100
AcDbEntity
  8
VLB
100
AcDbEllipse
 10
10764.6459896309
 20
-2149.478432244223
 30
0.0
 11
-5.0
 21
0.0000000000000059
 31
0.0
210
0.0
220
0.0
230
1.0
 40
0.8660254037843287
 41
0.0
 42
6.283185307179586
  0
ELLIPSE
  5
F1A4
330
2
100
AcDbEntity
  8
VLB
100
AcDbEllipse
 10
10764.6459896309
 20
-2150.478432244194
 30
0.0
 11
5.0
 21
-0.0000000000000059
 31
0.0
210
0.0
220
0.0
230
1.0
 40
0.7660254037896266
 41
3.141592653589793
 42
6.283185307179586
  0
LINE
  5
F1A5
330
2
100
AcDbEntity
  8
SPS
100
AcDbLine
 10
10756.6459896309
 20
-2150.478432244194
 30
0.0
 11
10772.6459896309
 21
-2150.478432244194
 31
0.0
  0
LINE
  5
F1A6
330
2
100
AcDbEntity
  8
VLB
100
AcDbLine
 10
10759.6459896309
 20
-2149.478432244223
 30
0.0
 11
10759.6459896309
 21
-2150.478432244194
 31
0.0
  0
LINE
  5
F1A7
330
2
100
AcDbEntity
  8
VLB
100
AcDbLine
 10
10769.6459896309
 20
-2150.478432244194
 30
0.0
 11
10769.6459896309
 21
-2149.478432244223
 31
0.0
  0
ELLIPSE
  5
F1A8
330
2
100
AcDbEntity
  8
VLB
100
AcDbEllipse
 10
10764.6459896309
 20
-2148.978432244223
 30
0.0
 11
-1.5
 21
0.0000000000000018
 31
0.0
210
0.0
220
0.0
230
1.0
 40
0.837082593832747
 41
0.0
 42
6.283185307179586
  0
HATCH
  5
F1A9
330
2
100
AcDbEntity
  8
VLB
100
AcDbHatch
 10
0.0
 20
0.0
 30
0.0
210
0.0
220
0.0
230
1.0
  2
SOLID
 70
     1
 71
     0
 91
        2
 92
        5
 93
        2
 72
     3
 10
10764.6459896309
 20
-2148.978432244223
 11
-1.5
 21
0.0000000000000018
 40
0.837082593832747
 50
90.0
 51
270.0
 73
     1
 72
     1
 10
10764.6459896309
 20
-2147.722808353474
 11
10764.6459896309
 21
-2150.234056134972
 97
        0
 92
        5
 93
        2
 72
     3
 10
10764.6459896309
 20
-2148.978432244223
 11
-1.5
 21
0.0000000000000018
 40
0.837082593832747
 50
270.0
 51
450.0
 73
     1
 72
     1
 10
10764.6459896309
 20
-2150.234056134972
 11
10764.6459896309
 21
-2147.722808353474
 97
        0
 75
     0
 76
     1
 47
0.0516579537025894
 98
        2
 10
10765.47719471966
 20
-2149.220382169469
 10
10764.18468043492
 20
-2149.272040175098
  0
LINE
  5
F1AA
330
2
100
AcDbEntity
  8
SPS
100
AcDbLine
 10
10786.32018513815
 20
-2161.742727726745
 30
0.0
 11
10799.98047889418
 21
-2161.742727726745
 31
0.0
  0
ELLIPSE
  5
F1AB
330
2
100
AcDbEntity
  8
VLB
100
AcDbEllipse
 10
10794.15033201614
 20
-2161.742727726745
 30
0.0
 11
0.0000000000000045
 21
5.0
 31
0.0
210
0.0
220
0.0
230
1.0
 40
0.8660254037843287
 41
0.0
 42
6.283185307179586
  0
ELLIPSE
  5
F1AC
330
2
100
AcDbEntity
  8
VLB
100
AcDbEllipse
 10
10793.15033201617
 20
-2161.742727726745
 30
0.0
 11
-0.0000000000000045
 21
-5.0
 31
0.0
210
0.0
220
0.0
230
1.0
 40
0.7660254037896266
 41
3.141592653589793
 42
6.283185307179586
  0
LINE
  5
F1AD
330
2
100
AcDbEntity
  8
SPS
100
AcDbLine
 10
10793.15033201617
 20
-2153.742727726745
 30
0.0
 11
10793.15033201617
 21
-2169.742727726745
 31
0.0
  0
LINE
  5
F1AE
330
2
100
AcDbEntity
  8
VLB
100
AcDbLine
 10
10794.15033201614
 20
-2156.742727726745
 30
0.0
 11
10793.15033201617
 21
-2156.742727726745
 31
0.0
  0
LINE
  5
F1AF
330
2
100
AcDbEntity
  8
VLB
100
AcDbLine
 10
10793.15033201617
 20
-2166.742727726745
 30
0.0
 11
10794.15033201614
 21
-2166.742727726745
 31
0.0
  0
ELLIPSE
  5
F1B0
330
2
100
AcDbEntity
  8
VLB
100
AcDbEllipse
 10
10794.65033201614
 20
-2161.742727726745
 30
0.0
 11
0.0000000000000013
 21
1.5
 31
0.0
210
0.0
220
0.0
230
1.0
 40
0.837082593832747
 41
0.0
 42
6.283185307179586
  0
HATCH
  5
F1B1
330
2
100
AcDbEntity
  8
VLB
100
AcDbHatch
 10
0.0
 20
0.0
 30
0.0
210
0.0
220
0.0
230
1.0
  2
SOLID
 70
     1
 71
     0
 91
        2
 92
        5
 93
        2
 72
     3
 10
10794.65033201614
 20
-2161.742727726745
 11
0.0000000000000013
 21
1.5
 40
0.837082593832747
 50
90.0
 51
270.0
 73
     1
 72
     1
 10
10795.90595590689
 20
-2161.742727726745
 11
10793.39470812539
 21
-2161.742727726745
 97
        0
 92
        5
 93
        2
 72
     3
 10
10794.65033201614
 20
-2161.742727726745
 11
0.0000000000000013
 21
1.5
 40
0.837082593832747
 50
270.0
 51
450.0
 73
     1
 72
     1
 10
10793.39470812539
 20
-2161.742727726745
 11
10795.90595590689
 21
-2161.742727726745
 97
        0
 75
     0
 76
     1
 47
0.0516579537025894
 98
        2
 10
10794.40838209089
 20
-2162.573932815504
 10
10794.35672408526
 20
-2161.281418530764
  0
HATCH
  5
F1B2
330
2
100
AcDbEntity
  8
VLB
100
AcDbHatch
 10
0.0
 20
0.0
 30
0.0
210
0.0
220
0.0
230
1.0
  2
SOLID
 70
     1
 71
     0
 91
        2
 92
        5
 93
        2
 72
     3
 10
10781.88603653361
 20
-2191.747070111978
 11
1.5
 21
-0.0000000000000009
 40
0.837082593832747
 50
90.0
 51
270.0
 73
     1
 72
     1
 10
10781.88603653361
 20
-2193.002694002728
 11
10781.88603653361
 21
-2190.491446221229
 97
        0
 92
        5
 93
        2
 72
     3
 10
10781.88603653361
 20
-2191.747070111978
 11
1.5
 21
-0.0000000000000009
 40
0.837082593832747
 50
270.0
 51
450.0
 73
     1
 72
     1
 10
10781.88603653361
 20
-2190.491446221229
 11
10781.88603653361
 21
-2193.002694002728
 97
        0
 75
     0
 76
     1
 47
0.0516579537025894
 98
        2
 10
10781.05483144486
 20
-2191.505120186732
 10
10782.3473457296
 20
-2191.453462181105
  0
ELLIPSE
  5
F1B3
330
2
100
AcDbEntity
  8
VLB
100
AcDbEllipse
 10
10781.88603653361
 20
-2191.747070111978
 30
0.0
 11
1.5
 21
-0.0000000000000009
 31
0.0
210
0.0
220
0.0
230
1.0
 40
0.837082593832747
 41
0.0
 42
6.283185307179586
  0
LINE
  5
F1B4
330
2
100
AcDbEntity
  8
VLB
100
AcDbLine
 10
10776.88603653361
 20
-2190.247070112009
 30
0.0
 11
10776.88603653361
 21
-2191.24707011198
 31
0.0
  0
LINE
  5
F1B5
330
2
100
AcDbEntity
  8
VLB
100
AcDbLine
 10
10786.88603653361
 20
-2191.24707011198
 30
0.0
 11
10786.88603653361
 21
-2190.247070112009
 31
0.0
  0
LINE
  5
F1B6
330
2
100
AcDbEntity
  8
SPS
100
AcDbLine
 10
10789.88603653362
 20
-2190.247070112009
 30
0.0
 11
10773.88603653361
 21
-2190.247070112009
 31
0.0
  0
ELLIPSE
  5
F1B7
330
2
100
AcDbEntity
  8
VLB
100
AcDbEllipse
 10
10781.88603653361
 20
-2190.247070112009
 30
0.0
 11
-5.0
 21
0.0000000000000031
 31
0.0
210
0.0
220
0.0
230
1.0
 40
0.7660254037896266
 41
3.141592653589793
 42
6.283185307179586
  0
ELLIPSE
  5
F1B8
330
2
100
AcDbEntity
  8
VLB
100
AcDbEllipse
 10
10781.88603653361
 20
-2191.24707011198
 30
0.0
 11
5.0
 21
-0.0000000000000031
 31
0.0
210
0.0
220
0.0
230
1.0
 40
0.8660254037843287
 41
0.0
 42
6.283185307179586
  0
LINE
  5
F1B9
330
2
100
AcDbEntity
  8
SPS
100
AcDbLine
 10
10781.88603653361
 20
-2183.416923233994
 30
0.0
 11
10781.88603653361
 21
-2197.077216990023
 31
0.0
  0
LINE
  5
F1BA
330
2
100
AcDbEntity
  8
SPS
100
AcDbLine
 10
10765.26601308227
 20
-1910.39178130932
 30
0.0
 11
10781.26601308226
 21
-1910.39178130932
 31
0.0
  0
LINE
  5
F1BB
330
2
100
AcDbEntity
  8
VLB
100
AcDbLine
 10
10768.26601308227
 20
-1909.391781309349
 30
0.0
 11
10768.26601308227
 21
-1910.39178130932
 31
0.0
  0
LINE
  5
F1BC
330
2
100
AcDbEntity
  8
VLB
100
AcDbLine
 10
10778.26601308226
 20
-1910.39178130932
 30
0.0
 11
10778.26601308226
 21
-1909.391781309349
 31
0.0
  0
ELLIPSE
  5
F1BD
330
2
100
AcDbEntity
  8
VLB
100
AcDbEllipse
 10
10773.26601308226
 20
-1908.891781309349
 30
0.0
 11
-1.5
 21
0.0000000000000018
 31
0.0
210
0.0
220
0.0
230
1.0
 40
0.837082593832747
 41
0.0
 42
6.283185307179586
  0
HATCH
  5
F1BE
330
2
100
AcDbEntity
  8
VLB
100
AcDbHatch
 10
0.0
 20
0.0
 30
0.0
210
0.0
220
0.0
230
1.0
  2
SOLID
 70
     1
 71
     0
 91
        2
 92
        5
 93
        2
 72
     3
 10
10773.26601308226
 20
-1908.891781309349
 11
-1.5
 21
0.0000000000000018
 40
0.837082593832747
 50
90.0
 51
270.0
 73
     1
 72
     1
 10
10773.26601308226
 20
-1907.6361574186
 11
10773.26601308226
 21
-1910.147405200098
 97
        0
 92
        5
 93
        2
 72
     3
 10
10773.26601308226
 20
-1908.891781309349
 11
-1.5
 21
0.0000000000000018
 40
0.837082593832747
 50
270.0
 51
450.0
 73
     1
 72
     1
 10
10773.26601308226
 20
-1910.147405200098
 11
10773.26601308226
 21
-1907.6361574186
 97
        0
 75
     0
 76
     1
 47
0.0516579537025894
 98
        2
 10
10774.09721817102
 20
-1909.133731234595
 10
10772.80470388628
 20
-1909.185389240222
  0
LINE
  5
F1BF
330
2
100
AcDbEntity
  8
SPS
100
AcDbLine
 10
10773.26601308226
 20
-1917.221928187335
 30
0.0
 11
10773.26601308226
 21
-1903.561634431304
 31
0.0
  0
ELLIPSE
  5
F1C0
330
2
100
AcDbEntity
  8
VLB
100
AcDbEllipse
 10
10773.26601308226
 20
-1909.391781309349
 30
0.0
 11
-5.0
 21
0.0000000000000059
 31
0.0
210
0.0
220
0.0
230
1.0
 40
0.8660254037843287
 41
0.0
 42
6.283185307179586
  0
ELLIPSE
  5
F1C1
330
2
100
AcDbEntity
  8
VLB
100
AcDbEllipse
 10
10773.26601308226
 20
-1910.39178130932
 30
0.0
 11
5.0
 21
-0.0000000000000059
 31
0.0
210
0.0
220
0.0
230
1.0
 40
0.7660254037896266
 41
3.141592653589793
 42
6.283185307179586
  0
LINE
  5
F1C2
330
2
100
AcDbEntity
  8
VLB
100
AcDbLine
 10
10983.97733794766
 20
-1959.651426312705
 30
0.0
 11
10983.97733794766
 21
-2381.0740760435
 31
0.0
  0
LINE
  5
F1C3
330
2
100
AcDbEntity
  8
VLB
100
AcDbLine
 10
10985.13203848605
 20
-2382.228776581884
 30
0.0
 11
10985.13203848605
 21
-1958.496725774321
 31
0.0
  0
ELLIPSE
  5
F1C4
330
2
100
AcDbEntity
  8
VLB
100
AcDbEllipse
 10
10938.26601308225
 20
-2492.196677298824
 30
0.0
 11
2.549999999999272
 21
-0.0000000000000027
 31
0.0
210
0.0
220
0.0
230
1.0
 40
0.5
 41
0.0
 42
6.283185307179586
  0
LINE
  5
F1C5
330
2
100
AcDbEntity
  8
SPS
100
AcDbLine
 10
10938.26601308225
 20
-2499.471758824844
 30
0.0
 11
10938.26601308225
 21
-2484.92129575241
 31
0.0
  0
LINE
  5
F1C6
330
2
100
AcDbEntity
  8
SPS
100
AcDbLine
 10
10929.71653959701
 20
-2492.196677298824
 30
0.0
 11
10946.81601308225
 21
-2492.196677298824
 31
0.0
  0
LINE
  5
F1C7
330
2
100
AcDbEntity
  8
SPS
100
AcDbLine
 10
10883.82648559549
 20
-2284.187519173886
 30
0.0
 11
10867.82648559549
 21
-2284.187519173886
 31
0.0
  0
LINE
  5
F1C8
330
2
100
AcDbEntity
  8
SPS
100
AcDbLine
 10
10875.82648559549
 20
-2277.35737229587
 30
0.0
 11
10875.82648559549
 21
-2291.017666051899
 31
0.0
  0
LINE
  5
F1C9
330
2
100
AcDbEntity
  8
VLB
100
AcDbLine
 10
10880.82648559549
 20
-2285.187519173856
 30
0.0
 11
10880.82648559549
 21
-2284.187519173886
 31
0.0
  0
ELLIPSE
  5
F1CA
330
2
100
AcDbEntity
  8
VLB
100
AcDbEllipse
 10
10875.82648559549
 20
-2285.687519173854
 30
0.0
 11
1.5
 21
-0.0000000000000009
 31
0.0
210
0.0
220
0.0
230
1.0
 40
0.837082593832747
 41
0.0
 42
6.283185307179586
  0
HATCH
  5
F1CB
330
2
100
AcDbEntity
  8
VLB
100
AcDbHatch
 10
0.0
 20
0.0
 30
0.0
210
0.0
220
0.0
230
1.0
  2
SOLID
 70
     1
 71
     0
 91
        2
 92
        5
 93
        2
 72
     3
 10
10875.82648559549
 20
-2285.687519173854
 11
1.5
 21
-0.0000000000000009
 40
0.837082593832747
 50
90.0
 51
270.0
 73
     1
 72
     1
 10
10875.82648559549
 20
-2286.943143064604
 11
10875.82648559549
 21
-2284.431895283105
 97
        0
 92
        5
 93
        2
 72
     3
 10
10875.82648559549
 20
-2285.687519173854
 11
1.5
 21
-0.0000000000000009
 40
0.837082593832747
 50
270.0
 51
450.0
 73
     1
 72
     1
 10
10875.82648559549
 20
-2284.431895283105
 11
10875.82648559549
 21
-2286.943143064604
 97
        0
 75
     0
 76
     1
 47
0.0516579537025894
 98
        2
 10
10874.99528050674
 20
-2285.445569248608
 10
10876.28779479148
 20
-2285.393911242981
  0
LINE
  5
F1CC
330
2
100
AcDbEntity
  8
VLB
100
AcDbLine
 10
10870.82648559549
 20
-2284.187519173886
 30
0.0
 11
10870.82648559549
 21
-2285.187519173856
 31
0.0
  0
ELLIPSE
  5
F1CD
330
2
100
AcDbEntity
  8
VLB
100
AcDbEllipse
 10
10875.82648559549
 20
-2285.187519173856
 30
0.0
 11
5.0
 21
-0.0000000000000031
 31
0.0
210
0.0
220
0.0
230
1.0
 40
0.8660254037843287
 41
0.0
 42
6.283185307179586
  0
ELLIPSE
  5
F1CE
330
2
100
AcDbEntity
  8
VLB
100
AcDbEllipse
 10
10875.82648559549
 20
-2284.187519173886
 30
0.0
 11
-5.0
 21
0.0000000000000031
 31
0.0
210
0.0
220
0.0
230
1.0
 40
0.7660254037896266
 41
3.141592653589793
 42
6.283185307179586
  0
ELLIPSE
  5
F1CF
330
2
100
AcDbEntity
  8
VLB
100
AcDbEllipse
 10
10981.76776581448
 20
-2390.537219127882
 30
0.0
 11
5.0
 21
-0.0000000000000031
 31
0.0
210
0.0
220
0.0
230
1.0
 40
0.8660254037843287
 41
0.0
 42
6.283185307179586
  0
LINE
  5
F1D0
330
2
100
AcDbEntity
  8
VLB
100
AcDbLine
 10
10986.76776581448
 20
-2390.537219127882
 30
0.0
 11
10986.76776581448
 21
-2389.537219127911
 31
0.0
  0
LINE
  5
F1D1
330
2
100
AcDbEntity
  8
VLB
100
AcDbLine
 10
10976.76776581449
 20
-2389.537219127911
 30
0.0
 11
10976.76776581449
 21
-2390.537219127882
 31
0.0
  0
ELLIPSE
  5
F1D2
330
2
100
AcDbEntity
  8
VLB
100
AcDbEllipse
 10
10981.76776581448
 20
-2391.03721912788
 30
0.0
 11
1.5
 21
-0.0000000000000009
 31
0.0
210
0.0
220
0.0
230
1.0
 40
0.837082593832747
 41
0.0
 42
6.283185307179586
  0
LINE
  5
F1D3
330
2
100
AcDbEntity
  8
SPS
100
AcDbLine
 10
10981.76776581448
 20
-2382.707072249896
 30
0.0
 11
10981.76776581448
 21
-2396.367366005925
 31
0.0
  0
HATCH
  5
F1D4
330
2
100
AcDbEntity
  8
VLB
100
AcDbHatch
 10
0.0
 20
0.0
 30
0.0
210
0.0
220
0.0
230
1.0
  2
SOLID
 70
     1
 71
     0
 91
        2
 92
        5
 93
        2
 72
     3
 10
10981.76776581448
 20
-2391.03721912788
 11
1.5
 21
-0.0000000000000009
 40
0.837082593832747
 50
90.0
 51
270.0
 73
     1
 72
     1
 10
10981.76776581448
 20
-2392.292843018629
 11
10981.76776581448
 21
-2389.781595237131
 97
        0
 92
        5
 93
        2
 72
     3
 10
10981.76776581448
 20
-2391.03721912788
 11
1.5
 21
-0.0000000000000009
 40
0.837082593832747
 50
270.0
 51
450.0
 73
     1
 72
     1
 10
10981.76776581448
 20
-2389.781595237131
 11
10981.76776581448
 21
-2392.292843018629
 97
        0
 75
     0
 76
     1
 47
0.0516579537025894
 98
        2
 10
10980.93656072573
 20
-2390.795269202634
 10
10982.22907501047
 20
-2390.743611197007
  0
LINE
  5
F1D5
330
2
100
AcDbEntity
  8
SPS
100
AcDbLine
 10
10976.26601308227
 20
-2430.333721046884
 30
0.0
 11
10960.26601308227
 21
-2430.333721046884
 31
0.0
  0
LINE
  5
F1D6
330
2
100
AcDbEntity
  8
VLB
100
AcDbLine
 10
10973.26601308227
 20
-2431.333721046855
 30
0.0
 11
10973.26601308227
 21
-2430.333721046884
 31
0.0
  0
LINE
  5
F1D7
330
2
100
AcDbEntity
  8
VLB
100
AcDbLine
 10
10963.26601308227
 20
-2430.333721046884
 30
0.0
 11
10963.26601308227
 21
-2431.333721046855
 31
0.0
  0
ELLIPSE
  5
F1D8
330
2
100
AcDbEntity
  8
VLB
100
AcDbEllipse
 10
10968.26601308227
 20
-2431.833721046855
 30
0.0
 11
1.5
 21
-0.0000000000000026
 31
0.0
210
0.0
220
0.0
230
1.0
 40
0.837082593832747
 41
0.0
 42
6.283185307179586
  0
HATCH
  5
F1D9
330
2
100
AcDbEntity
  8
VLB
100
AcDbHatch
 10
0.0
 20
0.0
 30
0.0
210
0.0
220
0.0
230
1.0
  2
SOLID
 70
     1
 71
     0
 91
        2
 92
        5
 93
        2
 72
     3
 10
10968.26601308227
 20
-2431.833721046855
 11
1.5
 21
-0.0000000000000026
 40
0.837082593832747
 50
90.0
 51
270.0
 73
     1
 72
     1
 10
10968.26601308227
 20
-2433.089344937604
 11
10968.26601308227
 21
-2430.578097156105
 97
        0
 92
        5
 93
        2
 72
     3
 10
10968.26601308227
 20
-2431.833721046855
 11
1.5
 21
-0.0000000000000026
 40
0.837082593832747
 50
270.0
 51
450.0
 73
     1
 72
     1
 10
10968.26601308227
 20
-2430.578097156105
 11
10968.26601308227
 21
-2433.089344937604
 97
        0
 75
     0
 76
     1
 47
0.0516579537025894
 98
        2
 10
10967.43480799351
 20
-2431.591771121608
 10
10968.72732227825
 20
-2431.54011311598
  0
LINE
  5
F1DA
330
2
100
AcDbEntity
  8
SPS
100
AcDbLine
 10
10968.26601308227
 20
-2423.503574168868
 30
0.0
 11
10968.26601308227
 21
-2437.163867924899
 31
0.0
  0
ELLIPSE
  5
F1DB
330
2
100
AcDbEntity
  8
VLB
100
AcDbEllipse
 10
10968.26601308227
 20
-2431.333721046855
 30
0.0
 11
5.0
 21
-0.0000000000000087
 31
0.0
210
0.0
220
0.0
230
1.0
 40
0.8660254037843287
 41
0.0
 42
6.283185307179586
  0
ELLIPSE
  5
F1DC
330
2
100
AcDbEntity
  8
VLB
100
AcDbEllipse
 10
10968.26601308227
 20
-2430.333721046884
 30
0.0
 11
-5.0
 21
0.0000000000000087
 31
0.0
210
0.0
220
0.0
230
1.0
 40
0.7660254037896266
 41
3.141592653589793
 42
6.283185307179586
  0
HATCH
  5
F1DD
330
2
100
AcDbEntity
  8
VLB
100
AcDbHatch
 10
0.0
 20
0.0
 30
0.0
210
0.0
220
0.0
230
1.0
  2
SOLID
 70
     1
 71
     0
 91
        2
 92
        5
 93
        2
 72
     3
 10
11048.36776581449
 20
-2457.637219127883
 11
1.5
 21
-0.0000000000000009
 40
0.837082593832747
 50
90.0
 51
270.0
 73
     1
 72
     1
 10
11048.36776581449
 20
-2458.892843018632
 11
11048.36776581449
 21
-2456.381595237134
 97
        0
 92
        5
 93
        2
 72
     3
 10
11048.36776581449
 20
-2457.637219127883
 11
1.5
 21
-0.0000000000000009
 40
0.837082593832747
 50
270.0
 51
450.0
 73
     1
 72
     1
 10
11048.36776581449
 20
-2456.381595237134
 11
11048.36776581449
 21
-2458.892843018632
 97
        0
 75
     0
 76
     1
 47
0.0516579537025894
 98
        2
 10
11047.53656072573
 20
-2457.395269202636
 10
11048.82907501047
 20
-2457.34361119701
  0
ELLIPSE
  5
F1DE
330
2
100
AcDbEntity
  8
VLB
100
AcDbEllipse
 10
11048.36776581449
 20
-2457.637219127883
 30
0.0
 11
1.5
 21
-0.0000000000000009
 31
0.0
210
0.0
220
0.0
230
1.0
 40
0.837082593832747
 41
0.0
 42
6.283185307179586
  0
LINE
  5
F1DF
330
2
100
AcDbEntity
  8
VLB
100
AcDbLine
 10
11043.36776581449
 20
-2456.137219127914
 30
0.0
 11
11043.36776581449
 21
-2457.137219127885
 31
0.0
  0
LINE
  5
F1E0
330
2
100
AcDbEntity
  8
VLB
100
AcDbLine
 10
11053.36776581449
 20
-2457.137219127885
 30
0.0
 11
11053.36776581449
 21
-2456.137219127914
 31
0.0
  0
LINE
  5
F1E1
330
2
100
AcDbEntity
  8
SPS
100
AcDbLine
 10
11056.36776581449
 20
-2456.137219127914
 30
0.0
 11
11040.36776581449
 21
-2456.137219127914
 31
0.0
  0
ELLIPSE
  5
F1E2
330
2
100
AcDbEntity
  8
VLB
100
AcDbEllipse
 10
11048.36776581449
 20
-2456.137219127914
 30
0.0
 11
-5.0
 21
0.0000000000000031
 31
0.0
210
0.0
220
0.0
230
1.0
 40
0.7660254037896266
 41
3.141592653589793
 42
6.283185307179586
  0
ELLIPSE
  5
F1E3
330
2
100
AcDbEntity
  8
VLB
100
AcDbEllipse
 10
11048.36776581449
 20
-2457.137219127885
 30
0.0
 11
5.0
 21
-0.0000000000000031
 31
0.0
210
0.0
220
0.0
230
1.0
 40
0.8660254037843287
 41
0.0
 42
6.283185307179586
  0
LINE
  5
F1E4
330
2
100
AcDbEntity
  8
SPS
100
AcDbLine
 10
11048.36776581449
 20
-2449.307072249898
 30
0.0
 11
11048.36776581449
 21
-2462.967366005927
 31
0.0
  0
ELLIPSE
  5
F1E5
330
2
100
AcDbEntity
  8
VLB
100
AcDbEllipse
 10
10981.76776581448
 20
-2389.537219127911
 30
0.0
 11
-5.0
 21
0.0000000000000031
 31
0.0
210
0.0
220
0.0
230
1.0
 40
0.7660254037896266
 41
3.141592653589793
 42
6.283185307179586
  0
LINE
  5
F1E6
330
2
100
AcDbEntity
  8
SPS
100
AcDbLine
 10
10989.76776581449
 20
-2389.537219127911
 30
0.0
 11
10973.76776581449
 21
-2389.537219127911
 31
0.0
  0
HATCH
  5
F1E7
330
2
100
AcDbEntity
  8
VLB
100
AcDbHatch
 10
0.0
 20
0.0
 30
0.0
210
0.0
220
0.0
230
1.0
  2
SOLID
 70
     1
 71
     0
 91
        2
 92
        5
 93
        2
 72
     3
 10
11034.73698295101
 20
-2365.362751178092
 11
0.0000000000000034
 21
1.5
 40
0.837082593832747
 50
90.0
 51
270.0
 73
     1
 72
     1
 10
11035.99260684176
 20
-2365.362751178092
 11
11033.48135906026
 21
-2365.362751178092
 97
        0
 92
        5
 93
        2
 72
     3
 10
11034.73698295101
 20
-2365.362751178092
 11
0.0000000000000034
 21
1.5
 40
0.837082593832747
 50
270.0
 51
450.0
 73
     1
 72
     1
 10
11033.48135906026
 20
-2365.362751178092
 11
11035.99260684176
 21
-2365.362751178092
 97
        0
 75
     0
 76
     1
 47
0.0516579537025894
 98
        2
 10
11034.49503302576
 20
-2366.193956266851
 10
11034.44337502014
 20
-2364.901441982111
  0
ELLIPSE
  5
F1E8
330
2
100
AcDbEntity
  8
VLB
100
AcDbEllipse
 10
11034.73698295101
 20
-2365.362751178092
 30
0.0
 11
0.0000000000000034
 21
1.5
 31
0.0
210
0.0
220
0.0
230
1.0
 40
0.837082593832747
 41
0.0
 42
6.283185307179586
  0
LINE
  5
F1E9
330
2
100
AcDbEntity
  8
VLB
100
AcDbLine
 10
11033.23698295104
 20
-2370.362751178093
 30
0.0
 11
11034.23698295101
 21
-2370.362751178093
 31
0.0
  0
LINE
  5
F1EA
330
2
100
AcDbEntity
  8
VLB
100
AcDbLine
 10
11034.23698295101
 20
-2360.362751178092
 30
0.0
 11
11033.23698295104
 21
-2360.362751178092
 31
0.0
  0
LINE
  5
F1EB
330
2
100
AcDbEntity
  8
SPS
100
AcDbLine
 10
11033.23698295104
 20
-2357.362751178092
 30
0.0
 11
11033.23698295104
 21
-2373.362751178092
 31
0.0
  0
ELLIPSE
  5
F1EC
330
2
100
AcDbEntity
  8
VLB
100
AcDbEllipse
 10
11033.23698295104
 20
-2365.362751178092
 30
0.0
 11
-0.0000000000000113
 21
-5.0
 31
0.0
210
0.0
220
0.0
230
1.0
 40
0.7660254037896266
 41
3.141592653589793
 42
6.283185307179586
  0
ELLIPSE
  5
F1ED
330
2
100
AcDbEntity
  8
VLB
100
AcDbEllipse
 10
11034.23698295101
 20
-2365.362751178092
 30
0.0
 11
0.0000000000000113
 21
5.0
 31
0.0
210
0.0
220
0.0
230
1.0
 40
0.8660254037843287
 41
0.0
 42
6.283185307179586
  0
LINE
  5
F1EE
330
2
100
AcDbEntity
  8
SPS
100
AcDbLine
 10
11026.40683607303
 20
-2365.362751178092
 30
0.0
 11
11040.06712982906
 21
-2365.362751178092
 31
0.0
  0
ELLIPSE
  5
F1EF
330
2
100
AcDbEntity
  8
VLB
100
AcDbEllipse
 10
10887.09078107804
 20
-2067.802278664865
 30
0.0
 11
-0.0000000000000045
 21
-5.0
 31
0.0
210
0.0
220
0.0
230
1.0
 40
0.7660254037896266
 41
3.141592653589793
 42
6.283185307179586
  0
LINE
  5
F1F0
330
2
100
AcDbEntity
  8
SPS
100
AcDbLine
 10
10880.26063420003
 20
-2067.802278664865
 30
0.0
 11
10893.92092795606
 21
-2067.802278664865
 31
0.0
  0
HATCH
  5
F1F1
330
2
100
AcDbEntity
  8
VLB
100
AcDbHatch
 10
0.0
 20
0.0
 30
0.0
210
0.0
220
0.0
230
1.0
  2
SOLID
 70
     1
 71
     0
 91
        2
 92
        5
 93
        2
 72
     3
 10
10888.59078107801
 20
-2067.802278664865
 11
0.0000000000000013
 21
1.5
 40
0.837082593832747
 50
90.0
 51
270.0
 73
     1
 72
     1
 10
10889.84640496876
 20
-2067.802278664865
 11
10887.33515718726
 21
-2067.802278664865
 97
        0
 92
        5
 93
        2
 72
     3
 10
10888.59078107801
 20
-2067.802278664865
 11
0.0000000000000013
 21
1.5
 40
0.837082593832747
 50
270.0
 51
450.0
 73
     1
 72
     1
 10
10887.33515718726
 20
-2067.802278664865
 11
10889.84640496876
 21
-2067.802278664865
 97
        0
 75
     0
 76
     1
 47
0.0516579537025894
 98
        2
 10
10888.34883115277
 20
-2068.633483753623
 10
10888.29717314714
 20
-2067.340969468884
  0
ELLIPSE
  5
F1F2
330
2
100
AcDbEntity
  8
VLB
100
AcDbEllipse
 10
10888.59078107801
 20
-2067.802278664865
 30
0.0
 11
0.0000000000000013
 21
1.5
 31
0.0
210
0.0
220
0.0
230
1.0
 40
0.837082593832747
 41
0.0
 42
6.283185307179586
  0
LINE
  5
F1F3
330
2
100
AcDbEntity
  8
VLB
100
AcDbLine
 10
10887.09078107804
 20
-2072.802278664866
 30
0.0
 11
10888.09078107801
 21
-2072.802278664866
 31
0.0
  0
LINE
  5
F1F4
330
2
100
AcDbEntity
  8
VLB
100
AcDbLine
 10
10888.09078107801
 20
-2062.802278664865
 30
0.0
 11
10887.09078107804
 21
-2062.802278664865
 31
0.0
  0
LINE
  5
F1F5
330
2
100
AcDbEntity
  8
SPS
100
AcDbLine
 10
10887.09078107804
 20
-2059.802278664866
 30
0.0
 11
10887.09078107804
 21
-2075.802278664866
 31
0.0
  0
ELLIPSE
  5
F1F6
330
2
100
AcDbEntity
  8
VLB
100
AcDbEllipse
 10
10888.09078107801
 20
-2067.802278664865
 30
0.0
 11
0.0000000000000045
 21
5.0
 31
0.0
210
0.0
220
0.0
230
1.0
 40
0.8660254037843287
 41
0.0
 42
6.283185307179586
  0
HATCH
  5
F1F7
330
2
100
AcDbEntity
  8
VLB
100
AcDbHatch
 10
0.0
 20
0.0
 30
0.0
210
0.0
220
0.0
230
1.0
  2
SOLID
 70
     1
 71
     0
 91
        2
 92
        5
 93
        2
 72
     3
 10
11034.73698295101
 20
-2170.362751178109
 11
0.0000000000000034
 21
1.5
 40
0.837082593832747
 50
90.0
 51
270.0
 73
     1
 72
     1
 10
11035.99260684176
 20
-2170.362751178109
 11
11033.48135906026
 21
-2170.362751178109
 97
        0
 92
        5
 93
        2
 72
     3
 10
11034.73698295101
 20
-2170.362751178109
 11
0.0000000000000034
 21
1.5
 40
0.837082593832747
 50
270.0
 51
450.0
 73
     1
 72
     1
 10
11033.48135906026
 20
-2170.362751178109
 11
11035.99260684176
 21
-2170.362751178109
 97
        0
 75
     0
 76
     1
 47
0.0516579537025894
 98
        2
 10
11034.49503302577
 20
-2171.193956266867
 10
11034.44337502014
 20
-2169.901441982127
  0
ELLIPSE
  5
F1F8
330
2
100
AcDbEntity
  8
VLB
100
AcDbEllipse
 10
11034.73698295101
 20
-2170.362751178109
 30
0.0
 11
0.0000000000000034
 21
1.5
 31
0.0
210
0.0
220
0.0
230
1.0
 40
0.837082593832747
 41
0.0
 42
6.283185307179586
  0
LINE
  5
F1F9
330
2
100
AcDbEntity
  8
VLB
100
AcDbLine
 10
11033.23698295104
 20
-2175.362751178109
 30
0.0
 11
11034.23698295101
 21
-2175.362751178109
 31
0.0
  0
LINE
  5
F1FA
330
2
100
AcDbEntity
  8
VLB
100
AcDbLine
 10
11034.23698295101
 20
-2165.362751178109
 30
0.0
 11
11033.23698295104
 21
-2165.362751178109
 31
0.0
  0
LINE
  5
F1FB
330
2
100
AcDbEntity
  8
SPS
100
AcDbLine
 10
11033.23698295104
 20
-2162.362751178109
 30
0.0
 11
11033.23698295104
 21
-2178.362751178109
 31
0.0
  0
ELLIPSE
  5
F1FC
330
2
100
AcDbEntity
  8
VLB
100
AcDbEllipse
 10
11033.23698295104
 20
-2170.362751178109
 30
0.0
 11
-0.0000000000000113
 21
-5.0
 31
0.0
210
0.0
220
0.0
230
1.0
 40
0.7660254037896266
 41
3.141592653589793
 42
6.283185307179586
  0
ELLIPSE
  5
F1FD
330
2
100
AcDbEntity
  8
VLB
100
AcDbEllipse
 10
11034.23698295101
 20
-2170.362751178109
 30
0.0
 11
0.0000000000000113
 21
5.0
 31
0.0
210
0.0
220
0.0
230
1.0
 40
0.8660254037843287
 41
0.0
 42
6.283185307179586
  0
LINE
  5
F1FE
330
2
100
AcDbEntity
  8
SPS
100
AcDbLine
 10
11026.40683607303
 20
-2170.362751178109
 30
0.0
 11
11040.06712982906
 21
-2170.362751178109
 31
0.0
  0
LINE
  5
F1FF
330
2
100
AcDbEntity
  8
SPS
100
AcDbLine
 10
10992.44048103207
 20
-1953.860998445875
 30
0.0
 11
10992.44048103207
 21
-1969.860998445875
 31
0.0
  0
ELLIPSE
  5
F200
330
2
100
AcDbEntity
  8
VLB
100
AcDbEllipse
 10
10992.44048103207
 20
-1961.860998445875
 30
0.0
 11
-0.0000000000000045
 21
-5.0
 31
0.0
210
0.0
220
0.0
230
1.0
 40
0.7660254037896266
 41
3.141592653589793
 42
6.283185307179586
  0
ELLIPSE
  5
F201
330
2
100
AcDbEntity
  8
VLB
100
AcDbEllipse
 10
10993.44048103204
 20
-1961.860998445875
 30
0.0
 11
0.0000000000000045
 21
5.0
 31
0.0
210
0.0
220
0.0
230
1.0
 40
0.8660254037843287
 41
0.0
 42
6.283185307179586
  0
LINE
  5
F202
330
2
100
AcDbEntity
  8
VLB
100
AcDbLine
 10
10992.44048103207
 20
-1966.860998445875
 30
0.0
 11
10993.44048103204
 21
-1966.860998445875
 31
0.0
  0
LINE
  5
F203
330
2
100
AcDbEntity
  8
SPS
100
AcDbLine
 10
10960.26601308225
 20
-1910.39178130932
 30
0.0
 11
10976.26601308225
 21
-1910.39178130932
 31
0.0
  0
LINE
  5
F204
330
2
100
AcDbEntity
  8
VLB
100
AcDbLine
 10
10963.26601308225
 20
-1909.391781309349
 30
0.0
 11
10963.26601308225
 21
-1910.39178130932
 31
0.0
  0
LINE
  5
F205
330
2
100
AcDbEntity
  8
VLB
100
AcDbLine
 10
10973.26601308225
 20
-1910.39178130932
 30
0.0
 11
10973.26601308225
 21
-1909.391781309349
 31
0.0
  0
ELLIPSE
  5
F206
330
2
100
AcDbEntity
  8
VLB
100
AcDbEllipse
 10
10968.26601308225
 20
-1908.891781309349
 30
0.0
 11
-1.5
 21
0.0000000000000018
 31
0.0
210
0.0
220
0.0
230
1.0
 40
0.837082593832747
 41
0.0
 42
6.283185307179586
  0
HATCH
  5
F207
330
2
100
AcDbEntity
  8
VLB
100
AcDbHatch
 10
0.0
 20
0.0
 30
0.0
210
0.0
220
0.0
230
1.0
  2
SOLID
 70
     1
 71
     0
 91
        2
 92
        5
 93
        2
 72
     3
 10
10968.26601308225
 20
-1908.891781309349
 11
-1.5
 21
0.0000000000000018
 40
0.837082593832747
 50
90.0
 51
270.0
 73
     1
 72
     1
 10
10968.26601308225
 20
-1907.6361574186
 11
10968.26601308225
 21
-1910.147405200098
 97
        0
 92
        5
 93
        2
 72
     3
 10
10968.26601308225
 20
-1908.891781309349
 11
-1.5
 21
0.0000000000000018
 40
0.837082593832747
 50
270.0
 51
450.0
 73
     1
 72
     1
 10
10968.26601308225
 20
-1910.147405200098
 11
10968.26601308225
 21
-1907.6361574186
 97
        0
 75
     0
 76
     1
 47
0.0516579537025894
 98
        2
 10
10969.09721817101
 20
-1909.133731234595
 10
10967.80470388627
 20
-1909.185389240222
  0
LINE
  5
F208
330
2
100
AcDbEntity
  8
SPS
100
AcDbLine
 10
10968.26601308225
 20
-1917.221928187335
 30
0.0
 11
10968.26601308225
 21
-1903.561634431304
 31
0.0
  0
ELLIPSE
  5
F209
330
2
100
AcDbEntity
  8
VLB
100
AcDbEllipse
 10
10968.26601308225
 20
-1909.391781309349
 30
0.0
 11
-5.0
 21
0.0000000000000059
 31
0.0
210
0.0
220
0.0
230
1.0
 40
0.8660254037843287
 41
0.0
 42
6.283185307179586
  0
ELLIPSE
  5
F20A
330
2
100
AcDbEntity
  8
VLB
100
AcDbEllipse
 10
10968.26601308225
 20
-1910.39178130932
 30
0.0
 11
5.0
 21
-0.0000000000000059
 31
0.0
210
0.0
220
0.0
230
1.0
 40
0.7660254037896266
 41
3.141592653589793
 42
6.283185307179586
  0
HATCH
  5
F20B
330
2
100
AcDbEntity
  8
VLB
100
AcDbHatch
 10
0.0
 20
0.0
 30
0.0
210
0.0
220
0.0
230
1.0
  2
SOLID
 70
     1
 71
     0
 91
        2
 92
        5
 93
        2
 72
     3
 10
10993.94048103204
 20
-1961.860998445875
 11
0.0000000000000013
 21
1.5
 40
0.837082593832747
 50
90.0
 51
270.0
 73
     1
 72
     1
 10
10995.19610492279
 20
-1961.860998445875
 11
10992.68485714129
 21
-1961.860998445875
 97
        0
 92
        5
 93
        2
 72
     3
 10
10993.94048103204
 20
-1961.860998445875
 11
0.0000000000000013
 21
1.5
 40
0.837082593832747
 50
270.0
 51
450.0
 73
     1
 72
     1
 10
10992.68485714129
 20
-1961.860998445875
 11
10995.19610492279
 21
-1961.860998445875
 97
        0
 75
     0
 76
     1
 47
0.0516579537025894
 98
        2
 10
10993.69853110679
 20
-1962.692203534633
 10
10993.64687310117
 20
-1961.399689249893
  0
ELLIPSE
  5
F20C
330
2
100
AcDbEntity
  8
VLB
100
AcDbEllipse
 10
10993.94048103204
 20
-1961.860998445875
 30
0.0
 11
0.0000000000000013
 21
1.5
 31
0.0
210
0.0
220
0.0
230
1.0
 40
0.837082593832747
 41
0.0
 42
6.283185307179586
  0
LINE
  5
F20D
330
2
100
AcDbEntity
  8
VLB
100
AcDbLine
 10
10993.44048103204
 20
-1956.860998445875
 30
0.0
 11
10992.44048103207
 21
-1956.860998445875
 31
0.0
  0
LINE
  5
F20E
330
2
100
AcDbEntity
  8
SPS
100
AcDbLine
 10
10985.61033415405
 20
-1961.860998445875
 30
0.0
 11
10999.27062791008
 21
-1961.860998445875
 31
0.0
  0
LINE
  5
F20F
330
2
100
AcDbEntity
  8
SPS
100
AcDbLine
 10
11033.23698295104
 20
-1967.362751178092
 30
0.0
 11
11033.23698295104
 21
-1983.362751178092
 31
0.0
  0
LINE
  5
F210
330
2
100
AcDbEntity
  8
VLB
100
AcDbLine
 10
11034.23698295101
 20
-1970.362751178092
 30
0.0
 11
11033.23698295104
 21
-1970.362751178092
 31
0.0
  0
LINE
  5
F211
330
2
100
AcDbEntity
  8
VLB
100
AcDbLine
 10
11033.23698295104
 20
-1980.362751178092
 30
0.0
 11
11034.23698295101
 21
-1980.362751178092
 31
0.0
  0
ELLIPSE
  5
F212
330
2
100
AcDbEntity
  8
VLB
100
AcDbEllipse
 10
11034.73698295101
 20
-1975.362751178093
 30
0.0
 11
0.0000000000000034
 21
1.5
 31
0.0
210
0.0
220
0.0
230
1.0
 40
0.837082593832747
 41
0.0
 42
6.283185307179586
  0
HATCH
  5
F213
330
2
100
AcDbEntity
  8
VLB
100
AcDbHatch
 10
0.0
 20
0.0
 30
0.0
210
0.0
220
0.0
230
1.0
  2
SOLID
 70
     1
 71
     0
 91
        2
 92
        5
 93
        2
 72
     3
 10
11034.73698295101
 20
-1975.362751178093
 11
0.0000000000000034
 21
1.5
 40
0.837082593832747
 50
90.0
 51
270.0
 73
     1
 72
     1
 10
11035.99260684176
 20
-1975.362751178093
 11
11033.48135906026
 21
-1975.362751178093
 97
        0
 92
        5
 93
        2
 72
     3
 10
11034.73698295101
 20
-1975.362751178093
 11
0.0000000000000034
 21
1.5
 40
0.837082593832747
 50
270.0
 51
450.0
 73
     1
 72
     1
 10
11033.48135906026
 20
-1975.362751178093
 11
11035.99260684176
 21
-1975.362751178093
 97
        0
 75
     0
 76
     1
 47
0.0516579537025894
 98
        2
 10
11034.49503302577
 20
-1976.19395626685
 10
11034.44337502014
 20
-1974.901441982111
  0
LINE
  5
F214
330
2
100
AcDbEntity
  8
SPS
100
AcDbLine
 10
11026.40683607303
 20
-1975.362751178093
 30
0.0
 11
11040.06712982906
 21
-1975.362751178093
 31
0.0
  0
ELLIPSE
  5
F215
330
2
100
AcDbEntity
  8
VLB
100
AcDbEllipse
 10
11034.23698295101
 20
-1975.362751178093
 30
0.0
 11
0.0000000000000113
 21
5.0
 31
0.0
210
0.0
220
0.0
230
1.0
 40
0.8660254037843287
 41
0.0
 42
6.283185307179586
  0
ELLIPSE
  5
F216
330
2
100
AcDbEntity
  8
VLB
100
AcDbEllipse
 10
11033.23698295104
 20
-1975.362751178093
 30
0.0
 11
-0.0000000000000113
 21
-5.0
 31
0.0
210
0.0
220
0.0
230
1.0
 40
0.7660254037896266
 41
3.141592653589793
 42
6.283185307179586
  0
LINE
  5
F217
330
2
100
AcDbEntity
  8
SPS
100
AcDbLine
 10
11052.21033415406
 20
-1895.260998445871
 30
0.0
 11
11065.87062791009
 21
-1895.260998445871
 31
0.0
  0
ELLIPSE
  5
F218
330
2
100
AcDbEntity
  8
VLB
100
AcDbEllipse
 10
11060.04048103204
 20
-1895.260998445871
 30
0.0
 11
0.0000000000000045
 21
5.0
 31
0.0
210
0.0
220
0.0
230
1.0
 40
0.8660254037843287
 41
0.0
 42
6.283185307179586
  0
ELLIPSE
  5
F219
330
2
100
AcDbEntity
  8
VLB
100
AcDbEllipse
 10
11059.04048103207
 20
-1895.260998445871
 30
0.0
 11
-0.0000000000000045
 21
-5.0
 31
0.0
210
0.0
220
0.0
230
1.0
 40
0.7660254037896266
 41
3.141592653589793
 42
6.283185307179586
  0
LINE
  5
F21A
330
2
100
AcDbEntity
  8
SPS
100
AcDbLine
 10
11059.04048103207
 20
-1887.260998445871
 30
0.0
 11
11059.04048103207
 21
-1903.260998445871
 31
0.0
  0
LINE
  5
F21B
330
2
100
AcDbEntity
  8
VLB
100
AcDbLine
 10
11060.04048103204
 20
-1890.260998445871
 30
0.0
 11
11059.04048103207
 21
-1890.260998445871
 31
0.0
  0
LINE
  5
F21C
330
2
100
AcDbEntity
  8
VLB
100
AcDbLine
 10
11059.04048103207
 20
-1900.26099844587
 30
0.0
 11
11060.04048103204
 21
-1900.26099844587
 31
0.0
  0
ELLIPSE
  5
F21D
330
2
100
AcDbEntity
  8
VLB
100
AcDbEllipse
 10
11060.54048103204
 20
-1895.260998445871
 30
0.0
 11
0.0000000000000013
 21
1.5
 31
0.0
210
0.0
220
0.0
230
1.0
 40
0.837082593832747
 41
0.0
 42
6.283185307179586
  0
HATCH
  5
F21E
330
2
100
AcDbEntity
  8
VLB
100
AcDbHatch
 10
0.0
 20
0.0
 30
0.0
210
0.0
220
0.0
230
1.0
  2
SOLID
 70
     1
 71
     0
 91
        2
 92
        5
 93
        2
 72
     3
 10
11060.54048103204
 20
-1895.260998445871
 11
0.0000000000000013
 21
1.5
 40
0.837082593832747
 50
90.0
 51
270.0
 73
     1
 72
     1
 10
11061.79610492279
 20
-1895.260998445871
 11
11059.28485714129
 21
-1895.260998445871
 97
        0
 92
        5
 93
        2
 72
     3
 10
11060.54048103204
 20
-1895.260998445871
 11
0.0000000000000013
 21
1.5
 40
0.837082593832747
 50
270.0
 51
450.0
 73
     1
 72
     1
 10
11059.28485714129
 20
-1895.260998445871
 11
11061.79610492279
 21
-1895.260998445871
 97
        0
 75
     0
 76
     1
 47
0.0516579537025894
 98
        2
 10
11060.2985311068
 20
-1896.092203534628
 10
11060.24687310117
 20
-1894.799689249889
  0
ELLIPSE
  5
F21F
330
2
100
AcDbEntity
  8
VLB
100
AcDbEllipse
 10
10608.26601308227
 20
-1848.528825057379
 30
0.0
 11
-2.549999999999272
 21
0.0000000000000012
 31
0.0
210
0.0
220
0.0
230
1.0
 40
0.5
 41
0.0
 42
6.283185307179586
  0
LINE
  5
F220
330
2
100
AcDbEntity
  8
SPS
100
AcDbLine
 10
10616.8154865675
 20
-1848.528825057379
 30
0.0
 11
10599.71601308226
 21
-1848.528825057379
 31
0.0
  0
LINE
  5
F221
330
2
100
AcDbEntity
  8
SPS
100
AcDbLine
 10
10608.26601308227
 20
-1841.253743531359
 30
0.0
 11
10608.26601308227
 21
-1855.804206603792
 31
0.0
  0
ELLIPSE
  5
F222
330
2
100
AcDbEntity
  8
VLB
100
AcDbEllipse
 10
10938.26601308226
 20
-1848.528825057379
 30
0.0
 11
2.549999999999272
 21
-0.0000000000000012
 31
0.0
210
0.0
220
0.0
230
-1.0
 40
0.5
 41
0.0
 42
6.283185307179586
  0
LINE
  5
F223
330
2
100
AcDbEntity
  8
SPS
100
AcDbLine
 10
10938.26601308226
 20
-1841.253743531359
 30
0.0
 11
10938.26601308226
 21
-1855.804206603792
 31
0.0
  0
LINE
  5
F224
330
2
100
AcDbEntity
  8
SPS
100
AcDbLine
 10
10929.71653959703
 20
-1848.528825057379
 30
0.0
 11
10946.81601308226
 21
-1848.528825057379
 31
0.0
  0
LINE
  5
F225
330
2
100
AcDbEntity
  8
VLB
100
AcDbLine
 10
11134.26601308227
 20
-2531.362751178102
 30
0.0
 11
11134.26601308227
 21
-1809.362751178103
 31
0.0
  0
HATCH
  5
F226
330
2
100
AcDbEntity
  8
VLB
100
AcDbHatch
 10
0.0
 20
0.0
 30
0.0
210
0.0
220
0.0
230
1.0
  2
SOLID
 70
     1
 71
     0
 91
        2
 92
        5
 93
        2
 72
     3
 10
11114.96776581449
 20
-2524.237219127885
 11
1.5
 21
-0.0000000000000009
 40
0.837082593832747
 50
90.0
 51
270.0
 73
     1
 72
     1
 10
11114.96776581449
 20
-2525.492843018634
 11
11114.96776581449
 21
-2522.981595237136
 97
        0
 92
        5
 93
        2
 72
     3
 10
11114.96776581449
 20
-2524.237219127885
 11
1.5
 21
-0.0000000000000009
 40
0.837082593832747
 50
270.0
 51
450.0
 73
     1
 72
     1
 10
11114.96776581449
 20
-2522.981595237136
 11
11114.96776581449
 21
-2525.492843018634
 97
        0
 75
     0
 76
     1
 47
0.0516579537025894
 98
        2
 10
11114.13656072573
 20
-2523.995269202638
 10
11115.42907501047
 20
-2523.94361119701
  0
ELLIPSE
  5
F227
330
2
100
AcDbEntity
  8
VLB
100
AcDbEllipse
 10
11114.96776581449
 20
-2524.237219127885
 30
0.0
 11
1.5
 21
-0.0000000000000009
 31
0.0
210
0.0
220
0.0
230
1.0
 40
0.837082593832747
 41
0.0
 42
6.283185307179586
  0
LINE
  5
F228
330
2
100
AcDbEntity
  8
VLB
100
AcDbLine
 10
11109.96776581449
 20
-2522.737219127914
 30
0.0
 11
11109.96776581449
 21
-2523.737219127885
 31
0.0
  0
LINE
  5
F229
330
2
100
AcDbEntity
  8
VLB
100
AcDbLine
 10
11119.96776581449
 20
-2523.737219127885
 30
0.0
 11
11119.96776581449
 21
-2522.737219127914
 31
0.0
  0
LINE
  5
F22A
330
2
100
AcDbEntity
  8
SPS
100
AcDbLine
 10
11122.96776581449
 20
-2522.737219127914
 30
0.0
 11
11106.96776581449
 21
-2522.737219127914
 31
0.0
  0
ELLIPSE
  5
F22B
330
2
100
AcDbEntity
  8
VLB
100
AcDbEllipse
 10
11114.96776581449
 20
-2522.737219127914
 30
0.0
 11
-5.0
 21
0.0000000000000031
 31
0.0
210
0.0
220
0.0
230
1.0
 40
0.7660254037896266
 41
3.141592653589793
 42
6.283185307179586
  0
ELLIPSE
  5
F22C
330
2
100
AcDbEntity
  8
VLB
100
AcDbEllipse
 10
11114.96776581449
 20
-2523.737219127885
 30
0.0
 11
5.0
 21
-0.0000000000000031
 31
0.0
210
0.0
220
0.0
230
1.0
 40
0.8660254037843287
 41
0.0
 42
6.283185307179586
  0
LINE
  5
F22D
330
2
100
AcDbEntity
  8
SPS
100
AcDbLine
 10
11114.96776581449
 20
-2515.907072249898
 30
0.0
 11
11114.96776581449
 21
-2529.567366005929
 31
0.0
  0
LINE
  5
F22E
330
2
100
AcDbEntity
  8
VLB
100
AcDbLine
 10
11099.92348657282
 20
-2329.589248486216
 30
0.0
 11
11100.70836772729
 21
-2330.478856779531
 31
0.0
  0
ARC
  5
F22F
330
2
100
AcDbEntity
  8
VLB
100
AcDbCircle
 10
11093.7070179507
 20
-2327.024121372026
 30
0.0
 40
6.724905890916827
100
AcDbArc
 50
305.8356601628762
 51
337.5772853193951
  0
LINE
  5
F230
330
2
100
AcDbEntity
  8
VLB
100
AcDbLine
 10
11096.14619904341
 20
-2329.589248486216
 30
0.0
 11
11093.86690967776
 21
-2332.475999832166
 31
0.0
  0
LINE
  5
F231
330
2
100
AcDbEntity
  8
VLB
100
AcDbLine
 10
11102.47040159837
 20
-2338.249502524061
 30
0.0
 11
11102.47040159837
 21
-2332.475999832164
 31
0.0
  0
LINE
  5
F232
330
2
100
AcDbEntity
  8
VLB
100
AcDbLine
 10
11101.71443619468
 20
-2339.10633682152
 30
0.0
 11
11102.47040159837
 21
-2338.249502524061
 31
0.0
  0
LINE
  5
F233
330
2
100
AcDbEntity
  8
VLB
100
AcDbLine
 10
11101.71443619468
 20
-2331.619165534707
 30
0.0
 11
11102.47040159837
 21
-2332.475999832164
 31
0.0
  0
LINE
  5
F234
330
2
100
AcDbEntity
  8
VLB
100
AcDbLine
 10
11093.86690967776
 20
-2332.475999832164
 30
0.0
 11
11093.86690967776
 21
-2338.249502524061
 31
0.0
  0
LINE
  5
F235
330
2
100
AcDbEntity
  8
VLB
100
AcDbLine
 10
11093.86690967776
 20
-2332.475999832164
 30
0.0
 11
11097.64419720717
 21
-2332.475999832164
 31
0.0
  0
LINE
  5
F236
330
2
100
AcDbEntity
  8
VLB
100
AcDbLine
 10
11093.86690967776
 20
-2338.249502524061
 30
0.0
 11
11097.64419720717
 21
-2338.249502524061
 31
0.0
  0
ARC
  5
F237
330
2
100
AcDbEntity
  8
VLB
100
AcDbCircle
 10
11085.60414572536
 20
-2335.362751178111
 30
0.0
 40
12.3812831733212
100
AcDbArc
 50
346.5171407809547
 51
13.48285921903255
  0
LINE
  5
F238
330
2
100
AcDbEntity
  8
VLB
100
AcDbLine
 10
11095.93024979721
 20
-2329.862751178112
 30
0.0
 11
11095.09993920297
 21
-2329.862751178112
 31
0.0
  0
LINE
  5
F239
330
2
100
AcDbEntity
  8
VLB
100
AcDbLine
 10
11096.14619904341
 20
-2329.589248486216
 30
0.0
 11
11099.92348657282
 21
-2329.589248486216
 31
0.0
  0
LINE
  5
F23A
330
2
100
AcDbEntity
  8
VLB
100
AcDbLine
 10
11095.09993920297
 20
-2340.862751178113
 30
0.0
 11
11095.93024979721
 21
-2340.862751178113
 31
0.0
  0
LINE
  5
F23B
330
2
100
AcDbEntity
  8
VLB
100
AcDbLine
 10
11096.14619904341
 20
-2341.136253870013
 30
0.0
 11
11099.92348657282
 21
-2341.136253870013
 31
0.0
  0
ELLIPSE
  5
F23C
330
2
100
AcDbEntity
  8
VLB
100
AcDbEllipse
 10
11096.07098517097
 20
-2335.362751178112
 30
0.0
 11
0.0000000000003097
 21
5.5
 31
0.0
210
0.0
220
0.0
230
-1.0
 40
0.4708029923769408
 41
3.198708688530862
 42
6.226069272239205
  0
ELLIPSE
  5
F23D
330
2
100
AcDbEntity
  8
VLB
100
AcDbEllipse
 10
11095.09993920297
 20
-2335.362751178112
 30
0.0
 11
0.0000000000003097
 21
5.5
 31
0.0
210
0.0
220
0.0
230
-1.0
 40
0.5018190223973679
 41
3.141592653589793
 42
6.283185307179586
  0
LINE
  5
F23E
330
2
100
AcDbEntity
  8
SPS
100
AcDbLine
 10
11095.09993920297
 20
-2343.912224663349
 30
0.0
 11
11095.09993920297
 21
-2326.812751178113
 31
0.0
  0
LINE
  5
F23F
330
2
100
AcDbEntity
  8
VLB
100
AcDbLine
 10
11099.92348657282
 20
-2341.136253870013
 30
0.0
 11
11100.7083677273
 21
-2340.246645576694
 31
0.0
  0
ARC
  5
F240
330
2
100
AcDbEntity
  8
VLB
100
AcDbCircle
 10
11093.7070179507
 20
-2343.701380984197
 30
0.0
 40
6.724905890916827
100
AcDbArc
 50
22.42271468059284
 51
54.1643398371238
  0
LINE
  5
F241
330
2
100
AcDbEntity
  8
VLB
100
AcDbLine
 10
11096.14619904341
 20
-2341.136253870013
 30
0.0
 11
11093.86690967776
 21
-2338.249502524064
 31
0.0
  0
ELLIPSE
  5
F242
330
2
100
AcDbEntity
  8
VLB
100
AcDbEllipse
 10
11100.22791524853
 20
-2335.362751178112
 30
0.0
 11
0.0000000000002815
 21
4.999999999999545
 31
0.0
210
0.0
220
0.0
230
-1.0
 40
0.4484972699691251
 41
0.0
 42
6.283185307179586
  0
LINE
  5
F243
330
2
100
AcDbEntity
  8
VLB
100
AcDbLine
 10
11096.14619904343
 20
-1999.589248486216
 30
0.0
 11
11099.92348657283
 21
-1999.589248486216
 31
0.0
  0
LINE
  5
F244
330
2
100
AcDbEntity
  8
VLB
100
AcDbLine
 10
11095.93024979723
 20
-1999.862751178113
 30
0.0
 11
11095.09993920299
 21
-1999.862751178113
 31
0.0
  0
ELLIPSE
  5
F245
330
2
100
AcDbEntity
  8
VLB
100
AcDbEllipse
 10
11100.22791524854
 20
-2005.362751178112
 30
0.0
 11
0.0000000000002815
 21
4.999999999999545
 31
0.0
210
0.0
220
0.0
230
-1.0
 40
0.4484972699691251
 41
0.0
 42
6.283185307179586
  0
ARC
  5
F246
330
2
100
AcDbEntity
  8
VLB
100
AcDbCircle
 10
11085.60414572538
 20
-2005.362751178111
 30
0.0
 40
12.3812831733212
100
AcDbArc
 50
346.5171407809547
 51
13.48285921903255
  0
LINE
  5
F247
330
2
100
AcDbEntity
  8
VLB
100
AcDbLine
 10
11093.86690967778
 20
-2008.249502524061
 30
0.0
 11
11097.64419720719
 21
-2008.249502524061
 31
0.0
  0
LINE
  5
F248
330
2
100
AcDbEntity
  8
VLB
100
AcDbLine
 10
11093.86690967778
 20
-2002.475999832165
 30
0.0
 11
11097.64419720719
 21
-2002.475999832165
 31
0.0
  0
LINE
  5
F249
330
2
100
AcDbEntity
  8
VLB
100
AcDbLine
 10
11093.86690967778
 20
-2002.475999832165
 30
0.0
 11
11093.86690967778
 21
-2008.249502524061
 31
0.0
  0
LINE
  5
F24A
330
2
100
AcDbEntity
  8
VLB
100
AcDbLine
 10
11096.14619904343
 20
-2011.136253870013
 30
0.0
 11
11099.92348657283
 21
-2011.136253870013
 31
0.0
  0
LINE
  5
F24B
330
2
100
AcDbEntity
  8
VLB
100
AcDbLine
 10
11096.14619904343
 20
-2011.136253870013
 30
0.0
 11
11093.86690967778
 21
-2008.249502524064
 31
0.0
  0
LINE
  5
F24C
330
2
100
AcDbEntity
  8
VLB
100
AcDbLine
 10
11095.09993920299
 20
-2010.862751178112
 30
0.0
 11
11095.93024979723
 21
-2010.862751178112
 31
0.0
  0
ARC
  5
F24D
330
2
100
AcDbEntity
  8
VLB
100
AcDbCircle
 10
11093.70701795072
 20
-2013.701380984197
 30
0.0
 40
6.724905890916827
100
AcDbArc
 50
22.42271468059284
 51
54.1643398371238
  0
LINE
  5
F24E
330
2
100
AcDbEntity
  8
VLB
100
AcDbLine
 10
11101.71443619469
 20
-2001.619165534707
 30
0.0
 11
11102.47040159839
 21
-2002.475999832166
 31
0.0
  0
LINE
  5
F24F
330
2
100
AcDbEntity
  8
VLB
100
AcDbLine
 10
11101.71443619469
 20
-2009.10633682152
 30
0.0
 11
11102.47040159839
 21
-2008.249502524061
 31
0.0
  0
LINE
  5
F250
330
2
100
AcDbEntity
  8
VLB
100
AcDbLine
 10
11099.92348657284
 20
-2011.136253870013
 30
0.0
 11
11100.70836772732
 21
-2010.246645576694
 31
0.0
  0
LINE
  5
F251
330
2
100
AcDbEntity
  8
VLB
100
AcDbLine
 10
11102.47040159839
 20
-2008.249502524061
 30
0.0
 11
11102.47040159839
 21
-2002.475999832165
 31
0.0
  0
LINE
  5
F252
330
2
100
AcDbEntity
  8
SPS
100
AcDbLine
 10
11095.09993920299
 20
-2013.912224663349
 30
0.0
 11
11095.09993920299
 21
-1996.812751178113
 31
0.0
  0
ELLIPSE
  5
F253
330
2
100
AcDbEntity
  8
VLB
100
AcDbEllipse
 10
11095.09993920299
 20
-2005.362751178112
 30
0.0
 11
0.0000000000003097
 21
5.5
 31
0.0
210
0.0
220
0.0
230
-1.0
 40
0.5018190223973679
 41
3.141592653589793
 42
6.283185307179586
  0
LINE
  5
F254
330
2
100
AcDbEntity
  8
VLB
100
AcDbLine
 10
11096.14619904343
 20
-1999.589248486216
 30
0.0
 11
11093.86690967778
 21
-2002.475999832166
 31
0.0
  0
ARC
  5
F255
330
2
100
AcDbEntity
  8
VLB
100
AcDbCircle
 10
11093.70701795072
 20
-1997.024121372027
 30
0.0
 40
6.724905890916827
100
AcDbArc
 50
305.8356601628762
 51
337.5772853193951
  0
ELLIPSE
  5
F256
330
2
100
AcDbEntity
  8
VLB
100
AcDbEllipse
 10
11096.07098517099
 20
-2005.362751178112
 30
0.0
 11
0.0000000000003097
 21
5.5
 31
0.0
210
0.0
220
0.0
230
-1.0
 40
0.4708029923769408
 41
3.198708688530862
 42
6.226069272239205
  0
LINE
  5
F257
330
2
100
AcDbEntity
  8
VLB
100
AcDbLine
 10
11099.92348657283
 20
-1999.589248486216
 30
0.0
 11
11100.70836772731
 21
-2000.478856779531
 31
0.0
  0
LINE
  5
F258
330
2
100
AcDbEntity
  8
SPS
100
AcDbLine
 10
11118.81033415405
 20
-1828.66099844587
 30
0.0
 11
11132.47062791009
 21
-1828.66099844587
 31
0.0
  0
ELLIPSE
  5
F259
330
2
100
AcDbEntity
  8
VLB
100
AcDbEllipse
 10
11126.64048103204
 20
-1828.66099844587
 30
0.0
 11
0.0000000000000045
 21
5.0
 31
0.0
210
0.0
220
0.0
230
1.0
 40
0.8660254037843287
 41
0.0
 42
6.283185307179586
  0
ELLIPSE
  5
F25A
330
2
100
AcDbEntity
  8
VLB
100
AcDbEllipse
 10
11125.64048103207
 20
-1828.66099844587
 30
0.0
 11
-0.0000000000000045
 21
-5.0
 31
0.0
210
0.0
220
0.0
230
1.0
 40
0.7660254037896266
 41
3.141592653589793
 42
6.283185307179586
  0
LINE
  5
F25B
330
2
100
AcDbEntity
  8
SPS
100
AcDbLine
 10
11125.64048103207
 20
-1820.66099844587
 30
0.0
 11
11125.64048103207
 21
-1836.66099844587
 31
0.0
  0
LINE
  5
F25C
330
2
100
AcDbEntity
  8
VLB
100
AcDbLine
 10
11126.64048103204
 20
-1823.66099844587
 30
0.0
 11
11125.64048103207
 21
-1823.66099844587
 31
0.0
  0
LINE
  5
F25D
330
2
100
AcDbEntity
  8
VLB
100
AcDbLine
 10
11125.64048103207
 20
-1833.66099844587
 30
0.0
 11
11126.64048103204
 21
-1833.66099844587
 31
0.0
  0
ELLIPSE
  5
F25E
330
2
100
AcDbEntity
  8
VLB
100
AcDbEllipse
 10
11127.14048103204
 20
-1828.66099844587
 30
0.0
 11
0.0000000000000013
 21
1.5
 31
0.0
210
0.0
220
0.0
230
1.0
 40
0.837082593832747
 41
0.0
 42
6.283185307179586
  0
HATCH
  5
F25F
330
2
100
AcDbEntity
  8
VLB
100
AcDbHatch
 10
0.0
 20
0.0
 30
0.0
210
0.0
220
0.0
230
1.0
  2
SOLID
 70
     1
 71
     0
 91
        2
 92
        5
 93
        2
 72
     3
 10
11127.14048103204
 20
-1828.66099844587
 11
0.0000000000000013
 21
1.5
 40
0.837082593832747
 50
90.0
 51
270.0
 73
     1
 72
     1
 10
11128.39610492279
 20
-1828.66099844587
 11
11125.88485714129
 21
-1828.66099844587
 97
        0
 92
        5
 93
        2
 72
     3
 10
11127.14048103204
 20
-1828.66099844587
 11
0.0000000000000013
 21
1.5
 40
0.837082593832747
 50
270.0
 51
450.0
 73
     1
 72
     1
 10
11125.88485714129
 20
-1828.66099844587
 11
11128.39610492279
 21
-1828.66099844587
 97
        0
 75
     0
 76
     1
 47
0.0516579537025894
 98
        2
 10
11126.89853110679
 20
-1829.492203534628
 10
11126.84687310117
 20
-1828.199689249888
  0
LINE
  5
F260
330
2
100
AcDbEntity
  8
SPS
100
AcDbLine
 10
11102.11055114296
 20
-499.339154347357
 30
0.0
 11
11082.0211472236
 21
-510.9377771080596
 31
0.0
  0
LINE
  5
F261
330
2
100
AcDbEntity
  8
VLB
100
AcDbLine
 10
11134.13203848606
 20
-570.9923121224163
 30
0.0
 11
10985.13203848605
 21
-312.9167417946553
 31
0.0
  0
LINE
  5
F262
330
2
100
AcDbEntity
  8
VLB
100
AcDbLine
 10
11133.76601308227
 20
-572.3583375262021
 30
0.0
 11
10983.97733794767
 21
-312.9167417946553
 31
0.0
  0
LINE
  5
F263
330
2
100
AcDbEntity
  8
VLB
100
AcDbLine
 10
10413.26601308227
 20
-572.492312122416
 30
0.0
 11
11133.26601308227
 21
-572.4923121224162
 31
0.0
  0
LINE
  5
F264
330
2
100
AcDbEntity
  8
VLB
100
AcDbLine
 10
10551.52337239515
 20
-619.916811581508
 30
0.0
 11
10504.09887293606
 21
-572.4923121224162
 31
0.0
  0
LINE
  5
F265
330
2
100
AcDbEntity
  8
VLB
100
AcDbLine
 10
10553.49393514362
 20
-609.1594522686243
 30
0.0
 11
10516.82679499742
 21
-572.4923121224162
 31
0.0
  0
LINE
  5
F266
330
2
100
AcDbEntity
  8
VLB
100
AcDbLine
 10
10412.39998767849
 20
-570.992312122416
 30
0.0
 11
10561.39998767849
 21
-312.9167417946553
 31
0.0
  0
LINE
  5
F267
330
2
100
AcDbEntity
  8
SPS
100
AcDbLine
 10
10444.42147502159
 20
-499.339154347357
 30
0.0
 11
10464.51087894095
 21
-510.9377771080596
 31
0.0
  0
LINE
  5
F268
330
2
100
AcDbEntity
  8
VLB
100
AcDbLine
 10
10417.52551972868
 20
-560.1146301956773
 30
0.0
 11
10422.52551972868
 21
-551.4543761578311
 31
0.0
  0
LINE
  5
F269
330
2
100
AcDbEntity
  8
VLB
100
AcDbLine
 10
10418.39154513246
 20
-560.6146301956719
 30
0.0
 11
10423.39154513246
 21
-551.9543761578274
 31
0.0
  0
LINE
  5
F26A
330
2
100
AcDbEntity
  8
VLB
100
AcDbLine
 10
10422.52551972868
 20
-551.4543761578311
 30
0.0
 11
10423.39154513246
 21
-551.9543761578274
 31
0.0
  0
ARC
  5
F26B
330
2
100
AcDbEntity
  8
VLB
100
AcDbCircle
 10
10430.41782457409
 20
-561.7845031767513
 30
0.0
 40
12.99999999999925
100
AcDbArc
 50
127.3801350518757
 51
172.6198649480691
  0
LINE
  5
F26C
330
2
100
AcDbEntity
  8
VLB
100
AcDbLine
 10
10417.52551972868
 20
-560.1146301956755
 30
0.0
 11
10418.39154513246
 21
-560.6146301956719
 31
0.0
  0
ARC
  5
F26D
330
2
100
AcDbEntity
  8
VLB
100
AcDbCircle
 10
10413.26601308227
 20
-571.4923121224158
 30
0.0
 40
1.0
100
AcDbArc
 50
150.0000000000009
 51
270.0
  0
LINE
  5
F26E
330
2
100
AcDbEntity
  8
SPS
100
AcDbLine
 10
10424.96186453024
 20
-558.6345031767482
 30
0.0
 11
10417.91241774344
 21
-554.5645031767503
 31
0.0
  0
LINE
  5
F26F
330
2
100
AcDbEntity
  8
VLB
100
AcDbLine
 10
10453.05045745162
 20
-498.3410044664431
 30
0.0
 11
10449.24043624933
 21
-496.1413164180682
 31
0.0
  0
ARC
  5
F270
330
2
100
AcDbEntity
  8
VLB
100
AcDbCircle
 10
10450.20793118538
 20
-498.2032166910969
 30
0.0
 40
2.269403731244178
100
AcDbArc
 50
120.0005202688572
 51
184.5656133633669
  0
LINE
  5
F271
330
2
100
AcDbEntity
  8
VLB
100
AcDbLine
 10
10453.22104045007
 20
-498.0455398502761
 30
0.0
 11
10454.19209158473
 21
-498.6061645522002
 31
0.0
  0
LINE
  5
F272
330
2
100
AcDbEntity
  8
VLB
100
AcDbLine
 10
10447.70104153702
 20
-507.6066589238305
 30
0.0
 11
10453.22104045007
 21
-498.0455398502797
 31
0.0
  0
LINE
  5
F273
330
2
100
AcDbEntity
  8
VLB
100
AcDbLine
 10
10447.70104153703
 20
-507.6066589238305
 30
0.0
 11
10448.67209267169
 21
-508.1672836257618
 31
0.0
  0
LINE
  5
F274
330
2
100
AcDbEntity
  8
VLB
100
AcDbLine
 10
10454.19209158473
 20
-498.6061645522002
 30
0.0
 11
10448.67209267169
 21
-508.1672836257618
 31
0.0
  0
LINE
  5
F275
330
2
100
AcDbEntity
  8
VLB
100
AcDbLine
 10
10451.7557498577
 20
-500.5835508266698
 30
0.0
 11
10447.94572865541
 21
-498.383862778295
 31
0.0
  0
LINE
  5
F276
330
2
100
AcDbEntity
  8
VLB
100
AcDbLine
 10
10448.54659726583
 20
-496.5419129424605
 30
0.0
 11
10449.24043624933
 21
-496.1413164180682
 31
0.0
  0
LINE
  5
F277
330
2
100
AcDbEntity
  8
VLB
100
AcDbLine
 10
10444.06159859862
 20
-504.3103214109375
 30
0.0
 11
10444.06160587366
 21
-505.1115018589714
 31
0.0
  0
ARC
  5
F278
330
2
100
AcDbEntity
  8
VLB
100
AcDbCircle
 10
10446.33100785142
 20
-504.918385700895
 30
0.0
 40
2.269403731244178
100
AcDbArc
 50
115.4354271744969
 51
180.0005202688628
  0
LINE
  5
F279
330
2
100
AcDbEntity
  8
VLB
100
AcDbLine
 10
10444.06159859862
 20
-504.3103214109375
 30
0.0
 11
10448.54659726583
 21
-496.5419129424605
 31
0.0
  0
LINE
  5
F27A
330
2
100
AcDbEntity
  8
VLB
100
AcDbLine
 10
10449.16633466986
 20
-505.0686435471195
 30
0.0
 11
10445.35631346757
 21
-502.8689554987484
 31
0.0
  0
ARC
  5
F27B
330
2
100
AcDbEntity
  8
VLB
100
AcDbCircle
 10
10453.72558327144
 20
-504.7108238821013
 30
0.0
 40
8.569548190628291
100
AcDbArc
 50
132.4125664948269
 51
167.588474042785
  0
LINE
  5
F27C
330
2
100
AcDbEntity
  8
VLB
100
AcDbLine
 10
10447.87162707595
 20
-507.3111899073499
 30
0.0
 11
10444.06160587366
 21
-505.1115018589714
 31
0.0
  0
LINE
  5
F27D
330
2
100
AcDbEntity
  8
VLB
100
AcDbLine
 10
10509.92901780971
 20
-400.0670767222543
 30
0.0
 11
10514.9290178097
 21
-391.4068226844081
 31
0.0
  0
LINE
  5
F27E
330
2
100
AcDbEntity
  8
VLB
100
AcDbLine
 10
10484.12551972868
 20
-444.7600464115928
 30
0.0
 11
10489.12551972868
 21
-436.0997923737466
 31
0.0
  0
LINE
  5
F27F
330
2
100
AcDbEntity
  8
VLB
100
AcDbLine
 10
10514.9290178097
 20
-391.4068226844081
 30
0.0
 11
10515.79504321349
 21
-391.9068226844044
 31
0.0
  0
LINE
  5
F280
330
2
100
AcDbEntity
  8
VLB
100
AcDbLine
 10
10509.9290178097
 20
-400.0670767222525
 30
0.0
 11
10510.79504321349
 21
-400.5670767222488
 31
0.0
  0
LINE
  5
F281
330
2
100
AcDbEntity
  8
SPS
100
AcDbLine
 10
10517.36536261125
 20
-398.5869497033161
 30
0.0
 11
10510.31591582445
 21
-394.5169497033164
 31
0.0
  0
ARC
  5
F282
330
2
100
AcDbEntity
  8
VLB
100
AcDbCircle
 10
10522.82132265512
 20
-401.7369497033281
 30
0.0
 40
12.99999999999925
100
AcDbArc
 50
127.3801350518757
 51
172.6198649480691
  0
LINE
  5
F283
330
2
100
AcDbEntity
  8
VLB
100
AcDbLine
 10
10489.12551972868
 20
-436.0997923737466
 30
0.0
 11
10489.99154513246
 21
-436.5997923737429
 31
0.0
  0
LINE
  5
F284
330
2
100
AcDbEntity
  8
VLB
100
AcDbLine
 10
10484.12551972868
 20
-444.760046411591
 30
0.0
 11
10484.99154513246
 21
-445.2600464115874
 31
0.0
  0
ARC
  5
F285
330
2
100
AcDbEntity
  8
VLB
100
AcDbCircle
 10
10497.01782457409
 20
-446.4299193926665
 30
0.0
 40
12.99999999999925
100
AcDbArc
 50
127.3801350518757
 51
172.6198649480691
  0
LINE
  5
F286
330
2
100
AcDbEntity
  8
SPS
100
AcDbLine
 10
10491.56186453023
 20
-443.2799193926546
 30
0.0
 11
10484.51241774342
 21
-439.2099193926549
 31
0.0
  0
LINE
  5
F287
330
2
100
AcDbEntity
  8
SPS
100
AcDbLine
 10
10938.26601308228
 20
-513.8867330380942
 30
0.0
 11
10938.26601308228
 21
-493.8867330380942
 31
0.0
  0
LINE
  5
F288
330
2
100
AcDbEntity
  8
SPS
100
AcDbLine
 10
10608.26601308227
 20
-513.8867330380833
 30
0.0
 11
10608.26601308227
 21
-493.8867330380833
 31
0.0
  0
LINE
  5
F289
330
2
100
AcDbEntity
  8
SPS
100
AcDbLine
 10
10773.26601308227
 20
-3.475351772167186
 30
0.0
 11
10773.26601308227
 21
-677.4168115815098
 31
0.0
  0
LINE
  5
F28A
330
2
100
AcDbEntity
  8
VLB
100
AcDbLine
 10
10575.76601308227
 20
-1084.718309758246
 30
0.0
 11
10970.76601308227
 21
-1084.718309758246
 31
0.0
  0
LINE
  5
F28B
330
2
100
AcDbEntity
  8
VLS
100
AcDbLine
 10
10814.26819153974
 20
-572.4923121224162
 30
0.0
 11
10896.40983412642
 21
-619.9168115815098
 31
0.0
  0
LINE
  5
F28C
330
2
100
AcDbEntity
  8
VLS
100
AcDbLine
 10
10754.26819153975
 20
-572.492312122416
 30
0.0
 11
10836.40983412642
 21
-619.9168115815098
 31
0.0
  0
LINE
  5
F28D
330
2
100
AcDbEntity
  8
VLS
100
AcDbLine
 10
10770.12219203813
 20
-619.91681158151
 30
0.0
 11
10852.2638346248
 21
-572.4923121224162
 31
0.0
  0
LINE
  5
F28E
330
2
100
AcDbEntity
  8
VLB
100
AcDbLine
 10
10551.52337239515
 20
-619.9168115815098
 30
0.0
 11
10995.0086537694
 21
-619.9168115815098
 31
0.0
  0
LINE
  5
F28F
330
2
100
AcDbEntity
  8
VLB
100
AcDbLine
 10
10676.26601308228
 20
-583.4168115815097
 30
0.0
 11
10870.26601308227
 21
-583.4168115815097
 31
0.0
  0
LINE
  5
F290
330
2
100
AcDbEntity
  8
VLB
100
AcDbLine
 10
10552.76601308227
 20
-651.4168115815079
 30
0.0
 11
10993.76601308228
 21
-651.4168115815098
 31
0.0
  0
LINE
  5
F291
330
2
100
AcDbEntity
  8
SPS
100
AcDbLine
 10
10608.26601308227
 20
-1064.718309758247
 30
0.0
 11
10608.26601308227
 21
-1104.718309758247
 31
0.0
  0
LINE
  5
F292
330
2
100
AcDbEntity
  8
VLS
100
AcDbLine
 10
10634.26819153974
 20
-572.492312122416
 30
0.0
 11
10716.40983412642
 21
-619.9168115815098
 31
0.0
  0
LINE
  5
F293
330
2
100
AcDbEntity
  8
VLS
100
AcDbLine
 10
10650.12219203813
 20
-619.91681158151
 30
0.0
 11
10732.26383462481
 21
-572.4923121224162
 31
0.0
  0
ARC
  5
F294
330
2
100
AcDbEntity
  8
VLB
100
AcDbCircle
 10
10628.21601308227
 20
-582.4168115815093
 30
0.0
 40
53.5
100
AcDbArc
 50
329.7943222355572
 51
350.1994599573034
  0
ARC
  5
F295
330
2
100
AcDbEntity
  8
VLB
100
AcDbCircle
 10
10649.76601308228
 20
-578.4168115815093
 30
0.0
 40
26.5
100
AcDbArc
 50
0.0
 51
12.91856914717937
  0
LINE
  5
F296
330
2
100
AcDbEntity
  8
VLS
100
AcDbLine
 10
10583.26601308228
 20
-577.6872068121165
 30
0.0
 11
10618.76601308228
 21
-598.1831413683514
 31
0.0
  0
LINE
  5
F297
330
2
100
AcDbEntity
  8
VLS
100
AcDbLine
 10
10583.26601308228
 20
-589.2342121959075
 30
0.0
 11
10612.2638346248
 21
-572.492312122416
 31
0.0
  0
LINE
  5
F298
330
2
100
AcDbEntity
  8
VLS
100
AcDbLine
 10
10590.12219203813
 20
-619.9168115815098
 30
0.0
 11
10618.76601308228
 21
-603.3792937910503
 31
0.0
  0
LINE
  5
F299
330
2
100
AcDbEntity
  8
VLS
100
AcDbLine
 10
10583.26601308227
 20
-612.3282229634931
 30
0.0
 11
10596.40983412642
 21
-619.9168115815098
 31
0.0
  0
LINE
  5
F29A
330
2
100
AcDbEntity
  8
VLB
100
AcDbLine
 10
10586.76601308227
 20
-578.416811581508
 30
0.0
 11
10585.26601308227
 21
-578.416811581508
 31
0.0
  0
LINE
  5
F29B
330
2
100
AcDbEntity
  8
SPS
100
AcDbLine
 10
10589.26601308227
 20
-572.9168115815098
 30
0.0
 11
10575.26601308227
 21
-572.9168115815098
 31
0.0
  0
LINE
  5
F29C
330
2
100
AcDbEntity
  8
VLB
100
AcDbLine
 10
10584.56601308227
 20
-608.916811581508
 30
0.0
 11
10590.96601308227
 21
-608.916811581508
 31
0.0
  0
LINE
  5
F29D
330
2
100
AcDbEntity
  8
VLB
100
AcDbLine
 10
10586.76601308227
 20
-607.416811581508
 30
0.0
 11
10585.26601308228
 21
-607.416811581508
 31
0.0
  0
LINE
  5
F29E
330
2
100
AcDbEntity
  8
VLB
100
AcDbLine
 10
10591.18617080214
 20
-594.9168115815116
 30
0.0
 11
10591.18617080214
 21
-590.9168115815061
 31
0.0
  0
ARC
  5
F29F
330
2
100
AcDbEntity
  8
VLB
100
AcDbCircle
 10
10588.97609194221
 20
-592.8310478486012
 30
0.0
 40
2.923824388261122
100
AcDbArc
 50
40.89712508721751
 51
139.1028749127824
  0
ARC
  5
F2A0
330
2
100
AcDbEntity
  8
VLB
100
AcDbCircle
 10
10588.97609194221
 20
-593.0025753144157
 30
0.0
 40
2.923824388260154
100
AcDbArc
 50
220.8971250872175
 51
319.1028749127824
  0
LINE
  5
F2A1
330
2
100
AcDbEntity
  8
SPS
100
AcDbLine
 10
10589.26601308227
 20
-592.9168115815079
 30
0.0
 11
10575.26601308227
 21
-592.9168115815079
 31
0.0
  0
LINE
  5
F2A2
330
2
100
AcDbEntity
  8
SPS
100
AcDbLine
 10
10597.82770848285
 20
-592.9168115815079
 30
0.0
 11
10575.26601308227
 21
-592.9168115815079
 31
0.0
  0
LINE
  5
F2A3
330
2
100
AcDbEntity
  8
VLB
100
AcDbLine
 10
10586.76601308227
 20
-578.416811581508
 30
0.0
 11
10586.76601308227
 21
-607.416811581508
 31
0.0
  0
LINE
  5
F2A4
330
2
100
AcDbEntity
  8
VLB
100
AcDbLine
 10
10597.76601308227
 20
-616.916811581508
 30
0.0
 11
10583.26601308227
 21
-616.916811581508
 31
0.0
  0
LINE
  5
F2A5
330
2
100
AcDbEntity
  8
VLB
100
AcDbLine
 10
10597.76601308227
 20
-619.916811581508
 30
0.0
 11
10597.76601308227
 21
-616.916811581508
 31
0.0
  0
LINE
  5
F2A6
330
2
100
AcDbEntity
  8
VLB
100
AcDbLine
 10
10559.5680102648
 20
-616.4501450616732
 30
0.0
 11
10559.5680102648
 21
-612.3789214529931
 31
0.0
  0
LINE
  5
F2A7
330
2
100
AcDbEntity
  8
VLB
100
AcDbLine
 10
10563.41701167354
 20
-616.4501450616732
 30
0.0
 11
10563.41701167354
 21
-612.3789214529931
 31
0.0
  0
LINE
  5
F2A8
330
2
100
AcDbEntity
  8
VLB
100
AcDbLine
 10
10559.5680102648
 20
-616.4501450616732
 30
0.0
 11
10568.26601308227
 21
-616.4501450616732
 31
0.0
  0
LINE
  5
F2A9
330
2
100
AcDbEntity
  8
VLB
100
AcDbLine
 10
10561.33268034376
 20
-617.116811661506
 30
0.0
 11
10568.26601308227
 21
-617.116811661506
 31
0.0
  0
LINE
  5
F2AA
330
2
100
AcDbEntity
  8
VLB
100
AcDbLine
 10
10567.26601308227
 20
-617.116811661506
 30
0.0
 11
10559.76601383227
 21
-617.116811661506
 31
0.0
  0
LINE
  5
F2AB
330
2
100
AcDbEntity
  8
VLB
100
AcDbLine
 10
10567.26601308227
 20
-617.9168115815062
 30
0.0
 11
10559.76601383227
 21
-617.9168115815062
 31
0.0
  0
LINE
  5
F2AC
330
2
100
AcDbEntity
  8
VLB
100
AcDbLine
 10
10559.76601383227
 20
-617.116811661506
 30
0.0
 11
10559.76601383227
 21
-617.9168115815062
 31
0.0
  0
LINE
  5
F2AD
330
2
100
AcDbEntity
  8
VLB
100
AcDbLine
 10
10559.76601383227
 20
-617.9168115815062
 30
0.0
 11
10559.76601383227
 21
-617.116811661506
 31
0.0
1001
ACAD
1000
ASC_BOUNDS
1002
{
1070
    16
1002
}
  0
LINE
  5
F2AE
330
2
100
AcDbEntity
  8
VLB
100
AcDbLine
 10
10561.33268034376
 20
-617.116811661506
 30
0.0
 11
10561.33268034376
 21
-616.4501450616732
 31
0.0
  0
LINE
  5
F2AF
330
2
100
AcDbEntity
  8
VLB
100
AcDbLine
 10
10568.26601308227
 20
-617.9168115815062
 30
0.0
 11
10567.26601308227
 21
-617.9168115815062
 31
0.0
  0
LINE
  5
F2B0
330
2
100
AcDbEntity
  8
VLB
100
AcDbLine
 10
10568.26601308227
 20
-617.116811661506
 30
0.0
 11
10567.26601308227
 21
-617.116811661506
 31
0.0
  0
ARC
  5
F2B1
330
2
100
AcDbEntity
  8
VLB
100
AcDbCircle
 10
10561.50321249161
 20
-615.1567504874649
 30
0.0
 40
3.373271624627153
100
AcDbArc
 50
55.43490690551589
 51
119.9999999999973
  0
ARC
  5
F2B2
330
2
100
AcDbEntity
  8
VLB
100
AcDbCircle
 10
10567.26601308227
 20
-624.521368269355
 30
0.0
 40
12.73788940651524
100
AcDbArc
 50
85.49730763308321
 51
107.5879537739636
  0
LINE
  5
F2B3
330
2
100
AcDbEntity
  8
VLB
100
AcDbLine
 10
10560.59934708394
 20
-611.7834788628404
 30
0.0
 11
10568.26601308227
 21
-611.7834788628404
 31
0.0
  0
LINE
  5
F2B4
330
2
100
AcDbEntity
  8
VLB
100
AcDbLine
 10
10560.59934708394
 20
-611.7834788628404
 30
0.0
 11
10559.5680102648
 21
-612.3789214529931
 31
0.0
  0
LINE
  5
F2B5
330
2
100
AcDbEntity
  8
SPS
100
AcDbLine
 10
10567.26601308227
 20
-637.2149874883341
 30
0.0
 11
10567.26601308227
 21
-607.21857094456
 31
0.0
  0
ARC
  5
F2B6
330
2
100
AcDbEntity
  8
VLB
100
AcDbCircle
 10
10592.0660130823
 20
-612.9168115815075
 30
0.0
 40
8.500000000025893
100
AcDbArc
 50
151.927513064206
 51
208.0724869357939
  0
LINE
  5
F2B7
330
2
100
AcDbEntity
  8
SPS
100
AcDbLine
 10
10587.76601308227
 20
-629.9168115815098
 30
0.0
 11
10587.76601308227
 21
-602.916811581508
 31
0.0
  0
ARC
  5
F2B8
330
2
100
AcDbEntity
  8
VLB
100
AcDbCircle
 10
10583.46601308225
 20
-612.9168115815075
 30
0.0
 40
8.500000000025893
100
AcDbArc
 50
331.927513064206
 51
28.07248693579395
  0
LINE
  5
F2B9
330
2
100
AcDbEntity
  8
VLB
100
AcDbLine
 10
10583.26601308228
 20
-572.4923121224162
 30
0.0
 11
10583.26601308227
 21
-619.9168115815044
 31
0.0
  0
LINE
  5
F2BA
330
2
100
AcDbEntity
  8
VLB
100
AcDbLine
 10
10568.26601308227
 20
-572.4923121224162
 30
0.0
 11
10568.26601308227
 21
-619.9167996814992
 31
0.0
  0
LINE
  5
F2BB
330
2
100
AcDbEntity
  8
VLB
100
AcDbLine
 10
10585.26601308228
 20
-572.4923121224162
 30
0.0
 11
10585.26601308228
 21
-608.9168115815098
 31
0.0
  0
LINE
  5
F2BC
330
2
100
AcDbEntity
  8
VLB
100
AcDbLine
 10
10556.26601308227
 20
-617.9168115815062
 30
0.0
 11
10556.26601308227
 21
-619.9168115815044
 31
0.0
  0
ARC
  5
F2BD
330
2
100
AcDbEntity
  8
VLB
100
AcDbCircle
 10
10556.76601308227
 20
-623.9168115815093
 30
0.0
 40
4.0
100
AcDbArc
 50
90.0
 51
180.0
  0
LINE
  5
F2BE
330
2
100
AcDbEntity
  8
VLB
100
AcDbLine
 10
10552.76601308227
 20
-623.9168115815098
 30
0.0
 11
10552.76601308227
 21
-651.4168115815079
 31
0.0
  0
ARC
  5
F2BF
330
2
100
AcDbEntity
  8
VLB
100
AcDbCircle
 10
10557.73657583074
 20
-604.9168115815039
 30
0.0
 40
6.0
100
AcDbArc
 50
224.9999999998434
 51
270.0
  0
LINE
  5
F2C0
330
2
100
AcDbEntity
  8
VLB
100
AcDbLine
 10
10556.26601308227
 20
-617.9168115815062
 30
0.0
 11
10568.26601308227
 21
-617.9168115815062
 31
0.0
  0
LINE
  5
F2C1
330
2
100
AcDbEntity
  8
VLB
100
AcDbLine
 10
10557.73657583074
 20
-610.9168115815044
 30
0.0
 11
10568.26601308227
 21
-610.916811581508
 31
0.0
  0
LINE
  5
F2C2
330
2
100
AcDbEntity
  8
VLS
100
AcDbLine
 10
10650.76601308228
 20
-616.6583499824203
 30
0.0
 11
10656.40983412642
 21
-619.9168115815098
 31
0.0
  0
LINE
  5
F2C3
330
2
100
AcDbEntity
  8
VLS
100
AcDbLine
 10
10647.27980281518
 20
-586.9168496131453
 30
0.0
 11
10672.2638346248
 21
-572.4923121224162
 31
0.0
  0
LINE
  5
F2C4
330
2
100
AcDbEntity
  8
VLB
100
AcDbLine
 10
10649.76601308228
 20
-589.4168115815098
 30
0.0
 11
10649.76601308228
 21
-589.9168115815098
 31
0.0
  0
LINE
  5
F2C5
330
2
100
AcDbEntity
  8
VLB
100
AcDbLine
 10
10650.76601308228
 20
-589.9168115815079
 30
0.0
 11
10650.76601308228
 21
-619.916811581508
 31
0.0
  0
ARC
  5
F2C6
330
2
100
AcDbEntity
  8
VLB
100
AcDbCircle
 10
10656.04405649176
 20
-598.6168115815083
 30
0.0
 40
21.3
100
AcDbArc
 50
270.0
 51
329.7943222355572
  0
LINE
  5
F2C7
330
2
100
AcDbEntity
  8
VLB
100
AcDbLine
 10
10619.76601308228
 20
-589.4168115815098
 30
0.0
 11
10619.76601308228
 21
-589.9168115815116
 31
0.0
  0
LINE
  5
F2C8
330
2
100
AcDbEntity
  8
VLB
100
AcDbLine
 10
10618.76601308228
 20
-589.9168115815098
 30
0.0
 11
10634.76601308228
 21
-589.9168115815098
 31
0.0
  0
ARC
  5
F2C9
330
2
100
AcDbEntity
  8
VLB
100
AcDbCircle
 10
10622.26601308228
 20
-589.4168115815094
 30
0.0
 40
2.5
100
AcDbArc
 50
90.0
 51
180.0
  0
LINE
  5
F2CA
330
2
100
AcDbEntity
  8
VLB
100
AcDbLine
 10
10622.26601308228
 20
-586.9168115815098
 30
0.0
 11
10647.26601308228
 21
-586.9168115815098
 31
0.0
  0
LINE
  5
F2CB
330
2
100
AcDbEntity
  8
SPS
100
AcDbLine
 10
10634.76601308227
 20
-580.9168115815098
 30
0.0
 11
10634.76601308227
 21
-635.4168115815079
 31
0.0
  0
LINE
  5
F2CC
330
2
100
AcDbEntity
  8
VLB
100
AcDbLine
 10
10618.76601308228
 20
-589.9168115815079
 30
0.0
 11
10618.76601308228
 21
-619.916811581508
 31
0.0
  0
LINE
  5
F2CD
330
2
100
AcDbEntity
  8
VLB
100
AcDbLine
 10
10634.76601308228
 20
-589.9168115815079
 30
0.0
 11
10650.76601308228
 21
-589.9168115815079
 31
0.0
  0
ARC
  5
F2CE
330
2
100
AcDbEntity
  8
VLB
100
AcDbCircle
 10
10647.26601308228
 20
-589.4168115815094
 30
0.0
 40
2.5
100
AcDbArc
 50
0.0
 51
90.0
  0
LINE
  5
F2CF
330
2
100
AcDbEntity
  8
VLS
100
AcDbLine
 10
10694.26819153974
 20
-572.4923121224162
 30
0.0
 11
10776.40983412642
 21
-619.9168115815098
 31
0.0
  0
LINE
  5
F2D0
330
2
100
AcDbEntity
  8
VLS
100
AcDbLine
 10
10710.12219203813
 20
-619.91681158151
 30
0.0
 11
10792.26383462481
 21
-572.492312122416
 31
0.0
  0
LINE
  5
F2D1
330
2
100
AcDbEntity
  8
VLB
100
AcDbLine
 10
10705.90977378228
 20
-610.8167825815087
 30
0.0
 11
10697.62225238228
 21
-610.8167825815087
 31
0.0
  0
ARC
  5
F2D2
330
2
100
AcDbEntity
  8
VLB
100
AcDbCircle
 10
10701.76601308227
 20
-621.3114076815084
 30
0.0
 40
10.494626
100
AcDbArc
 50
74.73825400009623
 51
105.2617477999042
  0
ARC
  5
F2D3
330
2
100
AcDbEntity
  8
VLB
100
AcDbCircle
 10
10705.90976228228
 20
-613.5792871815095
 30
0.0
 40
2.7625039
100
AcDbArc
 50
59.99980540000846
 51
120.0001963998547
  0
ARC
  5
F2D4
330
2
100
AcDbEntity
  8
VLB
100
AcDbCircle
 10
10697.62226388228
 20
-613.5792871815095
 30
0.0
 40
2.7625039
100
AcDbArc
 50
59.99980540000846
 51
120.0001963998547
  0
LINE
  5
F2D5
330
2
100
AcDbEntity
  8
VLB
100
AcDbLine
 10
10710.38733342584
 20
-616.4168115815098
 30
0.0
 11
10701.76601308227
 21
-616.4168115815098
 31
0.0
  0
LINE
  5
F2D6
330
2
100
AcDbEntity
  8
VLB
100
AcDbLine
 10
10696.24104208227
 20
-614.5167718815098
 30
0.0
 11
10707.29098408228
 21
-614.5167718815098
 31
0.0
  0
LINE
  5
F2D7
330
2
100
AcDbEntity
  8
VLB
100
AcDbLine
 10
10707.53600208227
 20
-614.8167825815087
 30
0.0
 11
10695.99602408227
 21
-614.8167825815087
 31
0.0
  0
LINE
  5
F2D8
330
2
100
AcDbEntity
  8
VLB
100
AcDbLine
 10
10693.14469273872
 20
-616.4168115815098
 30
0.0
 11
10701.76601308227
 21
-616.4168115815098
 31
0.0
  0
LINE
  5
F2D9
330
2
100
AcDbEntity
  8
VLB
100
AcDbLine
 10
10708.01601308227
 20
-615.2968011815098
 30
0.0
 11
10695.51601308228
 21
-615.2968011815098
 31
0.0
  0
LINE
  5
F2DA
330
2
100
AcDbEntity
  8
VLB
100
AcDbLine
 10
10695.51601308228
 20
-616.4168115815098
 30
0.0
 11
10708.01601308227
 21
-616.4168115815098
 31
0.0
  0
LINE
  5
F2DB
330
2
100
AcDbEntity
  8
VLB
100
AcDbLine
 10
10696.98135278227
 20
-614.8167825815087
 30
0.0
 11
10706.55067338227
 21
-614.8167825815087
 31
0.0
  0
ARC
  5
F2DC
330
2
100
AcDbEntity
  8
VLB
100
AcDbCircle
 10
10706.55068108227
 20
-614.5168100815092
 30
0.0
 40
0.2999728
100
AcDbArc
 50
269.9986333001577
 51
0.007098400011356
  0
LINE
  5
F2DD
330
2
100
AcDbEntity
  8
VLB
100
AcDbLine
 10
10708.01601308227
 20
-616.4168115815098
 30
0.0
 11
10708.01601308227
 21
-615.2968011815098
 31
0.0
  0
LINE
  5
F2DE
330
2
100
AcDbEntity
  8
VLB
100
AcDbLine
 10
10708.01601308227
 20
-615.2968011815098
 30
0.0
 11
10707.53600208227
 21
-614.8167825815087
 31
0.0
  0
ARC
  5
F2DF
330
2
100
AcDbEntity
  8
VLB
100
AcDbCircle
 10
10696.98147098228
 20
-614.5166574815095
 30
0.0
 40
0.3001265
100
AcDbArc
 50
180.0222291000116
 51
269.9777602000161
  0
LINE
  5
F2E0
330
2
100
AcDbEntity
  8
VLB
100
AcDbLine
 10
10693.14469273872
 20
-616.4168115815098
 30
0.0
 11
10689.64469273872
 21
-619.9168115815098
 31
0.0
  0
LINE
  5
F2E1
330
2
100
AcDbEntity
  8
VLB
100
AcDbLine
 10
10696.24104208227
 20
-614.5167718815098
 30
0.0
 11
10696.68134208228
 21
-614.5167718815098
 31
0.0
  0
LINE
  5
F2E2
330
2
100
AcDbEntity
  8
VLB
100
AcDbLine
 10
10695.99602408227
 20
-614.8167825815087
 30
0.0
 11
10695.51601308228
 21
-615.2968011815098
 31
0.0
  0
LINE
  5
F2E3
330
2
100
AcDbEntity
  8
VLB
100
AcDbLine
 10
10695.51601308228
 20
-615.2968011815098
 30
0.0
 11
10695.51601308228
 21
-616.4168115815098
 31
0.0
  0
LINE
  5
F2E4
330
2
100
AcDbEntity
  8
VLB
100
AcDbLine
 10
10710.38733342584
 20
-616.4168115815098
 30
0.0
 11
10713.88733342583
 21
-619.9168115815098
 31
0.0
  0
LINE
  5
F2E5
330
2
100
AcDbEntity
  8
SPS
100
AcDbLine
 10
10701.76601308227
 20
-625.9168115815098
 30
0.0
 11
10701.76601308227
 21
-604.8991415979542
 31
0.0
  0
LINE
  5
F2E6
330
2
100
AcDbEntity
  8
VLB
100
AcDbLine
 10
10707.29098408228
 20
-614.5167718815098
 30
0.0
 11
10707.29098408228
 21
-611.1868921815092
 31
0.0
  0
LINE
  5
F2E7
330
2
100
AcDbEntity
  8
VLB
100
AcDbLine
 10
10704.52850238228
 20
-614.5167718815098
 30
0.0
 11
10704.52850238228
 21
-611.1868921815092
 31
0.0
  0
LINE
  5
F2E8
330
2
100
AcDbEntity
  8
VLB
100
AcDbLine
 10
10704.52850238228
 20
-611.1868921815092
 30
0.0
 11
10704.52850238228
 21
-614.5167718815098
 31
0.0
  0
LINE
  5
F2E9
330
2
100
AcDbEntity
  8
VLB
100
AcDbLine
 10
10699.00352378228
 20
-614.5167718815098
 30
0.0
 11
10699.00352378228
 21
-611.1868921815092
 31
0.0
  0
LINE
  5
F2EA
330
2
100
AcDbEntity
  8
VLB
100
AcDbLine
 10
10699.00352378228
 20
-611.1868921815092
 30
0.0
 11
10699.00352378228
 21
-614.5167718815098
 31
0.0
  0
LINE
  5
F2EB
330
2
100
AcDbEntity
  8
VLB
100
AcDbLine
 10
10696.24104208227
 20
-611.1868921815092
 30
0.0
 11
10696.24104208227
 21
-614.5167718815098
 31
0.0
  0
ARC
  5
F2EC
330
2
100
AcDbEntity
  8
VLB
100
AcDbCircle
 10
10642.9157335
 20
-585.4599881051829
 30
0.0
 40
38.5
100
AcDbArc
 50
350.9385167153979
 51
3.042088606557868
  0
LINE
  5
F2ED
330
2
100
AcDbEntity
  8
VLB
100
AcDbLine
 10
10676.26601308227
 20
-578.4168115815098
 30
0.0
 11
10676.26601308227
 21
-583.4168115815097
 31
0.0
  0
LINE
  5
F2EE
330
2
100
AcDbEntity
  8
SPS
100
AcDbLine
 10
10938.26601308227
 20
-1064.718309758247
 30
0.0
 11
10938.26601308227
 21
-1104.718309758247
 31
0.0
  0
LINE
  5
F2EF
330
2
100
AcDbEntity
  8
VLS
100
AcDbLine
 10
10934.26819153974
 20
-572.492312122416
 30
0.0
 11
10963.26601308228
 21
-589.2342121959088
 31
0.0
  0
LINE
  5
F2F0
330
2
100
AcDbEntity
  8
VLS
100
AcDbLine
 10
10874.26819153974
 20
-572.492312122416
 30
0.0
 11
10956.40983412641
 21
-619.9168115815098
 31
0.0
  0
LINE
  5
F2F1
330
2
100
AcDbEntity
  8
VLS
100
AcDbLine
 10
10890.12219203813
 20
-619.9168115815098
 30
0.0
 11
10963.26601308228
 21
-577.6872068121192
 31
0.0
  0
LINE
  5
F2F2
330
2
100
AcDbEntity
  8
VLS
100
AcDbLine
 10
10950.12219203813
 20
-619.9168115815098
 30
0.0
 11
10963.26601308228
 21
-612.3282229634938
 31
0.0
  0
LINE
  5
F2F3
330
2
100
AcDbEntity
  8
SPS
100
AcDbLine
 10
10948.7043176817
 20
-592.9168115815079
 30
0.0
 11
10971.26601308228
 21
-592.9168115815079
 31
0.0
  0
LINE
  5
F2F4
330
2
100
AcDbEntity
  8
VLB
100
AcDbLine
 10
10948.76601308227
 20
-616.916811581508
 30
0.0
 11
10963.26601308228
 21
-616.916811581508
 31
0.0
  0
LINE
  5
F2F5
330
2
100
AcDbEntity
  8
VLS
100
AcDbLine
 10
10830.12219203813
 20
-619.91681158151
 30
0.0
 11
10912.2638346248
 21
-572.4923121224162
 31
0.0
  0
ARC
  5
F2F6
330
2
100
AcDbEntity
  8
VLB
100
AcDbCircle
 10
10890.4879696728
 20
-598.6168115815084
 30
0.0
 40
21.3
100
AcDbArc
 50
210.2056777644427
 51
270.0
  0
ARC
  5
F2F7
330
2
100
AcDbEntity
  8
VLB
100
AcDbCircle
 10
10903.61629266455
 20
-585.4599881051831
 30
0.0
 40
38.5
100
AcDbArc
 50
176.9579113934421
 51
189.0614832846021
  0
LINE
  5
F2F8
330
2
100
AcDbEntity
  8
VLB
100
AcDbLine
 10
10870.26601308227
 20
-578.4168115815098
 30
0.0
 11
10870.26601308227
 21
-583.4168115815097
 31
0.0
  0
LINE
  5
F2F9
330
2
100
AcDbEntity
  8
VLB
100
AcDbLine
 10
10850.29098408227
 20
-611.1868921815092
 30
0.0
 11
10850.29098408227
 21
-614.5167718815098
 31
0.0
  0
LINE
  5
F2FA
330
2
100
AcDbEntity
  8
VLB
100
AcDbLine
 10
10851.01601308227
 20
-615.2968011815098
 30
0.0
 11
10851.01601308227
 21
-616.4168115815098
 31
0.0
  0
LINE
  5
F2FB
330
2
100
AcDbEntity
  8
VLB
100
AcDbLine
 10
10850.53600208228
 20
-614.8167825815087
 30
0.0
 11
10851.01601308227
 21
-615.2968011815098
 31
0.0
  0
LINE
  5
F2FC
330
2
100
AcDbEntity
  8
VLB
100
AcDbLine
 10
10850.29098408227
 20
-614.5167718815098
 30
0.0
 11
10849.85068408227
 21
-614.5167718815098
 31
0.0
  0
LINE
  5
F2FD
330
2
100
AcDbEntity
  8
VLB
100
AcDbLine
 10
10853.38733342583
 20
-616.4168115815098
 30
0.0
 11
10856.88733342583
 21
-619.9168115815098
 31
0.0
  0
LINE
  5
F2FE
330
2
100
AcDbEntity
  8
VLB
100
AcDbLine
 10
10847.52850238227
 20
-611.1868921815092
 30
0.0
 11
10847.52850238227
 21
-614.5167718815098
 31
0.0
  0
LINE
  5
F2FF
330
2
100
AcDbEntity
  8
VLB
100
AcDbLine
 10
10847.52850238227
 20
-614.5167718815098
 30
0.0
 11
10847.52850238227
 21
-611.1868921815092
 31
0.0
  0
LINE
  5
F300
330
2
100
AcDbEntity
  8
VLB
100
AcDbLine
 10
10842.00352378227
 20
-611.1868921815092
 30
0.0
 11
10842.00352378227
 21
-614.5167718815098
 31
0.0
  0
LINE
  5
F301
330
2
100
AcDbEntity
  8
VLB
100
AcDbLine
 10
10842.00352378227
 20
-614.5167718815098
 30
0.0
 11
10842.00352378227
 21
-611.1868921815092
 31
0.0
  0
LINE
  5
F302
330
2
100
AcDbEntity
  8
VLB
100
AcDbLine
 10
10839.24104208227
 20
-614.5167718815098
 30
0.0
 11
10839.24104208227
 21
-611.1868921815092
 31
0.0
  0
LINE
  5
F303
330
2
100
AcDbEntity
  8
VLB
100
AcDbLine
 10
10838.51601308228
 20
-615.2968011815098
 30
0.0
 11
10838.99602408227
 21
-614.8167825815087
 31
0.0
  0
LINE
  5
F304
330
2
100
AcDbEntity
  8
VLB
100
AcDbLine
 10
10836.14469273871
 20
-616.4168115815098
 30
0.0
 11
10844.76601308227
 21
-616.4168115815098
 31
0.0
  0
LINE
  5
F305
330
2
100
AcDbEntity
  8
VLB
100
AcDbLine
 10
10838.51601308228
 20
-616.4168115815098
 30
0.0
 11
10838.51601308228
 21
-615.2968011815098
 31
0.0
  0
LINE
  5
F306
330
2
100
AcDbEntity
  8
VLB
100
AcDbLine
 10
10836.14469273871
 20
-616.4168115815098
 30
0.0
 11
10832.64469273871
 21
-619.9168115815098
 31
0.0
  0
ARC
  5
F307
330
2
100
AcDbEntity
  8
VLB
100
AcDbCircle
 10
10839.98134508227
 20
-614.5168100815094
 30
0.0
 40
0.2999728
100
AcDbArc
 50
179.9929015999886
 51
270.0013666998422
  0
LINE
  5
F308
330
2
100
AcDbEntity
  8
VLB
100
AcDbLine
 10
10849.55067338228
 20
-614.8167825815087
 30
0.0
 11
10839.98135278227
 21
-614.8167825815087
 31
0.0
  0
ARC
  5
F309
330
2
100
AcDbEntity
  8
VLB
100
AcDbCircle
 10
10844.76601308227
 20
-621.3114076815086
 30
0.0
 40
10.494626
100
AcDbArc
 50
74.7382522000958
 51
105.2617459999037
  0
LINE
  5
F30A
330
2
100
AcDbEntity
  8
VLB
100
AcDbLine
 10
10840.62225238227
 20
-610.8167825815087
 30
0.0
 11
10848.90977378227
 21
-610.8167825815087
 31
0.0
  0
ARC
  5
F30B
330
2
100
AcDbEntity
  8
VLB
100
AcDbCircle
 10
10840.62226388227
 20
-613.5792871815096
 30
0.0
 40
2.7625039
100
AcDbArc
 50
59.99980360014524
 51
120.0001945999915
  0
LINE
  5
F30C
330
2
100
AcDbEntity
  8
VLB
100
AcDbLine
 10
10851.01601308227
 20
-616.4168115815098
 30
0.0
 11
10838.51601308228
 21
-616.4168115815098
 31
0.0
  0
LINE
  5
F30D
330
2
100
AcDbEntity
  8
VLB
100
AcDbLine
 10
10838.51601308228
 20
-615.2968011815098
 30
0.0
 11
10851.01601308227
 21
-615.2968011815098
 31
0.0
  0
LINE
  5
F30E
330
2
100
AcDbEntity
  8
VLB
100
AcDbLine
 10
10853.38733342583
 20
-616.4168115815098
 30
0.0
 11
10844.76601308227
 21
-616.4168115815098
 31
0.0
  0
ARC
  5
F30F
330
2
100
AcDbEntity
  8
VLB
100
AcDbCircle
 10
10849.55055518227
 20
-614.5166574815098
 30
0.0
 40
0.3001265
100
AcDbArc
 50
270.0222397999838
 51
359.9777708999883
  0
LINE
  5
F310
330
2
100
AcDbEntity
  8
VLB
100
AcDbLine
 10
10838.99602408227
 20
-614.8167825815087
 30
0.0
 11
10850.53600208228
 21
-614.8167825815087
 31
0.0
  0
LINE
  5
F311
330
2
100
AcDbEntity
  8
VLB
100
AcDbLine
 10
10850.29098408227
 20
-614.5167718815098
 30
0.0
 11
10839.24104208227
 21
-614.5167718815098
 31
0.0
  0
ARC
  5
F312
330
2
100
AcDbEntity
  8
VLB
100
AcDbCircle
 10
10848.90976228227
 20
-613.5792871815096
 30
0.0
 40
2.7625039
100
AcDbArc
 50
59.99980360014524
 51
120.0001945999915
  0
LINE
  5
F313
330
2
100
AcDbEntity
  8
SPS
100
AcDbLine
 10
10844.76601308227
 20
-625.9168115815098
 30
0.0
 11
10844.76601308227
 21
-604.8991415979542
 31
0.0
  0
ARC
  5
F314
330
2
100
AcDbEntity
  8
VLB
100
AcDbCircle
 10
10918.31601308228
 20
-582.4168115815096
 30
0.0
 40
53.5
100
AcDbArc
 50
189.8005400426966
 51
210.2056777644427
  0
ARC
  5
F315
330
2
100
AcDbEntity
  8
VLB
100
AcDbCircle
 10
10896.76601308227
 20
-578.4168115815096
 30
0.0
 40
26.5
100
AcDbArc
 50
167.0814308528206
 51
180.0
  0
LINE
  5
F316
330
2
100
AcDbEntity
  8
VLB
100
AcDbLine
 10
10948.76601308227
 20
-619.916811581508
 30
0.0
 11
10948.76601308227
 21
-616.916811581508
 31
0.0
  0
LINE
  5
F317
330
2
100
AcDbEntity
  8
VLB
100
AcDbLine
 10
10919.02850238227
 20
-611.1868921815092
 30
0.0
 11
10919.02850238227
 21
-614.5167718815098
 31
0.0
  0
LINE
  5
F318
330
2
100
AcDbEntity
  8
VLB
100
AcDbLine
 10
10919.02850238227
 20
-614.5167718815098
 30
0.0
 11
10919.02850238227
 21
-611.1868921815092
 31
0.0
  0
LINE
  5
F319
330
2
100
AcDbEntity
  8
VLB
100
AcDbLine
 10
10921.79098408227
 20
-611.1868921815092
 30
0.0
 11
10921.79098408227
 21
-614.5167718815098
 31
0.0
  0
LINE
  5
F31A
330
2
100
AcDbEntity
  8
VLB
100
AcDbLine
 10
10924.88733342583
 20
-616.4168115815098
 30
0.0
 11
10928.38733342583
 21
-619.9168115815098
 31
0.0
  0
LINE
  5
F31B
330
2
100
AcDbEntity
  8
VLB
100
AcDbLine
 10
10922.51601308227
 20
-615.2968011815098
 30
0.0
 11
10922.51601308227
 21
-616.4168115815098
 31
0.0
  0
LINE
  5
F31C
330
2
100
AcDbEntity
  8
VLB
100
AcDbLine
 10
10922.03600208228
 20
-614.8167825815087
 30
0.0
 11
10922.51601308227
 21
-615.2968011815098
 31
0.0
  0
LINE
  5
F31D
330
2
100
AcDbEntity
  8
VLB
100
AcDbLine
 10
10921.79098408227
 20
-614.5167718815098
 30
0.0
 11
10921.35068408228
 21
-614.5167718815098
 31
0.0
  0
ARC
  5
F31E
330
2
100
AcDbEntity
  8
VLB
100
AcDbCircle
 10
10921.05055518228
 20
-614.5166574815098
 30
0.0
 40
0.3001265
100
AcDbArc
 50
270.0222397999838
 51
359.9777708999883
  0
ARC
  5
F31F
330
2
100
AcDbEntity
  8
VLB
100
AcDbCircle
 10
10920.40976228227
 20
-613.5792871815096
 30
0.0
 40
2.7625039
100
AcDbArc
 50
59.99980360014524
 51
120.0001945999915
  0
LINE
  5
F320
330
2
100
AcDbEntity
  8
VLB
100
AcDbLine
 10
10924.88733342583
 20
-616.4168115815098
 30
0.0
 11
10928.38733342583
 21
-619.9168115815098
 31
0.0
  0
LINE
  5
F321
330
2
100
AcDbEntity
  8
VLB
100
AcDbLine
 10
10921.79098408227
 20
-611.1868921815092
 30
0.0
 11
10921.79098408227
 21
-614.5167718815098
 31
0.0
  0
LINE
  5
F322
330
2
100
AcDbEntity
  8
VLB
100
AcDbLine
 10
10919.02850238227
 20
-614.5167718815098
 30
0.0
 11
10919.02850238227
 21
-611.1868921815092
 31
0.0
  0
LINE
  5
F323
330
2
100
AcDbEntity
  8
VLB
100
AcDbLine
 10
10919.02850238227
 20
-611.1868921815092
 30
0.0
 11
10919.02850238227
 21
-614.5167718815098
 31
0.0
  0
ARC
  5
F324
330
2
100
AcDbEntity
  8
VLB
100
AcDbCircle
 10
10921.05055518228
 20
-614.5166574815079
 30
0.0
 40
0.3001265
100
AcDbArc
 50
270.0222397999838
 51
359.9777709000144
  0
LINE
  5
F325
330
2
100
AcDbEntity
  8
VLB
100
AcDbLine
 10
10921.79098408227
 20
-614.5167718815098
 30
0.0
 11
10921.35068408228
 21
-614.5167718815098
 31
0.0
  0
LINE
  5
F326
330
2
100
AcDbEntity
  8
VLB
100
AcDbLine
 10
10922.03600208228
 20
-614.8167825815087
 30
0.0
 11
10922.51601308227
 21
-615.2968011815098
 31
0.0
  0
ARC
  5
F327
330
2
100
AcDbEntity
  8
VLB
100
AcDbCircle
 10
10920.40976228227
 20
-613.5792871815079
 30
0.0
 40
2.7625039
100
AcDbArc
 50
59.99980360014524
 51
120.0001945999915
  0
LINE
  5
F328
330
2
100
AcDbEntity
  8
VLB
100
AcDbLine
 10
10922.51601308227
 20
-615.2968011815098
 30
0.0
 11
10922.51601308227
 21
-616.4168115815098
 31
0.0
  0
LINE
  5
F329
330
2
100
AcDbEntity
  8
VLB
100
AcDbLine
 10
10907.64469273871
 20
-616.4168115815098
 30
0.0
 11
10916.26601308227
 21
-616.4168115815098
 31
0.0
  0
ARC
  5
F32A
330
2
100
AcDbEntity
  8
VLB
100
AcDbCircle
 10
10912.12226388227
 20
-613.5792871815096
 30
0.0
 40
2.7625039
100
AcDbArc
 50
59.99980360014524
 51
120.0001945999915
  0
ARC
  5
F32B
330
2
100
AcDbEntity
  8
VLB
100
AcDbCircle
 10
10912.12226388227
 20
-613.5792871815079
 30
0.0
 40
2.7625039
100
AcDbArc
 50
59.99980360014524
 51
120.0001945999915
  0
LINE
  5
F32C
330
2
100
AcDbEntity
  8
VLB
100
AcDbLine
 10
10907.64469273871
 20
-616.4168115815098
 30
0.0
 11
10916.26601308227
 21
-616.4168115815098
 31
0.0
  0
LINE
  5
F32D
330
2
100
AcDbEntity
  8
VLB
100
AcDbLine
 10
10907.64469273871
 20
-616.4168115815098
 30
0.0
 11
10904.14469273872
 21
-619.9168115815098
 31
0.0
  0
LINE
  5
F32E
330
2
100
AcDbEntity
  8
VLB
100
AcDbLine
 10
10910.74104208227
 20
-614.5167718815098
 30
0.0
 11
10910.74104208227
 21
-611.1868921815092
 31
0.0
  0
LINE
  5
F32F
330
2
100
AcDbEntity
  8
VLB
100
AcDbLine
 10
10910.01601308227
 20
-616.4168115815098
 30
0.0
 11
10910.01601308227
 21
-615.2968011815098
 31
0.0
  0
LINE
  5
F330
330
2
100
AcDbEntity
  8
VLB
100
AcDbLine
 10
10910.01601308227
 20
-615.2968011815098
 30
0.0
 11
10910.49602408227
 21
-614.8167825815087
 31
0.0
  0
ARC
  5
F331
330
2
100
AcDbEntity
  8
VLB
100
AcDbCircle
 10
10911.48134508227
 20
-614.5168100815094
 30
0.0
 40
0.2999728
100
AcDbArc
 50
179.9929015999886
 51
270.0013666998422
  0
ARC
  5
F332
330
2
100
AcDbEntity
  8
VLB
100
AcDbCircle
 10
10911.48134508227
 20
-614.5168100815076
 30
0.0
 40
0.2999728
100
AcDbArc
 50
179.9929015999886
 51
270.0013667000506
  0
LINE
  5
F333
330
2
100
AcDbEntity
  8
VLB
100
AcDbLine
 10
10910.74104208227
 20
-614.5167718815098
 30
0.0
 11
10910.74104208227
 21
-611.1868921815092
 31
0.0
  0
LINE
  5
F334
330
2
100
AcDbEntity
  8
VLB
100
AcDbLine
 10
10910.01601308227
 20
-615.2968011815098
 30
0.0
 11
10910.49602408227
 21
-614.8167825815087
 31
0.0
  0
LINE
  5
F335
330
2
100
AcDbEntity
  8
VLB
100
AcDbLine
 10
10907.64469273871
 20
-616.4168115815098
 30
0.0
 11
10904.14469273872
 21
-619.9168115815098
 31
0.0
  0
LINE
  5
F336
330
2
100
AcDbEntity
  8
VLB
100
AcDbLine
 10
10910.01601308227
 20
-616.4168115815098
 30
0.0
 11
10910.01601308227
 21
-615.2968011815098
 31
0.0
  0
LINE
  5
F337
330
2
100
AcDbEntity
  8
VLB
100
AcDbLine
 10
10913.50352378227
 20
-611.1868921815092
 30
0.0
 11
10913.50352378227
 21
-614.5167718815098
 31
0.0
  0
LINE
  5
F338
330
2
100
AcDbEntity
  8
VLB
100
AcDbLine
 10
10913.50352378227
 20
-614.5167718815098
 30
0.0
 11
10913.50352378227
 21
-611.1868921815092
 31
0.0
  0
LINE
  5
F339
330
2
100
AcDbEntity
  8
VLB
100
AcDbLine
 10
10913.50352378227
 20
-614.5167718815098
 30
0.0
 11
10913.50352378227
 21
-611.1868921815092
 31
0.0
  0
LINE
  5
F33A
330
2
100
AcDbEntity
  8
VLB
100
AcDbLine
 10
10913.50352378227
 20
-611.1868921815092
 30
0.0
 11
10913.50352378227
 21
-614.5167718815098
 31
0.0
  0
LINE
  5
F33B
330
2
100
AcDbEntity
  8
SPS
100
AcDbLine
 10
10916.26601308227
 20
-625.9168115815098
 30
0.0
 11
10916.26601308227
 21
-604.8991415979542
 31
0.0
  0
LINE
  5
F33C
330
2
100
AcDbEntity
  8
SPS
100
AcDbLine
 10
10916.26601308227
 20
-625.91681158151
 30
0.0
 11
10916.26601308227
 21
-604.8991415979542
 31
0.0
  0
LINE
  5
F33D
330
2
100
AcDbEntity
  8
VLB
100
AcDbLine
 10
10921.05067338227
 20
-614.8167825815087
 30
0.0
 11
10911.48135278227
 21
-614.8167825815087
 31
0.0
  0
LINE
  5
F33E
330
2
100
AcDbEntity
  8
VLB
100
AcDbLine
 10
10910.49602408227
 20
-614.8167825815087
 30
0.0
 11
10922.03600208228
 21
-614.8167825815087
 31
0.0
  0
LINE
  5
F33F
330
2
100
AcDbEntity
  8
VLB
100
AcDbLine
 10
10922.51601308227
 20
-616.4168115815098
 30
0.0
 11
10910.01601308227
 21
-616.4168115815098
 31
0.0
  0
LINE
  5
F340
330
2
100
AcDbEntity
  8
VLB
100
AcDbLine
 10
10910.01601308227
 20
-615.2968011815098
 30
0.0
 11
10922.51601308227
 21
-615.2968011815098
 31
0.0
  0
LINE
  5
F341
330
2
100
AcDbEntity
  8
VLB
100
AcDbLine
 10
10921.79098408227
 20
-614.5167718815098
 30
0.0
 11
10910.74104208227
 21
-614.5167718815098
 31
0.0
  0
LINE
  5
F342
330
2
100
AcDbEntity
  8
VLB
100
AcDbLine
 10
10921.79098408227
 20
-614.5167718815098
 30
0.0
 11
10910.74104208227
 21
-614.5167718815098
 31
0.0
  0
LINE
  5
F343
330
2
100
AcDbEntity
  8
VLB
100
AcDbLine
 10
10910.01601308227
 20
-615.2968011815098
 30
0.0
 11
10922.51601308227
 21
-615.2968011815098
 31
0.0
  0
LINE
  5
F344
330
2
100
AcDbEntity
  8
VLB
100
AcDbLine
 10
10910.49602408227
 20
-614.8167825815087
 30
0.0
 11
10922.03600208228
 21
-614.8167825815087
 31
0.0
  0
LINE
  5
F345
330
2
100
AcDbEntity
  8
VLB
100
AcDbLine
 10
10921.05067338227
 20
-614.8167825815087
 30
0.0
 11
10911.48135278227
 21
-614.8167825815087
 31
0.0
  0
LINE
  5
F346
330
2
100
AcDbEntity
  8
VLB
100
AcDbLine
 10
10922.51601308227
 20
-616.4168115815098
 30
0.0
 11
10910.01601308227
 21
-616.4168115815098
 31
0.0
  0
LINE
  5
F347
330
2
100
AcDbEntity
  8
VLB
100
AcDbLine
 10
10924.88733342583
 20
-616.4168115815098
 30
0.0
 11
10916.26601308227
 21
-616.4168115815098
 31
0.0
  0
LINE
  5
F348
330
2
100
AcDbEntity
  8
VLB
100
AcDbLine
 10
10912.12225238227
 20
-610.8167825815087
 30
0.0
 11
10920.40977378227
 21
-610.8167825815087
 31
0.0
  0
ARC
  5
F349
330
2
100
AcDbEntity
  8
VLB
100
AcDbCircle
 10
10916.26601308227
 20
-621.3114076815086
 30
0.0
 40
10.494626
100
AcDbArc
 50
74.7382522000958
 51
105.2617459999037
  0
ARC
  5
F34A
330
2
100
AcDbEntity
  8
VLB
100
AcDbCircle
 10
10916.26601308227
 20
-621.3114076815068
 30
0.0
 40
10.494626
100
AcDbArc
 50
74.7382522000958
 51
105.2617459999037
  0
LINE
  5
F34B
330
2
100
AcDbEntity
  8
VLB
100
AcDbLine
 10
10912.12225238227
 20
-610.8167825815087
 30
0.0
 11
10920.40977378227
 21
-610.8167825815087
 31
0.0
  0
LINE
  5
F34C
330
2
100
AcDbEntity
  8
VLB
100
AcDbLine
 10
10924.88733342583
 20
-616.4168115815098
 30
0.0
 11
10916.26601308227
 21
-616.4168115815098
 31
0.0
  0
LINE
  5
F34D
330
2
100
AcDbEntity
  8
VLB
100
AcDbLine
 10
10993.03809102093
 20
-609.1594522686243
 30
0.0
 11
11029.70523116713
 21
-572.4923121224162
 31
0.0
  0
LINE
  5
F34E
330
2
100
AcDbEntity
  8
VLB
100
AcDbLine
 10
10995.0086537694
 20
-619.916811581508
 30
0.0
 11
11042.43315322849
 21
-572.4923121224162
 31
0.0
  0
LINE
  5
F34F
330
2
100
AcDbEntity
  8
VLB
100
AcDbLine
 10
10959.76601308227
 20
-578.416811581508
 30
0.0
 11
10961.26601308228
 21
-578.416811581508
 31
0.0
  0
LINE
  5
F350
330
2
100
AcDbEntity
  8
VLB
100
AcDbLine
 10
10959.76601308228
 20
-607.416811581508
 30
0.0
 11
10961.26601308227
 21
-607.416811581508
 31
0.0
  0
ARC
  5
F351
330
2
100
AcDbEntity
  8
VLB
100
AcDbCircle
 10
10957.55593422234
 20
-593.0025753144159
 30
0.0
 40
2.923824388260154
100
AcDbArc
 50
220.8971250872175
 51
319.1028749127824
  0
LINE
  5
F352
330
2
100
AcDbEntity
  8
VLB
100
AcDbLine
 10
10955.34585536241
 20
-594.9168115815116
 30
0.0
 11
10955.3458553624
 21
-590.9168115815061
 31
0.0
  0
ARC
  5
F353
330
2
100
AcDbEntity
  8
VLB
100
AcDbCircle
 10
10957.55593422234
 20
-592.8310478486014
 30
0.0
 40
2.923824388261122
100
AcDbArc
 50
40.89712508721751
 51
139.1028749127824
  0
LINE
  5
F354
330
2
100
AcDbEntity
  8
VLB
100
AcDbLine
 10
10959.76601308227
 20
-578.416811581508
 30
0.0
 11
10959.76601308227
 21
-607.416811581508
 31
0.0
  0
LINE
  5
F355
330
2
100
AcDbEntity
  8
VLB
100
AcDbLine
 10
10961.96601308228
 20
-608.916811581508
 30
0.0
 11
10955.56601308228
 21
-608.916811581508
 31
0.0
  0
LINE
  5
F356
330
2
100
AcDbEntity
  8
SPS
100
AcDbLine
 10
10957.26601308228
 20
-592.9168115815079
 30
0.0
 11
10971.26601308228
 21
-592.9168115815079
 31
0.0
  0
LINE
  5
F357
330
2
100
AcDbEntity
  8
VLB
100
AcDbLine
 10
10986.96401589975
 20
-616.4501450616732
 30
0.0
 11
10986.96401589975
 21
-612.3789214529931
 31
0.0
  0
LINE
  5
F358
330
2
100
AcDbEntity
  8
VLB
100
AcDbLine
 10
10986.76601233228
 20
-617.9168115815062
 30
0.0
 11
10986.76601233228
 21
-617.116811661506
 31
0.0
1001
ACAD
1000
ASC_BOUNDS
1002
{
1070
    16
1002
}
  0
LINE
  5
F359
330
2
100
AcDbEntity
  8
VLB
100
AcDbLine
 10
10986.76601233228
 20
-617.116811661506
 30
0.0
 11
10986.76601233228
 21
-617.9168115815062
 31
0.0
  0
LINE
  5
F35A
330
2
100
AcDbEntity
  8
VLB
100
AcDbLine
 10
10985.19934582079
 20
-617.116811661506
 30
0.0
 11
10985.19934582079
 21
-616.4501450616732
 31
0.0
  0
LINE
  5
F35B
330
2
100
AcDbEntity
  8
VLB
100
AcDbLine
 10
10990.26601308227
 20
-617.9168115815062
 30
0.0
 11
10990.26601308227
 21
-619.9168115815044
 31
0.0
  0
LINE
  5
F35C
330
2
100
AcDbEntity
  8
VLB
100
AcDbLine
 10
10985.93267908061
 20
-611.7834788628404
 30
0.0
 11
10986.96401589975
 21
-612.3789214529931
 31
0.0
  0
ARC
  5
F35D
330
2
100
AcDbEntity
  8
VLB
100
AcDbCircle
 10
10989.76601308227
 20
-623.9168115815098
 30
0.0
 40
4.0
100
AcDbArc
 50
0.0
 51
90.0
  0
LINE
  5
F35E
330
2
100
AcDbEntity
  8
VLB
100
AcDbLine
 10
10983.11501449101
 20
-616.4501450616732
 30
0.0
 11
10983.11501449101
 21
-612.3789214529931
 31
0.0
  0
LINE
  5
F35F
330
2
100
AcDbEntity
  8
VLB
100
AcDbLine
 10
10978.26601308227
 20
-617.116811661506
 30
0.0
 11
10979.26601308227
 21
-617.116811661506
 31
0.0
  0
LINE
  5
F360
330
2
100
AcDbEntity
  8
VLB
100
AcDbLine
 10
10978.26601308227
 20
-617.9168115815062
 30
0.0
 11
10979.26601308227
 21
-617.9168115815062
 31
0.0
  0
ARC
  5
F361
330
2
100
AcDbEntity
  8
VLB
100
AcDbCircle
 10
10979.26601308227
 20
-624.5213682693554
 30
0.0
 40
12.73788940651524
100
AcDbArc
 50
72.41204622603634
 51
94.50269236691678
  0
ARC
  5
F362
330
2
100
AcDbEntity
  8
VLB
100
AcDbCircle
 10
10985.02881367294
 20
-615.1567504874654
 30
0.0
 40
3.373271624627153
100
AcDbArc
 50
60.00000000000272
 51
124.5650930944841
  0
LINE
  5
F363
330
2
100
AcDbEntity
  8
VLB
100
AcDbLine
 10
10990.26601308227
 20
-617.9168115815062
 30
0.0
 11
10978.26601308227
 21
-617.9168115815062
 31
0.0
  0
LINE
  5
F364
330
2
100
AcDbEntity
  8
VLB
100
AcDbLine
 10
10986.96401589975
 20
-616.4501450616732
 30
0.0
 11
10978.26601308227
 21
-616.4501450616732
 31
0.0
  0
LINE
  5
F365
330
2
100
AcDbEntity
  8
VLB
100
AcDbLine
 10
10979.26601308227
 20
-617.9168115815062
 30
0.0
 11
10986.76601233228
 21
-617.9168115815062
 31
0.0
  0
LINE
  5
F366
330
2
100
AcDbEntity
  8
VLB
100
AcDbLine
 10
10979.26601308227
 20
-617.116811661506
 30
0.0
 11
10986.76601233228
 21
-617.116811661506
 31
0.0
  0
LINE
  5
F367
330
2
100
AcDbEntity
  8
VLB
100
AcDbLine
 10
10985.19934582079
 20
-617.116811661506
 30
0.0
 11
10978.26601308227
 21
-617.116811661506
 31
0.0
  0
LINE
  5
F368
330
2
100
AcDbEntity
  8
VLB
100
AcDbLine
 10
10985.93267908061
 20
-611.7834788628404
 30
0.0
 11
10978.26601308227
 21
-611.7834788628404
 31
0.0
  0
LINE
  5
F369
330
2
100
AcDbEntity
  8
VLB
100
AcDbLine
 10
10988.79545033381
 20
-610.9168115815044
 30
0.0
 11
10978.26601308227
 21
-610.916811581508
 31
0.0
  0
LINE
  5
F36A
330
2
100
AcDbEntity
  8
VLB
100
AcDbLine
 10
10993.76601308228
 20
-651.4168115815098
 30
0.0
 11
10993.76601308228
 21
-623.9168115815098
 31
0.0
  0
LINE
  5
F36B
330
2
100
AcDbEntity
  8
SPS
100
AcDbLine
 10
10958.76601308227
 20
-629.9168115815098
 30
0.0
 11
10958.76601308227
 21
-602.916811581508
 31
0.0
  0
ARC
  5
F36C
330
2
100
AcDbEntity
  8
VLB
100
AcDbCircle
 10
10954.46601308225
 20
-612.9168115815077
 30
0.0
 40
8.500000000025893
100
AcDbArc
 50
331.927513064206
 51
28.07248693579395
  0
ARC
  5
F36D
330
2
100
AcDbEntity
  8
VLB
100
AcDbCircle
 10
10963.0660130823
 20
-612.9168115815077
 30
0.0
 40
8.500000000025893
100
AcDbArc
 50
151.927513064206
 51
208.0724869357939
  0
ARC
  5
F36E
330
2
100
AcDbEntity
  8
VLB
100
AcDbCircle
 10
10988.79545033381
 20
-604.9168115815043
 30
0.0
 40
6.0
100
AcDbArc
 50
270.0
 51
315.0000000001566
  0
LINE
  5
F36F
330
2
100
AcDbEntity
  8
SPS
100
AcDbLine
 10
10979.26601308227
 20
-637.2149874883341
 30
0.0
 11
10979.26601308227
 21
-607.21857094456
 31
0.0
  0
LINE
  5
F370
330
2
100
AcDbEntity
  8
VLB
100
AcDbLine
 10
10963.26601308228
 20
-572.4923121224162
 30
0.0
 11
10963.26601308228
 21
-619.9168115815044
 31
0.0
  0
LINE
  5
F371
330
2
100
AcDbEntity
  8
VLB
100
AcDbLine
 10
10978.26601308228
 20
-572.4923121224162
 30
0.0
 11
10978.26601308227
 21
-619.9167996814992
 31
0.0
  0
LINE
  5
F372
330
2
100
AcDbEntity
  8
VLB
100
AcDbLine
 10
10961.26601308228
 20
-572.4923121224162
 30
0.0
 11
10961.26601308228
 21
-608.9168115815098
 31
0.0
  0
LINE
  5
F373
330
2
100
AcDbEntity
  8
VLB
100
AcDbLine
 10
10942.24528714013
 20
-312.9167417946553
 30
0.0
 11
10772.68866281308
 21
-19.23605370034033
 31
0.0
  0
LINE
  5
F374
330
2
100
AcDbEntity
  8
VLB
100
AcDbLine
 10
10561.39998767849
 20
-312.9167417946553
 30
0.0
 11
10985.13203848605
 21
-312.9167417946553
 31
0.0
  0
LINE
  5
F375
330
2
100
AcDbEntity
  8
VLB
100
AcDbLine
 10
10943.39998767849
 20
-312.9167417946553
 30
0.0
 11
10773.26601308227
 21
-18.23605370040218
 31
0.0
  0
LINE
  5
F376
330
2
100
AcDbEntity
  8
VLB
100
AcDbLine
 10
10603.13203848603
 20
-312.9167417946553
 30
0.0
 11
10773.26601308227
 21
-18.23605370034033
 31
0.0
  0
ELLIPSE
  5
F377
330
2
100
AcDbEntity
  8
VLB
100
AcDbEllipse
 10
10608.26601308227
 20
-503.8867330380833
 30
0.0
 11
0.0000000000000013
 21
2.708364779654402
 31
0.0
210
0.0
220
0.0
230
1.0
 40
0.9415275295097664
 41
0.0
 42
6.283185307179586
  0
LINE
  5
F378
330
2
100
AcDbEntity
  8
SPS
100
AcDbLine
 10
10598.26601308228
 20
-503.8867330380833
 30
0.0
 11
10618.26601308227
 21
-503.8867330380833
 31
0.0
  0
HATCH
  5
F379
330
2
100
AcDbEntity
  8
VLB
100
AcDbHatch
 10
0.0
 20
0.0
 30
0.0
210
0.0
220
0.0
230
1.0
  2
SOLID
 70
     1
 71
     0
 91
        2
 92
        5
 93
        2
 72
     3
 10
10578.26601308226
 20
-395.2369497033302
 11
-1.5
 21
0.0000000000000007
 40
0.837082593832747
 50
90.0
 51
270.0
 73
     1
 72
     1
 10
10578.26601308226
 20
-393.9813258125811
 11
10578.26601308226
 21
-396.4925735940796
 97
        0
 92
        5
 93
        2
 72
     3
 10
10578.26601308226
 20
-395.2369497033302
 11
-1.5
 21
0.0000000000000007
 40
0.837082593832747
 50
270.0
 51
450.0
 73
     1
 72
     1
 10
10578.26601308226
 20
-396.4925735940794
 11
10578.26601308226
 21
-393.9813258125813
 97
        0
 75
     0
 76
     1
 47
0.0516579537025894
 98
        2
 10
10579.09721817102
 20
-395.4788996285767
 10
10577.80470388628
 20
-395.5305576342031
  0
ELLIPSE
  5
F37A
330
2
100
AcDbEntity
  8
VLB
100
AcDbEllipse
 10
10578.26601308226
 20
-395.2369497033302
 30
0.0
 11
-1.5
 21
0.0000000000000007
 31
0.0
210
0.0
220
0.0
230
1.0
 40
0.837082593832747
 41
0.0
 42
6.283185307179586
  0
LINE
  5
F37B
330
2
100
AcDbEntity
  8
VLB
100
AcDbLine
 10
10583.26601308226
 20
-396.7369497033012
 30
0.0
 11
10583.26601308226
 21
-395.7369497033303
 31
0.0
  0
LINE
  5
F37C
330
2
100
AcDbEntity
  8
VLB
100
AcDbLine
 10
10573.26601308226
 20
-395.7369497033303
 30
0.0
 11
10573.26601308226
 21
-396.7369497033012
 31
0.0
  0
ELLIPSE
  5
F37D
330
2
100
AcDbEntity
  8
VLB
100
AcDbEllipse
 10
10578.26601308226
 20
-396.7369497033012
 30
0.0
 11
5.0
 21
-0.0000000000000024
 31
0.0
210
0.0
220
0.0
230
1.0
 40
0.7660254037896266
 41
3.141592653589793
 42
6.283185307179586
  0
ELLIPSE
  5
F37E
330
2
100
AcDbEntity
  8
VLB
100
AcDbEllipse
 10
10578.26601308226
 20
-395.7369497033303
 30
0.0
 11
-5.0
 21
0.0000000000000024
 31
0.0
210
0.0
220
0.0
230
1.0
 40
0.8660254037843287
 41
0.0
 42
6.283185307179586
  0
LINE
  5
F37F
330
2
100
AcDbEntity
  8
SPS
100
AcDbLine
 10
10578.26601308226
 20
-403.5670965813149
 30
0.0
 11
10578.26601308226
 21
-389.9068028252857
 31
0.0
  0
LINE
  5
F380
330
2
100
AcDbEntity
  8
SPS
100
AcDbLine
 10
10570.26601308226
 20
-396.7369497033012
 30
0.0
 11
10586.26601308226
 21
-396.7369497033012
 31
0.0
  0
LINE
  5
F381
330
2
100
AcDbEntity
  8
VLB
100
AcDbLine
 10
10550.72551972868
 20
-329.4054626275062
 30
0.0
 11
10555.72551972868
 21
-320.74520858966
 31
0.0
  0
LINE
  5
F382
330
2
100
AcDbEntity
  8
VLB
100
AcDbLine
 10
10603.13203848606
 20
-312.9167417946607
 30
0.0
 11
10562.55468821687
 21
-312.9167417946553
 31
0.0
  0
ARC
  5
F383
330
2
100
AcDbEntity
  8
VLB
100
AcDbCircle
 10
10563.6178245741
 20
-331.0753356085782
 30
0.0
 40
12.99999999999925
100
AcDbArc
 50
127.3801350518757
 51
172.6198649480691
  0
LINE
  5
F384
330
2
100
AcDbEntity
  8
VLB
100
AcDbLine
 10
10555.72551972868
 20
-320.7452085896582
 30
0.0
 11
10556.59154513246
 21
-321.2452085896545
 31
0.0
  0
LINE
  5
F385
330
2
100
AcDbEntity
  8
VLB
100
AcDbLine
 10
10550.72551972868
 20
-329.4054626275026
 30
0.0
 11
10551.59154513246
 21
-329.905462627499
 31
0.0
  0
LINE
  5
F386
330
2
100
AcDbEntity
  8
SPS
100
AcDbLine
 10
10558.16186453021
 20
-327.9253356085571
 30
0.0
 11
10551.11241774341
 21
-323.8553356085592
 31
0.0
  0
LINE
  5
F387
330
2
100
AcDbEntity
  8
VLB
100
AcDbLine
 10
10661.0752196827
 20
-210.5562080098877
 30
0.0
 11
10656.07521968269
 21
-219.2164620477449
 31
0.0
  0
ARC
  5
F388
330
2
100
AcDbEntity
  8
VLB
100
AcDbCircle
 10
10668.9675245281
 20
-220.8863350288205
 30
0.0
 40
12.99999999999925
100
AcDbArc
 50
127.3801350518757
 51
172.6198649480691
  0
LINE
  5
F389
330
2
100
AcDbEntity
  8
VLB
100
AcDbLine
 10
10661.07521968268
 20
-210.5562080099005
 30
0.0
 11
10661.94124508647
 21
-211.0562080098968
 31
0.0
  0
LINE
  5
F38A
330
2
100
AcDbEntity
  8
VLB
100
AcDbLine
 10
10656.07521968269
 20
-219.2164620477449
 30
0.0
 11
10656.94124508647
 21
-219.7164620477412
 31
0.0
  0
LINE
  5
F38B
330
2
100
AcDbEntity
  8
SPS
100
AcDbLine
 10
10655.11111806754
 20
-212.8863350288172
 30
0.0
 11
10664.63739750917
 21
-218.3863350288172
 31
0.0
  0
ELLIPSE
  5
F38C
330
2
100
AcDbEntity
  8
VLB
100
AcDbEllipse
 10
10773.26601308227
 20
-395.7369497033303
 30
0.0
 11
-5.0
 21
0.0000000000000024
 31
0.0
210
0.0
220
0.0
230
1.0
 40
0.8660254037843287
 41
0.0
 42
6.283185307179586
  0
ELLIPSE
  5
F38D
330
2
100
AcDbEntity
  8
VLB
100
AcDbEllipse
 10
10773.26601308227
 20
-396.7369497033012
 30
0.0
 11
5.0
 21
-0.0000000000000024
 31
0.0
210
0.0
220
0.0
230
1.0
 40
0.7660254037896266
 41
3.141592653589793
 42
6.283185307179586
  0
LINE
  5
F38E
330
2
100
AcDbEntity
  8
VLB
100
AcDbLine
 10
10768.26601308227
 20
-395.7369497033303
 30
0.0
 11
10768.26601308227
 21
-396.7369497033012
 31
0.0
  0
LINE
  5
F38F
330
2
100
AcDbEntity
  8
VLB
100
AcDbLine
 10
10778.26601308227
 20
-396.7369497033012
 30
0.0
 11
10778.26601308227
 21
-395.7369497033303
 31
0.0
  0
LINE
  5
F390
330
2
100
AcDbEntity
  8
SPS
100
AcDbLine
 10
10765.26601308227
 20
-396.7369497033012
 30
0.0
 11
10781.26601308228
 21
-396.7369497033012
 31
0.0
  0
ELLIPSE
  5
F391
330
2
100
AcDbEntity
  8
VLB
100
AcDbEllipse
 10
10773.26601308227
 20
-395.2369497033302
 30
0.0
 11
-1.5
 21
0.0000000000000007
 31
0.0
210
0.0
220
0.0
230
1.0
 40
0.837082593832747
 41
0.0
 42
6.283185307179586
  0
LINE
  5
F392
330
2
100
AcDbEntity
  8
SPS
100
AcDbLine
 10
10773.26601308227
 20
-403.5670965813149
 30
0.0
 11
10773.26601308227
 21
-389.9068028252857
 31
0.0
  0
HATCH
  5
F393
330
2
100
AcDbEntity
  8
VLB
100
AcDbHatch
 10
0.0
 20
0.0
 30
0.0
210
0.0
220
0.0
230
1.0
  2
SOLID
 70
     1
 71
     0
 91
        2
 92
        5
 93
        2
 72
     3
 10
10773.26601308227
 20
-395.2369497033302
 11
-1.5
 21
0.0000000000000007
 40
0.837082593832747
 50
90.0
 51
270.0
 73
     1
 72
     1
 10
10773.26601308227
 20
-393.9813258125811
 11
10773.26601308227
 21
-396.4925735940796
 97
        0
 92
        5
 93
        2
 72
     3
 10
10773.26601308227
 20
-395.2369497033302
 11
-1.5
 21
0.0000000000000007
 40
0.837082593832747
 50
270.0
 51
450.0
 73
     1
 72
     1
 10
10773.26601308227
 20
-396.4925735940794
 11
10773.26601308227
 21
-393.9813258125813
 97
        0
 75
     0
 76
     1
 47
0.0516579537025894
 98
        2
 10
10774.09721817103
 20
-395.4788996285767
 10
10772.80470388629
 20
-395.5305576342031
  0
ELLIPSE
  5
F394
330
2
100
AcDbEntity
  8
VLB
100
AcDbEllipse
 10
10781.88603653362
 20
-52.16637228054583
 30
0.0
 11
-5.0
 21
0.0000000000000024
 31
0.0
210
0.0
220
0.0
230
1.0
 40
0.8660254037843287
 41
0.0
 42
6.283185307179586
  0
ELLIPSE
  5
F395
330
2
100
AcDbEntity
  8
VLB
100
AcDbEllipse
 10
10781.88603653362
 20
-53.16637228051672
 30
0.0
 11
5.0
 21
-0.0000000000000024
 31
0.0
210
0.0
220
0.0
230
1.0
 40
0.7660254037896266
 41
3.141592653589793
 42
6.283185307179586
  0
LINE
  5
F396
330
2
100
AcDbEntity
  8
VLB
100
AcDbLine
 10
10776.88603653362
 20
-52.16637228054583
 30
0.0
 11
10776.88603653362
 21
-53.16637228051672
 31
0.0
  0
LINE
  5
F397
330
2
100
AcDbEntity
  8
VLB
100
AcDbLine
 10
10786.88603653362
 20
-53.16637228051672
 30
0.0
 11
10786.88603653362
 21
-52.16637228054583
 31
0.0
  0
LINE
  5
F398
330
2
100
AcDbEntity
  8
SPS
100
AcDbLine
 10
10773.88603653362
 20
-53.16637228051672
 30
0.0
 11
10789.88603653362
 21
-53.16637228051672
 31
0.0
  0
ELLIPSE
  5
F399
330
2
100
AcDbEntity
  8
VLB
100
AcDbEllipse
 10
10781.88603653362
 20
-51.66637228054582
 30
0.0
 11
-1.5
 21
0.0000000000000007
 31
0.0
210
0.0
220
0.0
230
1.0
 40
0.837082593832747
 41
0.0
 42
6.283185307179586
  0
LINE
  5
F39A
330
2
100
AcDbEntity
  8
SPS
100
AcDbLine
 10
10781.88603653362
 20
-59.99651915853224
 30
0.0
 11
10781.88603653362
 21
-46.33622540250121
 31
0.0
  0
HATCH
  5
F39B
330
2
100
AcDbEntity
  8
VLB
100
AcDbHatch
 10
0.0
 20
0.0
 30
0.0
210
0.0
220
0.0
230
1.0
  2
SOLID
 70
     1
 71
     0
 91
        2
 92
        5
 93
        2
 72
     3
 10
10781.88603653362
 20
-51.66637228054582
 11
-1.5
 21
0.0000000000000007
 40
0.837082593832747
 50
90.0
 51
270.0
 73
     1
 72
     1
 10
10781.88603653362
 20
-50.41074838979671
 11
10781.88603653362
 21
-52.92199617129518
 97
        0
 92
        5
 93
        2
 72
     3
 10
10781.88603653362
 20
-51.66637228054582
 11
-1.5
 21
0.0000000000000007
 40
0.837082593832747
 50
270.0
 51
450.0
 73
     1
 72
     1
 10
10781.88603653362
 20
-52.92199617129495
 11
10781.88603653362
 21
-50.41074838979693
 97
        0
 75
     0
 76
     1
 47
0.0516579537025894
 98
        2
 10
10782.71724162238
 20
-51.90832220579228
 10
10781.42472733764
 20
-51.95998021142054
  0
LINE
  5
F39C
330
2
100
AcDbEntity
  8
VLB
100
AcDbLine
 10
10755.01566874458
 20
-47.84657734888765
 30
0.0
 11
10750.01566874457
 21
-56.5068313867448
 31
0.0
  0
LINE
  5
F39D
330
2
100
AcDbEntity
  8
VLB
100
AcDbLine
 10
10755.01566874456
 20
-47.84657734889856
 30
0.0
 11
10755.88169414834
 21
-48.34657734889493
 31
0.0
  0
LINE
  5
F39E
330
2
100
AcDbEntity
  8
VLB
100
AcDbLine
 10
10750.01566874456
 20
-56.50683138674299
 30
0.0
 11
10750.88169414834
 21
-57.00683138673935
 31
0.0
  0
LINE
  5
F39F
330
2
100
AcDbEntity
  8
SPS
100
AcDbLine
 10
10749.05156712942
 20
-50.17670436781713
 30
0.0
 11
10758.57784657105
 21
-55.67670436781714
 31
0.0
  0
ARC
  5
F3A0
330
2
100
AcDbEntity
  8
VLB
100
AcDbCircle
 10
10762.90797358998
 20
-58.17670436781873
 30
0.0
 40
12.99999999999925
100
AcDbArc
 50
127.3801350518757
 51
172.6198649480691
  0
LINE
  5
F3A1
330
2
100
AcDbEntity
  8
VLB
100
AcDbLine
 10
10943.39998767849
 20
-312.9167417946571
 30
0.0
 11
10984.26601308227
 21
-312.9167417946553
 31
0.0
  0
ELLIPSE
  5
F3A2
330
2
100
AcDbEntity
  8
VLB
100
AcDbEllipse
 10
10938.26601308228
 20
-503.8867330380942
 30
0.0
 11
0.0000000000000013
 21
2.708364779654402
 31
0.0
210
0.0
220
0.0
230
1.0
 40
0.9415275295097664
 41
0.0
 42
6.283185307179586
  0
LINE
  5
F3A3
330
2
100
AcDbEntity
  8
SPS
100
AcDbLine
 10
10948.26601308228
 20
-503.8867330380942
 30
0.0
 11
10928.26601308228
 21
-503.8867330380924
 31
0.0
  0
LINE
  5
F3A4
330
2
100
AcDbEntity
  8
SPS
100
AcDbLine
 10
10867.8264855955
 20
-215.8760029415186
 30
0.0
 11
10883.8264855955
 21
-215.8760029415186
 31
0.0
  0
ELLIPSE
  5
F3A5
330
2
100
AcDbEntity
  8
VLB
100
AcDbEllipse
 10
10875.8264855955
 20
-214.8760029415477
 30
0.0
 11
-5.0
 21
0.0000000000000024
 31
0.0
210
0.0
220
0.0
230
1.0
 40
0.8660254037843287
 41
0.0
 42
6.283185307179586
  0
ELLIPSE
  5
F3A6
330
2
100
AcDbEntity
  8
VLB
100
AcDbEllipse
 10
10875.8264855955
 20
-215.8760029415186
 30
0.0
 11
5.0
 21
-0.0000000000000024
 31
0.0
210
0.0
220
0.0
230
1.0
 40
0.7660254037896266
 41
3.141592653589793
 42
6.283185307179586
  0
LINE
  5
F3A7
330
2
100
AcDbEntity
  8
VLB
100
AcDbLine
 10
10870.8264855955
 20
-214.8760029415477
 30
0.0
 11
10870.8264855955
 21
-215.8760029415186
 31
0.0
  0
LINE
  5
F3A8
330
2
100
AcDbEntity
  8
VLB
100
AcDbLine
 10
10880.8264855955
 20
-215.8760029415186
 30
0.0
 11
10880.8264855955
 21
-214.8760029415477
 31
0.0
  0
ELLIPSE
  5
F3A9
330
2
100
AcDbEntity
  8
VLB
100
AcDbEllipse
 10
10875.8264855955
 20
-214.3760029415477
 30
0.0
 11
-1.5
 21
0.0000000000000007
 31
0.0
210
0.0
220
0.0
230
1.0
 40
0.837082593832747
 41
0.0
 42
6.283185307179586
  0
LINE
  5
F3AA
330
2
100
AcDbEntity
  8
SPS
100
AcDbLine
 10
10875.8264855955
 20
-222.7061498195341
 30
0.0
 11
10875.8264855955
 21
-209.0458560635031
 31
0.0
  0
HATCH
  5
F3AB
330
2
100
AcDbEntity
  8
VLB
100
AcDbHatch
 10
0.0
 20
0.0
 30
0.0
210
0.0
220
0.0
230
1.0
  2
SOLID
 70
     1
 71
     0
 91
        2
 92
        5
 93
        2
 72
     3
 10
10875.8264855955
 20
-214.3760029415477
 11
-1.5
 21
0.0000000000000007
 40
0.837082593832747
 50
90.0
 51
270.0
 73
     1
 72
     1
 10
10875.8264855955
 20
-213.1203790507986
 11
10875.8264855955
 21
-215.6316268322971
 97
        0
 92
        5
 93
        2
 72
     3
 10
10875.8264855955
 20
-214.3760029415477
 11
-1.5
 21
0.0000000000000007
 40
0.837082593832747
 50
270.0
 51
450.0
 73
     1
 72
     1
 10
10875.8264855955
 20
-215.6316268322969
 11
10875.8264855955
 21
-213.1203790507987
 97
        0
 75
     0
 76
     1
 47
0.0516579537025894
 98
        2
 10
10876.65769068426
 20
-214.6179528667942
 10
10875.36517639952
 20
-214.6696108724224
  0
ELLIPSE
  5
F3AC
330
2
100
AcDbEntity
  8
VLB
100
AcDbEllipse
 10
10968.26601308226
 20
-395.7369497033303
 30
0.0
 11
-5.0
 21
0.0000000000000024
 31
0.0
210
0.0
220
0.0
230
1.0
 40
0.8660254037843287
 41
0.0
 42
6.283185307179586
  0
ELLIPSE
  5
F3AD
330
2
100
AcDbEntity
  8
VLB
100
AcDbEllipse
 10
10968.26601308226
 20
-396.7369497033012
 30
0.0
 11
5.0
 21
-0.0000000000000024
 31
0.0
210
0.0
220
0.0
230
1.0
 40
0.7660254037896266
 41
3.141592653589793
 42
6.283185307179586
  0
LINE
  5
F3AE
330
2
100
AcDbEntity
  8
VLB
100
AcDbLine
 10
10963.26601308226
 20
-395.7369497033303
 30
0.0
 11
10963.26601308226
 21
-396.7369497033012
 31
0.0
  0
LINE
  5
F3AF
330
2
100
AcDbEntity
  8
VLB
100
AcDbLine
 10
10973.26601308226
 20
-396.7369497033012
 30
0.0
 11
10973.26601308226
 21
-395.7369497033303
 31
0.0
  0
LINE
  5
F3B0
330
2
100
AcDbEntity
  8
SPS
100
AcDbLine
 10
10960.26601308226
 20
-396.7369497033012
 30
0.0
 11
10976.26601308226
 21
-396.7369497033012
 31
0.0
  0
ELLIPSE
  5
F3B1
330
2
100
AcDbEntity
  8
VLB
100
AcDbEllipse
 10
10968.26601308226
 20
-395.2369497033302
 30
0.0
 11
-1.5
 21
0.0000000000000007
 31
0.0
210
0.0
220
0.0
230
1.0
 40
0.837082593832747
 41
0.0
 42
6.283185307179586
  0
LINE
  5
F3B2
330
2
100
AcDbEntity
  8
SPS
100
AcDbLine
 10
10968.26601308226
 20
-403.5670965813166
 30
0.0
 11
10968.26601308226
 21
-389.9068028252857
 31
0.0
  0
HATCH
  5
F3B3
330
2
100
AcDbEntity
  8
VLB
100
AcDbHatch
 10
0.0
 20
0.0
 30
0.0
210
0.0
220
0.0
230
1.0
  2
SOLID
 70
     1
 71
     0
 91
        2
 92
        5
 93
        2
 72
     3
 10
10968.26601308226
 20
-395.2369497033302
 11
-1.5
 21
0.0000000000000007
 40
0.837082593832747
 50
90.0
 51
270.0
 73
     1
 72
     1
 10
10968.26601308226
 20
-393.9813258125811
 11
10968.26601308226
 21
-396.4925735940796
 97
        0
 92
        5
 93
        2
 72
     3
 10
10968.26601308226
 20
-395.2369497033302
 11
-1.5
 21
0.0000000000000007
 40
0.837082593832747
 50
270.0
 51
450.0
 73
     1
 72
     1
 10
10968.26601308226
 20
-396.4925735940794
 11
10968.26601308226
 21
-393.9813258125813
 97
        0
 75
     0
 76
     1
 47
0.0516579537025894
 98
        2
 10
10969.09721817102
 20
-395.4788996285767
 10
10967.80470388628
 20
-395.5305576342031
  0
HATCH
  5
F3B4
330
2
100
AcDbEntity
  8
VLB
100
AcDbHatch
 10
0.0
 20
0.0
 30
0.0
210
0.0
220
0.0
230
1.0
  2
SOLID
 70
     1
 71
     0
 91
        2
 92
        5
 93
        2
 72
     3
 10
11048.3677658145
 20
-440.9442343811203
 11
-1.5
 21
0.0000000000000007
 40
0.837082593832747
 50
90.0
 51
270.0
 73
     1
 72
     1
 10
11048.3677658145
 20
-439.6886104903712
 11
11048.3677658145
 21
-442.1998582718697
 97
        0
 92
        5
 93
        2
 72
     3
 10
11048.3677658145
 20
-440.9442343811203
 11
-1.5
 21
0.0000000000000007
 40
0.837082593832747
 50
270.0
 51
450.0
 73
     1
 72
     1
 10
11048.3677658145
 20
-442.1998582718677
 11
11048.3677658145
 21
-439.6886104903695
 97
        0
 75
     0
 76
     1
 47
0.0516579537025894
 98
        2
 10
11049.19897090326
 20
-441.1861843063668
 10
11047.90645661852
 20
-441.2378423119933
  0
LINE
  5
F3B5
330
2
100
AcDbEntity
  8
SPS
100
AcDbLine
 10
11048.3677658145
 20
-449.274381259105
 30
0.0
 11
11048.3677658145
 21
-435.6140875030739
 31
0.0
  0
ELLIPSE
  5
F3B6
330
2
100
AcDbEntity
  8
VLB
100
AcDbEllipse
 10
11048.3677658145
 20
-440.9442343811203
 30
0.0
 11
-1.5
 21
0.0000000000000007
 31
0.0
210
0.0
220
0.0
230
1.0
 40
0.837082593832747
 41
0.0
 42
6.283185307179586
  0
LINE
  5
F3B7
330
2
100
AcDbEntity
  8
VLB
100
AcDbLine
 10
11053.3677658145
 20
-442.4442343810894
 30
0.0
 11
11053.3677658145
 21
-441.4442343811185
 31
0.0
  0
LINE
  5
F3B8
330
2
100
AcDbEntity
  8
VLB
100
AcDbLine
 10
11043.3677658145
 20
-441.4442343811185
 30
0.0
 11
11043.3677658145
 21
-442.4442343810894
 31
0.0
  0
LINE
  5
F3B9
330
2
100
AcDbEntity
  8
SPS
100
AcDbLine
 10
11040.3677658145
 20
-442.4442343810894
 30
0.0
 11
11056.3677658145
 21
-442.4442343810894
 31
0.0
  0
ELLIPSE
  5
F3BA
330
2
100
AcDbEntity
  8
VLB
100
AcDbEllipse
 10
11048.3677658145
 20
-442.4442343810894
 30
0.0
 11
5.0
 21
-0.0000000000000024
 31
0.0
210
0.0
220
0.0
230
1.0
 40
0.7660254037896266
 41
3.141592653589793
 42
6.283185307179586
  0
ELLIPSE
  5
F3BB
330
2
100
AcDbEntity
  8
VLB
100
AcDbEllipse
 10
11048.3677658145
 20
-441.4442343811185
 30
0.0
 11
-5.0
 21
0.0000000000000024
 31
0.0
210
0.0
220
0.0
230
1.0
 40
0.8660254037843287
 41
0.0
 42
6.283185307179586
  0
LINE
  5
F3BC
330
2
100
AcDbEntity
  8
VLB
100
AcDbLine
 10
11031.60300835485
 20
-391.4068226844062
 30
0.0
 11
11030.73698295106
 21
-391.9068226844026
 31
0.0
  0
LINE
  5
F3BD
330
2
100
AcDbEntity
  8
VLB
100
AcDbLine
 10
11036.60300835485
 20
-400.0670767222507
 30
0.0
 11
11035.73698295106
 21
-400.567076722247
 31
0.0
  0
LINE
  5
F3BE
330
2
100
AcDbEntity
  8
SPS
100
AcDbLine
 10
11027.17480512455
 20
-399.7369497032993
 30
0.0
 11
11037.56710996997
 21
-393.7369497032993
 31
0.0
  0
LINE
  5
F3BF
330
2
100
AcDbEntity
  8
SPS
100
AcDbLine
 10
11027.17480512459
 20
-399.7369497032993
 30
0.0
 11
11037.56710997
 21
-393.7369497032993
 31
0.0
  0
ARC
  5
F3C0
330
2
100
AcDbEntity
  8
VLB
100
AcDbCircle
 10
11023.71070350943
 20
-401.7369497033265
 30
0.0
 40
12.99999999999925
100
AcDbArc
 50
7.380135051930912
 51
52.61986494812425
  0
HATCH
  5
F3C1
330
2
100
AcDbEntity
  8
VLB
100
AcDbHatch
 10
0.0
 20
0.0
 30
0.0
210
0.0
220
0.0
230
1.0
  2
SOLID
 70
     1
 71
     0
 91
        2
 92
        5
 93
        2
 72
     3
 10
10981.76776581449
 20
-325.589650597032
 11
-1.5
 21
0.0000000000000007
 40
0.837082593832747
 50
90.0
 51
270.0
 73
     1
 72
     1
 10
10981.76776581449
 20
-324.3340267062829
 11
10981.76776581449
 21
-326.8452744877813
 97
        0
 92
        5
 93
        2
 72
     3
 10
10981.76776581449
 20
-325.589650597032
 11
-1.5
 21
0.0000000000000007
 40
0.837082593832747
 50
270.0
 51
450.0
 73
     1
 72
     1
 10
10981.76776581449
 20
-326.8452744877811
 11
10981.76776581449
 21
-324.3340267062829
 97
        0
 75
     0
 76
     1
 47
0.0516579537025894
 98
        2
 10
10982.59897090325
 20
-325.8316005222784
 10
10981.30645661851
 20
-325.8832585279049
  0
LINE
  5
F3C2
330
2
100
AcDbEntity
  8
SPS
100
AcDbLine
 10
10981.76776581449
 20
-333.9197974750165
 30
0.0
 11
10981.76776581449
 21
-320.2595037189873
 31
0.0
  0
ELLIPSE
  5
F3C3
330
2
100
AcDbEntity
  8
VLB
100
AcDbEllipse
 10
10981.76776581449
 20
-325.589650597032
 30
0.0
 11
-1.5
 21
0.0000000000000007
 31
0.0
210
0.0
220
0.0
230
1.0
 40
0.837082593832747
 41
0.0
 42
6.283185307179586
  0
LINE
  5
F3C4
330
2
100
AcDbEntity
  8
VLB
100
AcDbLine
 10
10986.76776581449
 20
-327.089650597001
 30
0.0
 11
10986.76776581449
 21
-326.0896505970301
 31
0.0
  0
LINE
  5
F3C5
330
2
100
AcDbEntity
  8
VLB
100
AcDbLine
 10
10976.76776581449
 20
-326.0896505970301
 30
0.0
 11
10976.76776581449
 21
-327.089650597001
 31
0.0
  0
LINE
  5
F3C6
330
2
100
AcDbEntity
  8
SPS
100
AcDbLine
 10
10973.76776581449
 20
-327.089650597001
 30
0.0
 11
10989.76776581449
 21
-327.089650597001
 31
0.0
  0
ELLIPSE
  5
F3C7
330
2
100
AcDbEntity
  8
VLB
100
AcDbEllipse
 10
10981.76776581449
 20
-327.089650597001
 30
0.0
 11
5.0
 21
-0.0000000000000024
 31
0.0
210
0.0
220
0.0
230
1.0
 40
0.7660254037896266
 41
3.141592653589793
 42
6.283185307179586
  0
ELLIPSE
  5
F3C8
330
2
100
AcDbEntity
  8
VLB
100
AcDbEllipse
 10
10981.76776581449
 20
-326.0896505970301
 30
0.0
 11
-5.0
 21
0.0000000000000024
 31
0.0
210
0.0
220
0.0
230
1.0
 40
0.8660254037843287
 41
0.0
 42
6.283185307179586
  0
HATCH
  5
F3C9
330
2
100
AcDbEntity
  8
VLB
100
AcDbHatch
 10
0.0
 20
0.0
 30
0.0
210
0.0
220
0.0
230
1.0
  2
SOLID
 70
     1
 71
     0
 91
        2
 92
        5
 93
        2
 72
     3
 10
11114.9677658145
 20
-556.2988181652051
 11
-1.5
 21
0.0000000000000007
 40
0.837082593832747
 50
90.0
 51
270.0
 73
     1
 72
     1
 10
11114.9677658145
 20
-555.0431942744542
 11
11114.9677658145
 21
-557.5544420559526
 97
        0
 92
        5
 93
        2
 72
     3
 10
11114.9677658145
 20
-556.2988181652051
 11
-1.5
 21
0.0000000000000007
 40
0.837082593832747
 50
270.0
 51
450.0
 73
     1
 72
     1
 10
11114.9677658145
 20
-557.5544420559524
 11
11114.9677658145
 21
-555.0431942744542
 97
        0
 75
     0
 76
     1
 47
0.0516579537025894
 98
        2
 10
11115.79897090326
 20
-556.5407680904516
 10
11114.50645661852
 20
-556.592426096078
  0
LINE
  5
F3CA
330
2
100
AcDbEntity
  8
SPS
100
AcDbLine
 10
11114.9677658145
 20
-564.6289650431897
 30
0.0
 11
11114.9677658145
 21
-550.9686712871586
 31
0.0
  0
ELLIPSE
  5
F3CB
330
2
100
AcDbEntity
  8
VLB
100
AcDbEllipse
 10
11114.9677658145
 20
-556.2988181652051
 30
0.0
 11
-1.5
 21
0.0000000000000007
 31
0.0
210
0.0
220
0.0
230
1.0
 40
0.837082593832747
 41
0.0
 42
6.283185307179586
  0
LINE
  5
F3CC
330
2
100
AcDbEntity
  8
VLB
100
AcDbLine
 10
11119.9677658145
 20
-557.7988181651742
 30
0.0
 11
11119.9677658145
 21
-556.7988181652033
 31
0.0
  0
LINE
  5
F3CD
330
2
100
AcDbEntity
  8
VLB
100
AcDbLine
 10
11109.9677658145
 20
-556.7988181652033
 30
0.0
 11
11109.9677658145
 21
-557.7988181651742
 31
0.0
  0
LINE
  5
F3CE
330
2
100
AcDbEntity
  8
SPS
100
AcDbLine
 10
11106.9677658145
 20
-557.7988181651742
 30
0.0
 11
11122.9677658145
 21
-557.7988181651742
 31
0.0
  0
ELLIPSE
  5
F3CF
330
2
100
AcDbEntity
  8
VLB
100
AcDbEllipse
 10
11114.9677658145
 20
-557.7988181651742
 30
0.0
 11
5.0
 21
-0.0000000000000024
 31
0.0
210
0.0
220
0.0
230
1.0
 40
0.7660254037896266
 41
3.141592653589793
 42
6.283185307179586
  0
ELLIPSE
  5
F3D0
330
2
100
AcDbEntity
  8
VLB
100
AcDbEllipse
 10
11114.9677658145
 20
-556.7988181652033
 30
0.0
 11
-5.0
 21
0.0000000000000024
 31
0.0
210
0.0
220
0.0
230
1.0
 40
0.8660254037843287
 41
0.0
 42
6.283185307179586
  0
ARC
  5
F3D1
330
2
100
AcDbEntity
  8
VLB
100
AcDbCircle
 10
11133.26601308227
 20
-571.4923121224162
 30
0.0
 40
1.0
100
AcDbArc
 50
270.0
 51
29.99999999999903
  0
LINE
  5
F3D2
330
2
100
AcDbEntity
  8
VLB
100
AcDbLine
 10
11102.47042756593
 20
-504.3103214109375
 30
0.0
 11
11097.98542889871
 21
-496.5419129424605
 31
0.0
  0
LINE
  5
F3D3
330
2
100
AcDbEntity
  8
VLB
100
AcDbLine
 10
11098.6603990886
 20
-507.3111899073499
 30
0.0
 11
11102.47042029089
 21
-505.1115018589714
 31
0.0
  0
LINE
  5
F3D4
330
2
100
AcDbEntity
  8
VLB
100
AcDbLine
 10
11097.36569149468
 20
-505.0686435471195
 30
0.0
 11
11101.17571269698
 21
-502.8689554987484
 31
0.0
  0
ARC
  5
F3D5
330
2
100
AcDbEntity
  8
VLB
100
AcDbCircle
 10
11092.8064428931
 20
-504.7108238821015
 30
0.0
 40
8.569548190628291
100
AcDbArc
 50
12.41152595721495
 51
47.58743350517304
  0
ARC
  5
F3D6
330
2
100
AcDbEntity
  8
VLB
100
AcDbCircle
 10
11096.32409497917
 20
-498.2032166910973
 30
0.0
 40
2.269403731244178
100
AcDbArc
 50
355.434386636633
 51
59.99947973114274
  0
LINE
  5
F3D7
330
2
100
AcDbEntity
  8
VLB
100
AcDbLine
 10
11098.83098462752
 20
-507.6066589238305
 30
0.0
 11
11097.85993349286
 21
-508.1672836257618
 31
0.0
  0
LINE
  5
F3D8
330
2
100
AcDbEntity
  8
VLB
100
AcDbLine
 10
11097.98542889871
 20
-496.5419129424605
 30
0.0
 11
11097.29158991521
 21
-496.1413164180682
 31
0.0
  0
LINE
  5
F3D9
330
2
100
AcDbEntity
  8
VLB
100
AcDbLine
 10
11102.47042756593
 20
-504.3103214109375
 30
0.0
 11
11102.47042029089
 21
-505.1115018589714
 31
0.0
  0
ARC
  5
F3DA
330
2
100
AcDbEntity
  8
VLB
100
AcDbCircle
 10
11100.20101831313
 20
-504.9183857008952
 30
0.0
 40
2.269403731244178
100
AcDbArc
 50
359.9994797311371
 51
64.5645728255031
  0
LINE
  5
F3DB
330
2
100
AcDbEntity
  8
VLB
100
AcDbLine
 10
11093.31098571448
 20
-498.0455398502761
 30
0.0
 11
11092.33993457982
 21
-498.6061645522002
 31
0.0
  0
LINE
  5
F3DC
330
2
100
AcDbEntity
  8
VLB
100
AcDbLine
 10
11093.48156871293
 20
-498.3410044664431
 30
0.0
 11
11097.29158991521
 21
-496.1413164180682
 31
0.0
  0
LINE
  5
F3DD
330
2
100
AcDbEntity
  8
VLB
100
AcDbLine
 10
11098.83098462752
 20
-507.6066589238305
 30
0.0
 11
11093.31098571448
 21
-498.0455398502797
 31
0.0
  0
LINE
  5
F3DE
330
2
100
AcDbEntity
  8
VLB
100
AcDbLine
 10
11094.77627630685
 20
-500.5835508266698
 30
0.0
 11
11098.58629750914
 21
-498.383862778295
 31
0.0
  0
LINE
  5
F3DF
330
2
100
AcDbEntity
  8
VLB
100
AcDbLine
 10
11092.33993457982
 20
-498.6061645522002
 30
0.0
 11
11097.85993349286
 21
-508.1672836257618
 31
0.0
  0
VIEWPORT
  5
51E
330
7
100
AcDbEntity
 67
     1
  8
0
100
AcDbViewport
 10
222.9989965408922
 20
370.0301834590798
 30
0.0
 40
1687.01080625753
 41
983.6980374463591
 68
     1
 69
     1
1001
ACAD
1000
MVIEW
1002
{
1070
    16
1010
0.0
1020
0.0
1030
0.0
1010
0.0
1020
0.0
1030
1.0
1040
0.0
1040
983.6980374463591
1040
222.9989965408922
1040
370.0301834590798
1040
50.0
1040
0.0
1040
0.0
1070
     0
1070
   100
1070
     1
1070
     1
1070
     0
1070
     0
1070
     0
1070
     0
1040
0.0
1040
0.0
1040
0.0
1040
1.0
1040
1.0
1040
10.0
1040
10.0
1070
     0
1002
{
1002
}
1002
}
  0
ENDSEC
  0
SECTION
  2
OBJECTS
  0
DICTIONARY
  5
1A
330
0
100
AcDbDictionary
  3
ACAD_GROUP
350
18
  3
ACAD_LAYOUT
350
EDC7
  3
ACAD_MLINESTYLE
350
19
  3
ACAD_PLOTSETTINGS
350
EDC8
  3
ACAD_PLOTSTYLENAME
350
EDC5
  3
ACDBHEADERROUNDTRIPXREC
350
F3EB
  3
ACDBVARIABLEDICTIONARY
350
F3E2
  3
CONTENTDICTIONARY
350
81A
  0
DICTIONARY
  5
F40C
330
2
100
AcDbDictionary
280
     1
  3
ACAD_LAYOUTSELFREF
360
F40D
  0
DICTIONARY
  5
F40E
330
7
100
AcDbDictionary
280
     1
  3
ACAD_LAYOUTSELFREF
360
F40F
  0
DICTIONARY
  5
18
102
{ACAD_REACTORS
330
1A
102
}
330
1A
100
AcDbDictionary
  3
*A1
350
63B1
  3
*A10
350
49ED
  3
*A100
350
48CC
  3
*A1000
350
4937
  3
*A1001
350
63D1
  3
*A1002
350
1B9F
  3
*A1003
350
62D9
  3
*A1004
350
63F3
  3
*A1005
350
621E
  3
*A1006
350
6232
  3
*A1007
350
4A18
  3
*A1008
350
1B28
  3
*A1009
350
1BFD
  3
*A101
350
63CC
  3
*A1010
350
6231
  3
*A1011
350
48A5
  3
*A1012
350
629F
  3
*A1013
350
49D6
  3
*A1014
350
6271
  3
*A1015
350
4843
  3
*A1016
350
1469
  3
*A1017
350
496A
  3
*A1018
350
6365
  3
*A1019
350
1C59
  3
*A102
350
62A2
  3
*A1020
350
6284
  3
*A1021
350
1C51
  3
*A1022
350
6298
  3
*A1023
350
4909
  3
*A1024
350
1B2F
  3
*A1025
350
493C
  3
*A1026
350
62A6
  3
*A1027
350
1C39
  3
*A1028
350
6300
  3
*A1029
350
634C
  3
*A103
350
1C47
  3
*A1030
350
633C
  3
*A1031
350
1B4A
  3
*A1032
350
628F
  3
*A1033
350
1458
  3
*A1034
350
6242
  3
*A1035
350
48FC
  3
*A1036
350
1B70
  3
*A104
350
62F9
  3
*A105
350
6227
  3
*A106
350
6309
  3
*A107
350
6424
  3
*A108
350
4845
  3
*A109
350
49AE
  3
*A11
350
1C22
  3
*A110
350
49E4
  3
*A111
350
63D4
  3
*A112
350
63FE
  3
*A113
350
1B98
  3
*A114
350
639D
  3
*A115
350
49CE
  3
*A116
350
484D
  3
*A117
350
1B45
  3
*A118
350
37AE
  3
*A119
350
63D3
  3
*A12
350
494C
  3
*A120
350
62F3
  3
*A121
350
4970
  3
*A122
350
37A0
  3
*A123
350
1B85
  3
*A124
350
635D
  3
*A125
350
638E
  3
*A126
350
1B1C
  3
*A127
350
4A13
  3
*A128
350
6310
  3
*A129
350
62B6
  3
*A13
350
3798
  3
*A130
350
1B63
  3
*A131
350
481C
  3
*A132
350
62FA
  3
*A133
350
49A4
  3
*A134
350
48CF
  3
*A135
350
63A0
  3
*A136
350
1AFE
  3
*A137
350
63E0
  3
*A138
350
641C
  3
*A139
350
1C16
  3
*A14
350
4941
  3
*A140
350
1B96
  3
*A141
350
1B2D
  3
*A142
350
4939
  3
*A143
350
6372
  3
*A144
350
4A00
  3
*A145
350
1B0D
  3
*A146
350
6371
  3
*A147
350
484A
  3
*A148
350
6420
  3
*A149
350
1BA5
  3
*A15
350
6405
  3
*A150
350
1C25
  3
*A151
350
49C4
  3
*A152
350
637D
  3
*A153
350
1BE4
  3
*A154
350
489D
  3
*A155
350
4895
  3
*A156
350
6239
  3
*A157
350
1BFC
  3
*A158
350
633A
  3
*A159
350
4864
  3
*A16
350
492D
  3
*A160
350
6308
  3
*A161
350
63F7
  3
*A162
350
63CA
  3
*A163
350
1BD5
  3
*A164
350
49B2
  3
*A165
350
1BC0
  3
*A166
350
37AD
  3
*A167
350
1BD6
  3
*A168
350
1C1C
  3
*A169
350
1B52
  3
*A17
350
48DA
  3
*A170
350
1B1A
  3
*A171
350
1B80
  3
*A172
350
6348
  3
*A173
350
484E
  3
*A174
350
1B87
  3
*A175
350
1BE5
  3
*A176
350
1ADE
  3
*A177
350
1B23
  3
*A178
350
62E7
  3
*A179
350
1B66
  3
*A18
350
49A8
  3
*A180
350
1BD2
  3
*A181
350
48CA
  3
*A182
350
37B1
  3
*A183
350
4816
  3
*A184
350
63B4
  3
*A185
350
640F
  3
*A186
350
4906
  3
*A187
350
1C0A
  3
*A188
350
48C0
  3
*A189
350
627A
  3
*A19
350
1C5F
  3
*A190
350
62E4
  3
*A191
350
1C26
  3
*A192
350
624A
  3
*A193
350
1C2A
  3
*A194
350
48A7
  3
*A195
350
62F0
  3
*A196
350
4987
  3
*A197
350
6409
  3
*A198
350
4934
  3
*A199
350
623B
  3
*A2
350
62AB
  3
*A20
350
499D
  3
*A200
350
63C6
  3
*A201
350
63EF
  3
*A202
350
1BEA
  3
*A203
350
6346
  3
*A204
350
6291
  3
*A205
350
1BA2
  3
*A206
350
1B3B
  3
*A207
350
1B7E
  3
*A208
350
49AD
  3
*A209
350
62C1
  3
*A21
350
6292
  3
*A210
350
492A
  3
*A211
350
1B60
  3
*A212
350
489B
  3
*A213
350
63FF
  3
*A214
350
4817
  3
*A215
350
4871
  3
*A216
350
49E2
  3
*A217
350
1465
  3
*A218
350
1BEE
  3
*A219
350
63EC
  3
*A22
350
1BEB
  3
*A220
350
4998
  3
*A221
350
480B
  3
*A222
350
625A
  3
*A223
350
493A
  3
*A224
350
1B42
  3
*A225
350
63B0
  3
*A226
350
48AF
  3
*A227
350
62A3
  3
*A228
350
634B
  3
*A229
350
490A
  3
*A23
350
4943
  3
*A230
350
6281
  3
*A231
350
62DC
  3
*A232
350
48B0
  3
*A233
350
379D
  3
*A234
350
6385
  3
*A235
350
1AFC
  3
*A236
350
4959
  3
*A237
350
49D9
  3
*A238
350
1C32
  3
*A239
350
491E
  3
*A24
350
1AE9
  3
*A240
350
1B2C
  3
*A241
350
1C36
  3
*A242
350
49C2
  3
*A243
350
6396
  3
*A244
350
6425
  3
*A245
350
4A11
  3
*A246
350
494A
  3
*A247
350
62FF
  3
*A248
350
6352
  3
*A249
350
1BAE
  3
*A25
350
1AEB
  3
*A250
350
63CF
  3
*A251
350
622C
  3
*A252
350
1C1A
  3
*A253
350
1B6C
  3
*A254
350
1B6F
  3
*A255
350
1BB5
  3
*A256
350
62DF
  3
*A257
350
6294
  3
*A258
350
62CD
  3
*A259
350
4A15
  3
*A26
350
628C
  3
*A260
350
49B3
  3
*A261
350
1AFA
  3
*A262
350
48A9
  3
*A263
350
4891
  3
*A264
350
4A06
  3
*A265
350
37B3
  3
*A266
350
483D
  3
*A267
350
37B2
  3
*A268
350
1AD8
  3
*A269
350
37AB
  3
*A27
350
495C
  3
*A270
350
62C4
  3
*A271
350
4834
  3
*A272
350
488D
  3
*A273
350
635F
  3
*A274
350
48B1
  3
*A275
350
1B1D
  3
*A276
350
1C5A
  3
*A277
350
63B2
  3
*A278
350
1B82
  3
*A279
350
48A2
  3
*A28
350
1B0A
  3
*A280
350
6229
  3
*A281
350
1B88
  3
*A282
350
625B
  3
*A283
350
1B04
  3
*A284
350
487A
  3
*A285
350
1B2B
  3
*A286
350
63A2
  3
*A287
350
4844
  3
*A288
350
1B35
  3
*A289
350
6402
  3
*A29
350
63D6
  3
*A290
350
6350
  3
*A291
350
6400
  3
*A292
350
6399
  3
*A293
350
1ACE
  3
*A294
350
1BB4
  3
*A295
350
1C03
  3
*A296
350
4995
  3
*A297
350
1C45
  3
*A298
350
49FC
  3
*A299
350
6283
  3
*A3
350
6341
  3
*A30
350
1BA8
  3
*A300
350
63F0
  3
*A301
350
49D8
  3
*A302
350
4990
  3
*A303
350
629B
  3
*A304
350
1C0E
  3
*A305
350
1460
  3
*A306
350
6381
  3
*A307
350
37B9
  3
*A308
350
1AD1
  3
*A309
350
1AF3
  3
*A31
350
635B
  3
*A310
350
1BBD
  3
*A311
350
1B16
  3
*A312
350
1B62
  3
*A313
350
494D
  3
*A314
350
1AFD
  3
*A315
350
37C2
  3
*A316
350
49D5
  3
*A317
350
4A0F
  3
*A318
350
6392
  3
*A319
350
1BED
  3
*A32
350
1BF5
  3
*A320
350
62E9
  3
*A321
350
48B3
  3
*A322
350
62C8
  3
*A323
350
638B
  3
*A324
350
48E3
  3
*A325
350
4929
  3
*A326
350
6316
  3
*A327
350
37BF
  3
*A328
350
1BBB
  3
*A329
350
6304
  3
*A33
350
1BE1
  3
*A330
350
49F0
  3
*A331
350
1AEC
  3
*A332
350
498C
  3
*A333
350
1B0C
  3
*A334
350
1BB6
  3
*A335
350
488F
  3
*A336
350
625E
  3
*A337
350
4989
  3
*A338
350
4899
  3
*A339
350
1BBF
  3
*A34
350
63C9
  3
*A340
350
6375
  3
*A341
350
4911
  3
*A342
350
635C
  3
*A343
350
487D
  3
*A344
350
1B5D
  3
*A345
350
63BB
  3
*A346
350
637A
  3
*A347
350
6261
  3
*A348
350
49CF
  3
*A349
350
6262
  3
*A35
350
1C02
  3
*A350
350
6394
  3
*A351
350
1BB1
  3
*A352
350
48E8
  3
*A353
350
37A3
  3
*A354
350
49AA
  3
*A355
350
63BC
  3
*A356
350
62AF
  3
*A357
350
48E1
  3
*A358
350
6311
  3
*A359
350
6369
  3
*A36
350
1C53
  3
*A360
350
499A
  3
*A361
350
4874
  3
*A362
350
4896
  3
*A363
350
481F
  3
*A364
350
1459
  3
*A365
350
49F8
  3
*A366
350
4974
  3
*A367
350
497E
  3
*A368
350
1AD0
  3
*A369
350
639E
  3
*A37
350
6220
  3
*A370
350
63E1
  3
*A371
350
48B4
  3
*A372
350
4A17
  3
*A373
350
1B92
  3
*A374
350
1B2A
  3
*A375
350
48D2
  3
*A376
350
1C15
  3
*A377
350
1C58
  3
*A378
350
49BD
  3
*A379
350
1B8B
  3
*A38
350
1C1B
  3
*A380
350
495E
  3
*A381
350
1C20
  3
*A382
350
1C3A
  3
*A383
350
49E8
  3
*A384
350
37A6
  3
*A385
350
635A
  3
*A386
350
1BD4
  3
*A387
350
62A0
  3
*A388
350
4997
  3
*A389
350
6317
  3
*A39
350
1C21
  3
*A390
350
1AEE
  3
*A391
350
6248
  3
*A392
350
1AED
  3
*A393
350
497F
  3
*A394
350
1C48
  3
*A395
350
1BD3
  3
*A396
350
48BB
  3
*A397
350
1C37
  3
*A398
350
1C44
  3
*A399
350
49F6
  3
*A4
350
496F
  3
*A40
350
62AA
  3
*A400
350
49D3
  3
*A401
350
4955
  3
*A402
350
1BE9
  3
*A403
350
49C7
  3
*A404
350
48AC
  3
*A405
350
6327
  3
*A406
350
4973
  3
*A407
350
1C08
  3
*A408
350
62F1
  3
*A409
350
1BBA
  3
*A41
350
484C
  3
*A410
350
1462
  3
*A411
350
1B13
  3
*A412
350
62C2
  3
*A413
350
1C46
  3
*A414
350
63AC
  3
*A415
350
62F5
  3
*A416
350
1BF9
  3
*A417
350
1466
  3
*A418
350
1B69
  3
*A419
350
48F2
  3
*A42
350
49DD
  3
*A420
350
4894
  3
*A421
350
1B75
  3
*A422
350
48E6
  3
*A423
350
1C2B
  3
*A424
350
629C
  3
*A425
350
1BC4
  3
*A426
350
63D2
  3
*A427
350
1C4D
  3
*A428
350
48F5
  3
*A429
350
4813
  3
*A43
350
63B6
  3
*A430
350
49EB
  3
*A431
350
37C0
  3
*A432
350
1BCC
  3
*A433
350
4A03
  3
*A434
350
48B7
  3
*A435
350
497D
  3
*A436
350
4912
  3
*A437
350
48FF
  3
*A438
350
630E
  3
*A439
350
6370
  3
*A44
350
622D
  3
*A440
350
4988
  3
*A441
350
62BE
  3
*A442
350
6241
  3
*A443
350
4958
  3
*A444
350
63EA
  3
*A445
350
1BDF
  3
*A446
350
6307
  3
*A447
350
4824
  3
*A448
350
49C9
  3
*A449
350
499B
  3
*A45
350
37A5
  3
*A450
350
6236
  3
*A451
350
6264
  3
*A452
350
37B5
  3
*A453
350
63C2
  3
*A454
350
4952
  3
*A455
350
49B1
  3
*A456
350
49A5
  3
*A457
350
1BD1
  3
*A458
350
1B99
  3
*A459
350
4993
  3
*A46
350
4948
  3
*A460
350
63FC
  3
*A461
350
4981
  3
*A462
350
4962
  3
*A463
350
4931
  3
*A464
350
4932
  3
*A465
350
1C23
  3
*A466
350
1BF6
  3
*A467
350
63A8
  3
*A468
350
63A5
  3
*A469
350
379B
  3
*A47
350
62A5
  3
*A470
350
1B79
  3
*A471
350
4880
  3
*A472
350
1B8C
  3
*A473
350
49AB
  3
*A474
350
1B72
  3
*A475
350
621A
  3
*A476
350
1BDE
  3
*A477
350
48EC
  3
*A478
350
638A
  3
*A479
350
4890
  3
*A48
350
1BFB
  3
*A480
350
497B
  3
*A481
350
62D3
  3
*A482
350
6233
  3
*A483
350
1BB7
  3
*A484
350
1C01
  3
*A485
350
62AE
  3
*A486
350
48E0
  3
*A487
350
633E
  3
*A488
350
63D9
  3
*A489
350
48B5
  3
*A49
350
4964
  3
*A490
350
4884
  3
*A491
350
1B41
  3
*A492
350
1BB2
  3
*A493
350
49CB
  3
*A494
350
145B
  3
*A495
350
1AE5
  3
*A496
350
4950
  3
*A497
350
1B5F
  3
*A498
350
1C05
  3
*A499
350
1C4E
  3
*A5
350
49B9
  3
*A50
350
63E3
  3
*A500
350
1BF3
  3
*A501
350
1C35
  3
*A502
350
4946
  3
*A503
350
62C3
  3
*A504
350
6219
  3
*A505
350
631E
  3
*A506
350
4A01
  3
*A507
350
4847
  3
*A508
350
37A9
  3
*A509
350
6395
  3
*A51
350
1B24
  3
*A510
350
49EA
  3
*A511
350
497C
  3
*A512
350
63B7
  3
*A513
350
1B12
  3
*A514
350
37B7
  3
*A515
350
638C
  3
*A516
350
6362
  3
*A517
350
62C0
  3
*A518
350
1C3F
  3
*A519
350
1B07
  3
*A52
350
636B
  3
*A520
350
1B51
  3
*A521
350
4967
  3
*A522
350
482C
  3
*A523
350
634D
  3
*A524
350
49BC
  3
*A525
350
49A9
  3
*A526
350
6359
  3
*A527
350
4926
  3
*A528
350
1ACF
  3
*A529
350
1B09
  3
*A53
350
634E
  3
*A530
350
4872
  3
*A531
350
6404
  3
*A532
350
1B6A
  3
*A533
350
63FA
  3
*A534
350
63F8
  3
*A535
350
1B8D
  3
*A536
350
6357
  3
*A537
350
1B03
  3
*A538
350
6224
  3
*A539
350
1C24
  3
*A54
350
1C07
  3
*A540
350
6417
  3
*A541
350
1B53
  3
*A542
350
486F
  3
*A543
350
1BBE
  3
*A544
350
62ED
  3
*A545
350
62B9
  3
*A546
350
49E6
  3
*A547
350
632B
  3
*A548
350
6406
  3
*A549
350
6240
  3
*A55
350
482E
  3
*A550
350
48E4
  3
*A551
350
4811
  3
*A552
350
1C18
  3
*A553
350
623F
  3
*A554
350
49D2
  3
*A555
350
4903
  3
*A556
350
63CB
  3
*A557
350
1BD8
  3
*A558
350
6393
  3
*A559
350
6383
  3
*A56
350
63E5
  3
*A560
350
6277
  3
*A561
350
1BB8
  3
*A562
350
489F
  3
*A563
350
49CA
  3
*A564
350
1B58
  3
*A565
350
62EE
  3
*A566
350
63E7
  3
*A567
350
48D3
  3
*A568
350
4905
  3
*A569
350
6415
  3
*A57
350
48DC
  3
*A570
350
379A
  3
*A571
350
49FA
  3
*A572
350
37AC
  3
*A573
350
49A6
  3
*A574
350
636F
  3
*A575
350
1B7D
  3
*A576
350
4882
  3
*A577
350
637C
  3
*A578
350
4957
  3
*A579
350
49B7
  3
*A58
350
49BA
  3
*A580
350
1BCD
  3
*A581
350
6223
  3
*A582
350
4A08
  3
*A583
350
1BEC
  3
*A584
350
488B
  3
*A585
350
1ACD
  3
*A586
350
4999
  3
*A587
350
629A
  3
*A588
350
6222
  3
*A589
350
6218
  3
*A59
350
4915
  3
*A590
350
491A
  3
*A591
350
48FE
  3
*A592
350
1C29
  3
*A593
350
1BF8
  3
*A594
350
624F
  3
*A595
350
1AF2
  3
*A596
350
48B2
  3
*A597
350
63D7
  3
*A598
350
6216
  3
*A599
350
1B37
  3
*A6
350
4986
  3
*A60
350
1B54
  3
*A600
350
4821
  3
*A601
350
37A1
  3
*A602
350
6378
  3
*A603
350
1B34
  3
*A604
350
1B8E
  3
*A605
350
1B49
  3
*A606
350
1B9D
  3
*A607
350
4893
  3
*A608
350
63BF
  3
*A609
350
6364
  3
*A61
350
623D
  3
*A610
350
627C
  3
*A611
350
4839
  3
*A612
350
1B36
  3
*A613
350
62A9
  3
*A614
350
1454
  3
*A615
350
62BF
  3
*A616
350
4830
  3
*A617
350
63C7
  3
*A618
350
4944
  3
*A619
350
6263
  3
*A62
350
1B65
  3
*A620
350
1BD7
  3
*A621
350
49FF
  3
*A622
350
49F3
  3
*A623
350
1AF6
  3
*A624
350
1C0D
  3
*A625
350
480C
  3
*A626
350
49E5
  3
*A627
350
4825
  3
*A628
350
1C10
  3
*A629
350
1BDC
  3
*A63
350
37B4
  3
*A630
350
1B57
  3
*A631
350
4A09
  3
*A632
350
1C3E
  3
*A633
350
1C4F
  3
*A634
350
62FB
  3
*A635
350
627E
  3
*A636
350
6237
  3
*A637
350
1C1F
  3
*A638
350
6320
  3
*A639
350
631F
  3
*A64
350
379C
  3
*A640
350
1B46
  3
*A641
350
1C04
  3
*A642
350
63AB
  3
*A643
350
49C5
  3
*A644
350
1B6B
  3
*A645
350
495F
  3
*A646
350
1AFB
  3
*A647
350
1ADC
  3
*A648
350
1B97
  3
*A649
350
624B
  3
*A65
350
4A19
  3
*A650
350
4818
  3
*A651
350
63A6
  3
*A652
350
4910
  3
*A653
350
6389
  3
*A654
350
145C
  3
*A655
350
1B44
  3
*A656
350
490E
  3
*A657
350
1C40
  3
*A658
350
1C33
  3
*A659
350
1C0F
  3
*A66
350
48CD
  3
*A660
350
6358
  3
*A661
350
1C2C
  3
*A662
350
49BF
  3
*A663
350
1BC3
  3
*A664
350
4838
  3
*A665
350
1B17
  3
*A666
350
1B71
  3
*A667
350
145D
  3
*A668
350
4820
  3
*A669
350
1C31
  3
*A67
350
6416
  3
*A670
350
62D6
  3
*A671
350
640E
  3
*A672
350
1B5A
  3
*A673
350
631B
  3
*A674
350
48F7
  3
*A675
350
1B40
  3
*A676
350
1C2E
  3
*A677
350
4885
  3
*A678
350
62D5
  3
*A679
350
6344
  3
*A68
350
486A
  3
*A680
350
1B3F
  3
*A681
350
628B
  3
*A682
350
494E
  3
*A683
350
6312
  3
*A684
350
48C7
  3
*A685
350
1BAC
  3
*A686
350
493B
  3
*A687
350
62A1
  3
*A688
350
1B11
  3
*A689
350
633F
  3
*A69
350
1464
  3
*A690
350
48EE
  3
*A691
350
4877
  3
*A692
350
49D0
  3
*A693
350
1B61
  3
*A694
350
63B8
  3
*A695
350
48DE
  3
*A696
350
492F
  3
*A697
350
145F
  3
*A698
350
63AA
  3
*A699
350
48E2
  3
*A7
350
48A1
  3
*A70
350
499F
  3
*A700
350
6388
  3
*A701
350
4860
  3
*A702
350
1BF1
  3
*A703
350
1468
  3
*A704
350
4828
  3
*A705
350
4938
  3
*A706
350
4940
  3
*A707
350
48D8
  3
*A708
350
63F1
  3
*A709
350
48ED
  3
*A71
350
1B15
  3
*A710
350
62BD
  3
*A711
350
1C2F
  3
*A712
350
1B7C
  3
*A713
350
1AE3
  3
*A714
350
636C
  3
*A715
350
4889
  3
*A716
350
63C4
  3
*A717
350
1B33
  3
*A718
350
629E
  3
*A719
350
623C
  3
*A72
350
484B
  3
*A720
350
1B76
  3
*A721
350
1BA1
  3
*A722
350
63DB
  3
*A723
350
4851
  3
*A724
350
62E2
  3
*A725
350
1AE4
  3
*A726
350
628D
  3
*A727
350
641E
  3
*A728
350
639B
  3
*A729
350
6259
  3
*A73
350
62BC
  3
*A730
350
4985
  3
*A731
350
495A
  3
*A732
350
48F3
  3
*A733
350
622E
  3
*A734
350
1B90
  3
*A735
350
4A0A
  3
*A736
350
632A
  3
*A737
350
1C06
  3
*A738
350
62EB
  3
*A739
350
1B21
  3
*A74
350
1BA4
  3
*A740
350
6366
  3
*A741
350
1C0B
  3
*A742
350
49A3
  3
*A743
350
1B0F
  3
*A744
350
1ADB
  3
*A745
350
494F
  3
*A746
350
6235
  3
*A747
350
48FD
  3
*A748
350
1B9B
  3
*A749
350
6380
  3
*A75
350
486D
  3
*A750
350
482A
  3
*A751
350
4835
  3
*A752
350
1C11
  3
*A753
350
483B
  3
*A754
350
4965
  3
*A755
350
4904
  3
*A756
350
1AEA
  3
*A757
350
1AD3
  3
*A758
350
6296
  3
*A759
350
6257
  3
*A76
350
1ACB
  3
*A760
350
1B05
  3
*A761
350
48B6
  3
*A762
350
498E
  3
*A763
350
4876
  3
*A764
350
62FC
  3
*A765
350
484F
  3
*A766
350
4976
  3
*A767
350
1BA0
  3
*A768
350
1BA9
  3
*A769
350
48A6
  3
*A77
350
6411
  3
*A770
350
6374
  3
*A771
350
1C55
  3
*A772
350
1B81
  3
*A773
350
1B29
  3
*A774
350
48FB
  3
*A775
350
63A7
  3
*A776
350
4854
  3
*A777
350
6265
  3
*A778
350
37C3
  3
*A779
350
480D
  3
*A78
350
49C6
  3
*A780
350
6254
  3
*A781
350
1BC5
  3
*A782
350
1455
  3
*A783
350
48CE
  3
*A784
350
6345
  3
*A785
350
6287
  3
*A786
350
37A2
  3
*A787
350
1B32
  3
*A788
350
6367
  3
*A789
350
494B
  3
*A79
350
1C49
  3
*A790
350
1B30
  3
*A791
350
49DF
  3
*A792
350
629D
  3
*A793
350
6419
  3
*A794
350
49F7
  3
*A795
350
6355
  3
*A796
350
63C0
  3
*A797
350
62DB
  3
*A798
350
4826
  3
*A799
350
6305
  3
*A8
350
6293
  3
*A80
350
1AE7
  3
*A800
350
6426
  3
*A801
350
6410
  3
*A802
350
1B4E
  3
*A803
350
48D7
  3
*A804
350
1BE7
  3
*A805
350
6376
  3
*A806
350
49F9
  3
*A807
350
37B8
  3
*A808
350
1AF9
  3
*A809
350
4994
  3
*A81
350
1BA7
  3
*A810
350
1B67
  3
*A811
350
37AF
  3
*A812
350
1B31
  3
*A813
350
6336
  3
*A814
350
1B4D
  3
*A815
350
1AF8
  3
*A816
350
63DF
  3
*A817
350
63D8
  3
*A818
350
6251
  3
*A819
350
482F
  3
*A82
350
488E
  3
*A820
350
1BC6
  3
*A821
350
49A7
  3
*A822
350
489A
  3
*A823
350
6246
  3
*A824
350
496D
  3
*A825
350
62DA
  3
*A826
350
499E
  3
*A827
350
640D
  3
*A828
350
1BAF
  3
*A829
350
6349
  3
*A83
350
1C30
  3
*A830
350
49D1
  3
*A831
350
4969
  3
*A832
350
48EA
  3
*A833
350
493E
  3
*A834
350
49F2
  3
*A835
350
62E8
  3
*A836
350
6225
  3
*A837
350
62D7
  3
*A838
350
1B01
  3
*A839
350
1C38
  3
*A84
350
623E
  3
*A840
350
48DB
  3
*A841
350
63A4
  3
*A842
350
49AF
  3
*A843
350
623A
  3
*A844
350
6403
  3
*A845
350
62B3
  3
*A846
350
1B9C
  3
*A847
350
1AF1
  3
*A848
350
6250
  3
*A849
350
4963
  3
*A85
350
4832
  3
*A850
350
6351
  3
*A851
350
6243
  3
*A852
350
48EF
  3
*A853
350
62D0
  3
*A854
350
48D5
  3
*A855
350
6422
  3
*A856
350
63FD
  3
*A857
350
628A
  3
*A858
350
6258
  3
*A859
350
1BC8
  3
*A86
350
491D
  3
*A860
350
37BA
  3
*A861
350
1BE6
  3
*A862
350
4875
  3
*A863
350
4831
  3
*A864
350
630B
  3
*A865
350
6353
  3
*A866
350
62A7
  3
*A867
350
1B39
  3
*A868
350
1AD5
  3
*A869
350
489C
  3
*A87
350
1AF7
  3
*A870
350
1B4C
  3
*A871
350
627F
  3
*A872
350
6252
  3
*A873
350
48C3
  3
*A874
350
1BFF
  3
*A875
350
63D0
  3
*A876
350
49CC
  3
*A877
350
63A1
  3
*A878
350
481A
  3
*A879
350
1BDB
  3
*A88
350
1B6D
  3
*A880
350
63F2
  3
*A881
350
4855
  3
*A882
350
1ADD
  3
*A883
350
1C12
  3
*A884
350
1C57
  3
*A885
350
4908
  3
*A886
350
4836
  3
*A887
350
4856
  3
*A888
350
48CB
  3
*A889
350
483E
  3
*A89
350
4809
  3
*A890
350
1BD9
  3
*A891
350
62E5
  3
*A892
350
63F5
  3
*A893
350
1AD6
  3
*A894
350
62B4
  3
*A895
350
49DA
  3
*A896
350
63BE
  3
*A897
350
1C5B
  3
*A898
350
6315
  3
*A899
350
4892
  3
*A9
350
630C
  3
*A90
350
4901
  3
*A900
350
1C60
  3
*A901
350
6413
  3
*A902
350
4829
  3
*A903
350
48A3
  3
*A904
350
62EF
  3
*A905
350
6377
  3
*A906
350
4857
  3
*A907
350
4945
  3
*A908
350
1B94
  3
*A909
350
49B5
  3
*A91
350
1BFE
  3
*A910
350
1BF0
  3
*A911
350
1C1D
  3
*A912
350
1BCF
  3
*A913
350
48C9
  3
*A914
350
1B6E
  3
*A915
350
6279
  3
*A916
350
63DC
  3
*A917
350
4842
  3
*A918
350
4A02
  3
*A919
350
1C5D
  3
*A92
350
631D
  3
*A920
350
1B77
  3
*A921
350
49E3
  3
*A922
350
6337
  3
*A923
350
1B50
  3
*A924
350
48F8
  3
*A925
350
4A04
  3
*A926
350
636A
  3
*A927
350
6347
  3
*A928
350
4A0C
  3
*A929
350
640C
  3
*A93
350
4887
  3
*A930
350
62B0
  3
*A931
350
48FA
  3
*A932
350
49F5
  3
*A933
350
6302
  3
*A934
350
62F7
  3
*A935
350
4833
  3
*A936
350
4975
  3
*A937
350
6313
  3
*A938
350
6382
  3
*A939
350
4978
  3
*A94
350
62D4
  3
*A940
350
63B5
  3
*A941
350
49D4
  3
*A942
350
495D
  3
*A943
350
63E6
  3
*A944
350
625C
  3
*A945
350
1C61
  3
*A946
350
4858
  3
*A947
350
63B3
  3
*A948
350
49BE
  3
*A949
350
493F
  3
*A95
350
4913
  3
*A950
350
6245
  3
*A951
350
48C6
  3
*A952
350
62D8
  3
*A953
350
37C1
  3
*A954
350
1BEF
  3
*A955
350
49F1
  3
*A956
350
37BC
  3
*A957
350
630A
  3
*A958
350
1B7B
  3
*A959
350
1457
  3
*A96
350
1B19
  3
*A960
350
6282
  3
*A961
350
4898
  3
*A962
350
6333
  3
*A963
350
1C28
  3
*A964
350
63BA
  3
*A965
350
6398
  3
*A966
350
63DD
  3
*A967
350
1B7F
  3
*A968
350
62E0
  3
*A969
350
6407
  3
*A97
350
498B
  3
*A970
350
1AE6
  3
*A971
350
1C0C
  3
*A972
350
1AEF
  3
*A973
350
4815
  3
*A974
350
62A8
  3
*A975
350
626D
  3
*A976
350
63DE
  3
*A977
350
62AC
  3
*A978
350
63E2
  3
*A979
350
496B
  3
*A98
350
487E
  3
*A980
350
1BA6
  3
*A981
350
482D
  3
*A982
350
4886
  3
*A983
350
1BC2
  3
*A984
350
487F
  3
*A985
350
4968
  3
*A986
350
49C3
  3
*A987
350
49EF
  3
*A988
350
6322
  3
*A989
350
4991
  3
*A99
350
48C8
  3
*A990
350
62B2
  3
*A991
350
62CA
  3
*A992
350
1B3E
  3
*A993
350
1C27
  3
*A994
350
486C
  3
*A995
350
1C56
  3
*A996
350
489E
  3
*A997
350
48BD
  3
*A998
350
1B22
  3
*A999
350
1AE0
  0
DICTIONARY
  5
EDC7
102
{ACAD_REACTORS
330
1A
102
}
330
1A
100
AcDbDictionary
  0
DICTIONARY
  5
19
102
{ACAD_REACTORS
330
1A
102
}
330
1A
100
AcDbDictionary
  3
STANDARD
350
1D
  0
DICTIONARY
  5
EDC8
102
{ACAD_REACTORS
330
1A
102
}
330
1A
100
AcDbDictionary
  0
ACDBDICTIONARYWDFLT
  5
EDC5
102
{ACAD_REACTORS
330
1A
102
}
330
1A
100
AcDbDictionary
281
     1
  3
Normal
350
EDC6
100
AcDbDictionaryWithDefault
340
EDC6
  0
DICTIONARY
  5
F3EB
102
{ACAD_REACTORS
330
1A
102
}
330
1A
100
AcDbDictionary
  3
CEPSNTYPE
350
F3F5
  3
DIMSTYLEDATA
350
F3F9
  3
FINGERPRINTGUID
350
F3F6
  3
HYPERLINKBASE
350
F3EE
  3
INSUNITS
350
F3F4
  3
LAYOUTDICT
350
F3F0
  3
LWETCUNION
350
F3F3
  3
PLOTSETDICT
350
F3F1
  3
PLOTSTYLNAMDICT
350
F3F2
  3
PSVPSCALE
350
F3F8
  3
PUCSBASE
350
F3FC
  3
PUCSORGBACK
350
F402
  3
PUCSORGBOTTOM
350
F3FE
  3
PUCSORGFRONT
350
F401
  3
PUCSORGLEFT
350
F3FF
  3
PUCSORGRIGHT
350
F400
  3
PUCSORGTOP
350
F3FD
  3
PUCSORTHOREF
350
F3FA
  3
PUCSORTHOVIEW
350
F3FB
  3
STYLESHEET
350
F3EF
  3
TSTACKALIGN
350
F3EC
  3
TSTACKSIZE
350
F3ED
  3
UCSBASE
350
F405
  3
UCSORGBACK
350
F40B
  3
UCSORGBOTTOM
350
F407
  3
UCSORGFRONT
350
F40A
  3
UCSORGLEFT
350
F408
  3
UCSORGRIGHT
350
F409
  3
UCSORGTOP
350
F406
  3
UCSORTHOREF
350
F403
  3
UCSORTHOVIEW
350
F404
  3
VERSIONGUID
350
F3F7
  0
DICTIONARY
  5
F3E2
102
{ACAD_REACTORS
330
1A
102
}
330
1A
100
AcDbDictionary
  3
DIMASSOC
350
F3E3
  0
DICTIONARY
  5
81A
102
{ACAD_REACTORS
330
1A
102
}
330
1A
100
AcDbDictionary
  0
XRECORD
  5
F40D
102
{ACAD_REACTORS
330
F40C
102
}
330
F40C
100
AcDbXrecord
340
2
  0
XRECORD
  5
F40F
102
{ACAD_REACTORS
330
F40E
102
}
330
F40E
100
AcDbXrecord
340
7
  0
GROUP
  5
63B1
102
{ACAD_REACTORS
330
18
102
}
330
18
100
AcDbGroup
300

 70
     3
 71
     0
  0
GROUP
  5
49ED
102
{ACAD_REACTORS
330
18
102
}
330
18
100
AcDbGroup
300

 70
     3
 71
     0
  0
GROUP
  5
48CC
102
{ACAD_REACTORS
330
18
102
}
330
18
100
AcDbGroup
300

 70
     3
 71
     0
  0
GROUP
  5
4937
102
{ACAD_REACTORS
330
18
102
}
330
18
100
AcDbGroup
300

 70
     3
 71
     0
  0
GROUP
  5
63D1
102
{ACAD_REACTORS
330
18
102
}
330
18
100
AcDbGroup
300

 70
     3
 71
     0
  0
GROUP
  5
1B9F
102
{ACAD_REACTORS
330
18
102
}
330
18
100
AcDbGroup
300

 70
     3
 71
     0
  0
GROUP
  5
62D9
102
{ACAD_REACTORS
330
18
102
}
330
18
100
AcDbGroup
300

 70
     3
 71
     0
  0
GROUP
  5
63F3
102
{ACAD_REACTORS
330
18
102
}
330
18
100
AcDbGroup
300

 70
     3
 71
     0
  0
GROUP
  5
621E
102
{ACAD_REACTORS
330
18
102
}
330
18
100
AcDbGroup
300

 70
     3
 71
     0
  0
GROUP
  5
6232
102
{ACAD_REACTORS
330
18
102
}
330
18
100
AcDbGroup
300

 70
     3
 71
     0
  0
GROUP
  5
4A18
102
{ACAD_REACTORS
330
18
102
}
330
18
100
AcDbGroup
300

 70
     3
 71
     0
  0
GROUP
  5
1B28
102
{ACAD_REACTORS
330
18
102
}
330
18
100
AcDbGroup
300

 70
     3
 71
     0
  0
GROUP
  5
1BFD
102
{ACAD_REACTORS
330
18
102
}
330
18
100
AcDbGroup
300

 70
     3
 71
     0
  0
GROUP
  5
63CC
102
{ACAD_REACTORS
330
18
102
}
330
18
100
AcDbGroup
300

 70
     3
 71
     0
  0
GROUP
  5
6231
102
{ACAD_REACTORS
330
18
102
}
330
18
100
AcDbGroup
300

 70
     3
 71
     0
  0
GROUP
  5
48A5
102
{ACAD_REACTORS
330
18
102
}
330
18
100
AcDbGroup
300

 70
     3
 71
     0
  0
GROUP
  5
629F
102
{ACAD_REACTORS
330
18
102
}
330
18
100
AcDbGroup
300

 70
     3
 71
     0
  0
GROUP
  5
49D6
102
{ACAD_REACTORS
330
18
102
}
330
18
100
AcDbGroup
300

 70
     3
 71
     0
  0
GROUP
  5
6271
102
{ACAD_REACTORS
330
18
102
}
330
18
100
AcDbGroup
300

 70
     3
 71
     0
  0
GROUP
  5
4843
102
{ACAD_REACTORS
330
18
102
}
330
18
100
AcDbGroup
300

 70
     3
 71
     0
  0
GROUP
  5
1469
102
{ACAD_REACTORS
330
18
102
}
330
18
100
AcDbGroup
300

 70
     3
 71
     0
  0
GROUP
  5
496A
102
{ACAD_REACTORS
330
18
102
}
330
18
100
AcDbGroup
300

 70
     3
 71
     0
  0
GROUP
  5
6365
102
{ACAD_REACTORS
330
18
102
}
330
18
100
AcDbGroup
300

 70
     3
 71
     0
  0
GROUP
  5
1C59
102
{ACAD_REACTORS
330
18
102
}
330
18
100
AcDbGroup
300

 70
     3
 71
     0
  0
GROUP
  5
62A2
102
{ACAD_REACTORS
330
18
102
}
330
18
100
AcDbGroup
300

 70
     3
 71
     0
  0
GROUP
  5
6284
102
{ACAD_REACTORS
330
18
102
}
330
18
100
AcDbGroup
300

 70
     3
 71
     0
  0
GROUP
  5
1C51
102
{ACAD_REACTORS
330
18
102
}
330
18
100
AcDbGroup
300

 70
     3
 71
     0
  0
GROUP
  5
6298
102
{ACAD_REACTORS
330
18
102
}
330
18
100
AcDbGroup
300

 70
     3
 71
     0
  0
GROUP
  5
4909
102
{ACAD_REACTORS
330
18
102
}
330
18
100
AcDbGroup
300

 70
     3
 71
     0
  0
GROUP
  5
1B2F
102
{ACAD_REACTORS
330
18
102
}
330
18
100
AcDbGroup
300

 70
     3
 71
     0
  0
GROUP
  5
493C
102
{ACAD_REACTORS
330
18
102
}
330
18
100
AcDbGroup
300

 70
     3
 71
     0
  0
GROUP
  5
62A6
102
{ACAD_REACTORS
330
18
102
}
330
18
100
AcDbGroup
300

 70
     3
 71
     0
  0
GROUP
  5
1C39
102
{ACAD_REACTORS
330
18
102
}
330
18
100
AcDbGroup
300

 70
     3
 71
     0
  0
GROUP
  5
6300
102
{ACAD_REACTORS
330
18
102
}
330
18
100
AcDbGroup
300

 70
     3
 71
     0
  0
GROUP
  5
634C
102
{ACAD_REACTORS
330
18
102
}
330
18
100
AcDbGroup
300

 70
     3
 71
     0
  0
GROUP
  5
1C47
102
{ACAD_REACTORS
330
18
102
}
330
18
100
AcDbGroup
300

 70
     3
 71
     0
  0
GROUP
  5
633C
102
{ACAD_REACTORS
330
18
102
}
330
18
100
AcDbGroup
300

 70
     3
 71
     0
  0
GROUP
  5
1B4A
102
{ACAD_REACTORS
330
18
102
}
330
18
100
AcDbGroup
300

 70
     3
 71
     0
  0
GROUP
  5
628F
102
{ACAD_REACTORS
330
18
102
}
330
18
100
AcDbGroup
300

 70
     3
 71
     0
  0
GROUP
  5
1458
102
{ACAD_REACTORS
330
18
102
}
330
18
100
AcDbGroup
300

 70
     3
 71
     0
  0
GROUP
  5
6242
102
{ACAD_REACTORS
330
18
102
}
330
18
100
AcDbGroup
300

 70
     3
 71
     0
  0
GROUP
  5
48FC
102
{ACAD_REACTORS
330
18
102
}
330
18
100
AcDbGroup
300

 70
     3
 71
     0
  0
GROUP
  5
1B70
102
{ACAD_REACTORS
330
18
102
}
330
18
100
AcDbGroup
300

 70
     3
 71
     0
  0
GROUP
  5
62F9
102
{ACAD_REACTORS
330
18
102
}
330
18
100
AcDbGroup
300

 70
     3
 71
     0
  0
GROUP
  5
6227
102
{ACAD_REACTORS
330
18
102
}
330
18
100
AcDbGroup
300

 70
     3
 71
     0
  0
GROUP
  5
6309
102
{ACAD_REACTORS
330
18
102
}
330
18
100
AcDbGroup
300

 70
     3
 71
     0
  0
GROUP
  5
6424
102
{ACAD_REACTORS
330
18
102
}
330
18
100
AcDbGroup
300

 70
     3
 71
     0
  0
GROUP
  5
4845
102
{ACAD_REACTORS
330
18
102
}
330
18
100
AcDbGroup
300

 70
     3
 71
     0
  0
GROUP
  5
49AE
102
{ACAD_REACTORS
330
18
102
}
330
18
100
AcDbGroup
300

 70
     3
 71
     0
  0
GROUP
  5
1C22
102
{ACAD_REACTORS
330
18
102
}
330
18
100
AcDbGroup
300

 70
     3
 71
     0
  0
GROUP
  5
49E4
102
{ACAD_REACTORS
330
18
102
}
330
18
100
AcDbGroup
300

 70
     3
 71
     0
  0
GROUP
  5
63D4
102
{ACAD_REACTORS
330
18
102
}
330
18
100
AcDbGroup
300

 70
     3
 71
     0
  0
GROUP
  5
63FE
102
{ACAD_REACTORS
330
18
102
}
330
18
100
AcDbGroup
300

 70
     3
 71
     0
  0
GROUP
  5
1B98
102
{ACAD_REACTORS
330
18
102
}
330
18
100
AcDbGroup
300

 70
     3
 71
     0
  0
GROUP
  5
639D
102
{ACAD_REACTORS
330
18
102
}
330
18
100
AcDbGroup
300

 70
     3
 71
     0
  0
GROUP
  5
49CE
102
{ACAD_REACTORS
330
18
102
}
330
18
100
AcDbGroup
300

 70
     3
 71
     0
  0
GROUP
  5
484D
102
{ACAD_REACTORS
330
18
102
}
330
18
100
AcDbGroup
300

 70
     3
 71
     0
  0
GROUP
  5
1B45
102
{ACAD_REACTORS
330
18
102
}
330
18
100
AcDbGroup
300

 70
     3
 71
     0
  0
GROUP
  5
37AE
102
{ACAD_REACTORS
330
18
102
}
330
18
100
AcDbGroup
300

 70
     3
 71
     0
  0
GROUP
  5
63D3
102
{ACAD_REACTORS
330
18
102
}
330
18
100
AcDbGroup
300

 70
     3
 71
     0
  0
GROUP
  5
494C
102
{ACAD_REACTORS
330
18
102
}
330
18
100
AcDbGroup
300

 70
     3
 71
     0
  0
GROUP
  5
62F3
102
{ACAD_REACTORS
330
18
102
}
330
18
100
AcDbGroup
300

 70
     3
 71
     0
  0
GROUP
  5
4970
102
{ACAD_REACTORS
330
18
102
}
330
18
100
AcDbGroup
300

 70
     3
 71
     0
  0
GROUP
  5
37A0
102
{ACAD_REACTORS
330
18
102
}
330
18
100
AcDbGroup
300

 70
     3
 71
     0
  0
GROUP
  5
1B85
102
{ACAD_REACTORS
330
18
102
}
330
18
100
AcDbGroup
300

 70
     3
 71
     0
  0
GROUP
  5
635D
102
{ACAD_REACTORS
330
18
102
}
330
18
100
AcDbGroup
300

 70
     3
 71
     0
  0
GROUP
  5
638E
102
{ACAD_REACTORS
330
18
102
}
330
18
100
AcDbGroup
300

 70
     3
 71
     0
  0
GROUP
  5
1B1C
102
{ACAD_REACTORS
330
18
102
}
330
18
100
AcDbGroup
300

 70
     3
 71
     0
  0
GROUP
  5
4A13
102
{ACAD_REACTORS
330
18
102
}
330
18
100
AcDbGroup
300

 70
     3
 71
     0
  0
GROUP
  5
6310
102
{ACAD_REACTORS
330
18
102
}
330
18
100
AcDbGroup
300

 70
     3
 71
     0
  0
GROUP
  5
62B6
102
{ACAD_REACTORS
330
18
102
}
330
18
100
AcDbGroup
300

 70
     3
 71
     0
  0
GROUP
  5
3798
102
{ACAD_REACTORS
330
18
102
}
330
18
100
AcDbGroup
300

 70
     3
 71
     0
  0
GROUP
  5
1B63
102
{ACAD_REACTORS
330
18
102
}
330
18
100
AcDbGroup
300

 70
     3
 71
     0
  0
GROUP
  5
481C
102
{ACAD_REACTORS
330
18
102
}
330
18
100
AcDbGroup
300

 70
     3
 71
     0
  0
GROUP
  5
62FA
102
{ACAD_REACTORS
330
18
102
}
330
18
100
AcDbGroup
300

 70
     3
 71
     0
  0
GROUP
  5
49A4
102
{ACAD_REACTORS
330
18
102
}
330
18
100
AcDbGroup
300

 70
     3
 71
     0
  0
GROUP
  5
48CF
102
{ACAD_REACTORS
330
18
102
}
330
18
100
AcDbGroup
300

 70
     3
 71
     0
  0
GROUP
  5
63A0
102
{ACAD_REACTORS
330
18
102
}
330
18
100
AcDbGroup
300

 70
     3
 71
     0
  0
GROUP
  5
1AFE
102
{ACAD_REACTORS
330
18
102
}
330
18
100
AcDbGroup
300

 70
     3
 71
     0
  0
GROUP
  5
63E0
102
{ACAD_REACTORS
330
18
102
}
330
18
100
AcDbGroup
300

 70
     3
 71
     0
  0
GROUP
  5
641C
102
{ACAD_REACTORS
330
18
102
}
330
18
100
AcDbGroup
300

 70
     3
 71
     0
  0
GROUP
  5
1C16
102
{ACAD_REACTORS
330
18
102
}
330
18
100
AcDbGroup
300

 70
     3
 71
     0
  0
GROUP
  5
4941
102
{ACAD_REACTORS
330
18
102
}
330
18
100
AcDbGroup
300

 70
     3
 71
     0
  0
GROUP
  5
1B96
102
{ACAD_REACTORS
330
18
102
}
330
18
100
AcDbGroup
300

 70
     3
 71
     0
  0
GROUP
  5
1B2D
102
{ACAD_REACTORS
330
18
102
}
330
18
100
AcDbGroup
300

 70
     3
 71
     0
  0
GROUP
  5
4939
102
{ACAD_REACTORS
330
18
102
}
330
18
100
AcDbGroup
300

 70
     3
 71
     0
  0
GROUP
  5
6372
102
{ACAD_REACTORS
330
18
102
}
330
18
100
AcDbGroup
300

 70
     3
 71
     0
  0
GROUP
  5
4A00
102
{ACAD_REACTORS
330
18
102
}
330
18
100
AcDbGroup
300

 70
     3
 71
     0
  0
GROUP
  5
1B0D
102
{ACAD_REACTORS
330
18
102
}
330
18
100
AcDbGroup
300

 70
     3
 71
     0
  0
GROUP
  5
6371
102
{ACAD_REACTORS
330
18
102
}
330
18
100
AcDbGroup
300

 70
     3
 71
     0
  0
GROUP
  5
484A
102
{ACAD_REACTORS
330
18
102
}
330
18
100
AcDbGroup
300

 70
     3
 71
     0
  0
GROUP
  5
6420
102
{ACAD_REACTORS
330
18
102
}
330
18
100
AcDbGroup
300

 70
     3
 71
     0
  0
GROUP
  5
1BA5
102
{ACAD_REACTORS
330
18
102
}
330
18
100
AcDbGroup
300

 70
     3
 71
     0
  0
GROUP
  5
6405
102
{ACAD_REACTORS
330
18
102
}
330
18
100
AcDbGroup
300

 70
     3
 71
     0
  0
GROUP
  5
1C25
102
{ACAD_REACTORS
330
18
102
}
330
18
100
AcDbGroup
300

 70
     3
 71
     0
  0
GROUP
  5
49C4
102
{ACAD_REACTORS
330
18
102
}
330
18
100
AcDbGroup
300

 70
     3
 71
     0
  0
GROUP
  5
637D
102
{ACAD_REACTORS
330
18
102
}
330
18
100
AcDbGroup
300

 70
     3
 71
     0
  0
GROUP
  5
1BE4
102
{ACAD_REACTORS
330
18
102
}
330
18
100
AcDbGroup
300

 70
     3
 71
     0
  0
GROUP
  5
489D
102
{ACAD_REACTORS
330
18
102
}
330
18
100
AcDbGroup
300

 70
     3
 71
     0
  0
GROUP
  5
4895
102
{ACAD_REACTORS
330
18
102
}
330
18
100
AcDbGroup
300

 70
     3
 71
     0
  0
GROUP
  5
6239
102
{ACAD_REACTORS
330
18
102
}
330
18
100
AcDbGroup
300

 70
     3
 71
     0
  0
GROUP
  5
1BFC
102
{ACAD_REACTORS
330
18
102
}
330
18
100
AcDbGroup
300

 70
     3
 71
     0
  0
GROUP
  5
633A
102
{ACAD_REACTORS
330
18
102
}
330
18
100
AcDbGroup
300

 70
     3
 71
     0
  0
GROUP
  5
4864
102
{ACAD_REACTORS
330
18
102
}
330
18
100
AcDbGroup
300

 70
     3
 71
     0
  0
GROUP
  5
492D
102
{ACAD_REACTORS
330
18
102
}
330
18
100
AcDbGroup
300

 70
     3
 71
     0
  0
GROUP
  5
6308
102
{ACAD_REACTORS
330
18
102
}
330
18
100
AcDbGroup
300

 70
     3
 71
     0
  0
GROUP
  5
63F7
102
{ACAD_REACTORS
330
18
102
}
330
18
100
AcDbGroup
300

 70
     3
 71
     0
  0
GROUP
  5
63CA
102
{ACAD_REACTORS
330
18
102
}
330
18
100
AcDbGroup
300

 70
     3
 71
     0
  0
GROUP
  5
1BD5
102
{ACAD_REACTORS
330
18
102
}
330
18
100
AcDbGroup
300

 70
     3
 71
     0
  0
GROUP
  5
49B2
102
{ACAD_REACTORS
330
18
102
}
330
18
100
AcDbGroup
300

 70
     3
 71
     0
  0
GROUP
  5
1BC0
102
{ACAD_REACTORS
330
18
102
}
330
18
100
AcDbGroup
300

 70
     3
 71
     0
  0
GROUP
  5
37AD
102
{ACAD_REACTORS
330
18
102
}
330
18
100
AcDbGroup
300

 70
     3
 71
     0
  0
GROUP
  5
1BD6
102
{ACAD_REACTORS
330
18
102
}
330
18
100
AcDbGroup
300

 70
     3
 71
     0
  0
GROUP
  5
1C1C
102
{ACAD_REACTORS
330
18
102
}
330
18
100
AcDbGroup
300

 70
     3
 71
     0
  0
GROUP
  5
1B52
102
{ACAD_REACTORS
330
18
102
}
330
18
100
AcDbGroup
300

 70
     3
 71
     0
  0
GROUP
  5
48DA
102
{ACAD_REACTORS
330
18
102
}
330
18
100
AcDbGroup
300

 70
     3
 71
     0
  0
GROUP
  5
1B1A
102
{ACAD_REACTORS
330
18
102
}
330
18
100
AcDbGroup
300

 70
     3
 71
     0
  0
GROUP
  5
1B80
102
{ACAD_REACTORS
330
18
102
}
330
18
100
AcDbGroup
300

 70
     3
 71
     0
  0
GROUP
  5
6348
102
{ACAD_REACTORS
330
18
102
}
330
18
100
AcDbGroup
300

 70
     3
 71
     0
  0
GROUP
  5
484E
102
{ACAD_REACTORS
330
18
102
}
330
18
100
AcDbGroup
300

 70
     3
 71
     0
  0
GROUP
  5
1B87
102
{ACAD_REACTORS
330
18
102
}
330
18
100
AcDbGroup
300

 70
     3
 71
     0
  0
GROUP
  5
1BE5
102
{ACAD_REACTORS
330
18
102
}
330
18
100
AcDbGroup
300

 70
     3
 71
     0
  0
GROUP
  5
1ADE
102
{ACAD_REACTORS
330
18
102
}
330
18
100
AcDbGroup
300

 70
     3
 71
     0
  0
GROUP
  5
1B23
102
{ACAD_REACTORS
330
18
102
}
330
18
100
AcDbGroup
300

 70
     3
 71
     0
  0
GROUP
  5
62E7
102
{ACAD_REACTORS
330
18
102
}
330
18
100
AcDbGroup
300

 70
     3
 71
     0
  0
GROUP
  5
1B66
102
{ACAD_REACTORS
330
18
102
}
330
18
100
AcDbGroup
300

 70
     3
 71
     0
  0
GROUP
  5
49A8
102
{ACAD_REACTORS
330
18
102
}
330
18
100
AcDbGroup
300

 70
     3
 71
     0
  0
GROUP
  5
1BD2
102
{ACAD_REACTORS
330
18
102
}
330
18
100
AcDbGroup
300

 70
     3
 71
     0
  0
GROUP
  5
48CA
102
{ACAD_REACTORS
330
18
102
}
330
18
100
AcDbGroup
300

 70
     3
 71
     0
  0
GROUP
  5
37B1
102
{ACAD_REACTORS
330
18
102
}
330
18
100
AcDbGroup
300

 70
     3
 71
     0
  0
GROUP
  5
4816
102
{ACAD_REACTORS
330
18
102
}
330
18
100
AcDbGroup
300

 70
     3
 71
     0
  0
GROUP
  5
63B4
102
{ACAD_REACTORS
330
18
102
}
330
18
100
AcDbGroup
300

 70
     3
 71
     0
  0
GROUP
  5
640F
102
{ACAD_REACTORS
330
18
102
}
330
18
100
AcDbGroup
300

 70
     3
 71
     0
  0
GROUP
  5
4906
102
{ACAD_REACTORS
330
18
102
}
330
18
100
AcDbGroup
300

 70
     3
 71
     0
  0
GROUP
  5
1C0A
102
{ACAD_REACTORS
330
18
102
}
330
18
100
AcDbGroup
300

 70
     3
 71
     0
  0
GROUP
  5
48C0
102
{ACAD_REACTORS
330
18
102
}
330
18
100
AcDbGroup
300

 70
     3
 71
     0
  0
GROUP
  5
627A
102
{ACAD_REACTORS
330
18
102
}
330
18
100
AcDbGroup
300

 70
     3
 71
     0
  0
GROUP
  5
1C5F
102
{ACAD_REACTORS
330
18
102
}
330
18
100
AcDbGroup
300

 70
     3
 71
     0
  0
GROUP
  5
62E4
102
{ACAD_REACTORS
330
18
102
}
330
18
100
AcDbGroup
300

 70
     3
 71
     0
  0
GROUP
  5
1C26
102
{ACAD_REACTORS
330
18
102
}
330
18
100
AcDbGroup
300

 70
     3
 71
     0
  0
GROUP
  5
624A
102
{ACAD_REACTORS
330
18
102
}
330
18
100
AcDbGroup
300

 70
     3
 71
     0
  0
GROUP
  5
1C2A
102
{ACAD_REACTORS
330
18
102
}
330
18
100
AcDbGroup
300

 70
     3
 71
     0
  0
GROUP
  5
48A7
102
{ACAD_REACTORS
330
18
102
}
330
18
100
AcDbGroup
300

 70
     3
 71
     0
  0
GROUP
  5
62F0
102
{ACAD_REACTORS
330
18
102
}
330
18
100
AcDbGroup
300

 70
     3
 71
     0
  0
GROUP
  5
4987
102
{ACAD_REACTORS
330
18
102
}
330
18
100
AcDbGroup
300

 70
     3
 71
     0
  0
GROUP
  5
6409
102
{ACAD_REACTORS
330
18
102
}
330
18
100
AcDbGroup
300

 70
     3
 71
     0
  0
GROUP
  5
4934
102
{ACAD_REACTORS
330
18
102
}
330
18
100
AcDbGroup
300

 70
     3
 71
     0
  0
GROUP
  5
623B
102
{ACAD_REACTORS
330
18
102
}
330
18
100
AcDbGroup
300

 70
     3
 71
     0
  0
GROUP
  5
62AB
102
{ACAD_REACTORS
330
18
102
}
330
18
100
AcDbGroup
300

 70
     3
 71
     0
  0
GROUP
  5
499D
102
{ACAD_REACTORS
330
18
102
}
330
18
100
AcDbGroup
300

 70
     3
 71
     0
  0
GROUP
  5
63C6
102
{ACAD_REACTORS
330
18
102
}
330
18
100
AcDbGroup
300

 70
     3
 71
     0
  0
GROUP
  5
63EF
102
{ACAD_REACTORS
330
18
102
}
330
18
100
AcDbGroup
300

 70
     3
 71
     0
  0
GROUP
  5
1BEA
102
{ACAD_REACTORS
330
18
102
}
330
18
100
AcDbGroup
300

 70
     3
 71
     0
  0
GROUP
  5
6346
102
{ACAD_REACTORS
330
18
102
}
330
18
100
AcDbGroup
300

 70
     3
 71
     0
  0
GROUP
  5
6291
102
{ACAD_REACTORS
330
18
102
}
330
18
100
AcDbGroup
300

 70
     3
 71
     0
  0
GROUP
  5
1BA2
102
{ACAD_REACTORS
330
18
102
}
330
18
100
AcDbGroup
300

 70
     3
 71
     0
  0
GROUP
  5
1B3B
102
{ACAD_REACTORS
330
18
102
}
330
18
100
AcDbGroup
300

 70
     3
 71
     0
  0
GROUP
  5
1B7E
102
{ACAD_REACTORS
330
18
102
}
330
18
100
AcDbGroup
300

 70
     3
 71
     0
  0
GROUP
  5
49AD
102
{ACAD_REACTORS
330
18
102
}
330
18
100
AcDbGroup
300

 70
     3
 71
     0
  0
GROUP
  5
62C1
102
{ACAD_REACTORS
330
18
102
}
330
18
100
AcDbGroup
300

 70
     3
 71
     0
  0
GROUP
  5
6292
102
{ACAD_REACTORS
330
18
102
}
330
18
100
AcDbGroup
300

 70
     3
 71
     0
  0
GROUP
  5
492A
102
{ACAD_REACTORS
330
18
102
}
330
18
100
AcDbGroup
300

 70
     3
 71
     0
  0
GROUP
  5
1B60
102
{ACAD_REACTORS
330
18
102
}
330
18
100
AcDbGroup
300

 70
     3
 71
     0
  0
GROUP
  5
489B
102
{ACAD_REACTORS
330
18
102
}
330
18
100
AcDbGroup
300

 70
     3
 71
     0
  0
GROUP
  5
63FF
102
{ACAD_REACTORS
330
18
102
}
330
18
100
AcDbGroup
300

 70
     3
 71
     0
  0
GROUP
  5
4817
102
{ACAD_REACTORS
330
18
102
}
330
18
100
AcDbGroup
300

 70
     3
 71
     0
  0
GROUP
  5
4871
102
{ACAD_REACTORS
330
18
102
}
330
18
100
AcDbGroup
300

 70
     3
 71
     0
  0
GROUP
  5
49E2
102
{ACAD_REACTORS
330
18
102
}
330
18
100
AcDbGroup
300

 70
     3
 71
     0
  0
GROUP
  5
1465
102
{ACAD_REACTORS
330
18
102
}
330
18
100
AcDbGroup
300

 70
     3
 71
     0
  0
GROUP
  5
1BEE
102
{ACAD_REACTORS
330
18
102
}
330
18
100
AcDbGroup
300

 70
     3
 71
     0
  0
GROUP
  5
63EC
102
{ACAD_REACTORS
330
18
102
}
330
18
100
AcDbGroup
300

 70
     3
 71
     0
  0
GROUP
  5
1BEB
102
{ACAD_REACTORS
330
18
102
}
330
18
100
AcDbGroup
300

 70
     3
 71
     0
  0
GROUP
  5
4998
102
{ACAD_REACTORS
330
18
102
}
330
18
100
AcDbGroup
300

 70
     3
 71
     0
  0
GROUP
  5
480B
102
{ACAD_REACTORS
330
18
102
}
330
18
100
AcDbGroup
300

 70
     3
 71
     0
  0
GROUP
  5
625A
102
{ACAD_REACTORS
330
18
102
}
330
18
100
AcDbGroup
300

 70
     3
 71
     0
  0
GROUP
  5
493A
102
{ACAD_REACTORS
330
18
102
}
330
18
100
AcDbGroup
300

 70
     3
 71
     0
  0
GROUP
  5
1B42
102
{ACAD_REACTORS
330
18
102
}
330
18
100
AcDbGroup
300

 70
     3
 71
     0
  0
GROUP
  5
63B0
102
{ACAD_REACTORS
330
18
102
}
330
18
100
AcDbGroup
300

 70
     3
 71
     0
  0
GROUP
  5
48AF
102
{ACAD_REACTORS
330
18
102
}
330
18
100
AcDbGroup
300

 70
     3
 71
     0
  0
GROUP
  5
62A3
102
{ACAD_REACTORS
330
18
102
}
330
18
100
AcDbGroup
300

 70
     3
 71
     0
  0
GROUP
  5
634B
102
{ACAD_REACTORS
330
18
102
}
330
18
100
AcDbGroup
300

 70
     3
 71
     0
  0
GROUP
  5
490A
102
{ACAD_REACTORS
330
18
102
}
330
18
100
AcDbGroup
300

 70
     3
 71
     0
  0
GROUP
  5
4943
102
{ACAD_REACTORS
330
18
102
}
330
18
100
AcDbGroup
300

 70
     3
 71
     0
  0
GROUP
  5
6281
102
{ACAD_REACTORS
330
18
102
}
330
18
100
AcDbGroup
300

 70
     3
 71
     0
  0
GROUP
  5
62DC
102
{ACAD_REACTORS
330
18
102
}
330
18
100
AcDbGroup
300

 70
     3
 71
     0
  0
GROUP
  5
48B0
102
{ACAD_REACTORS
330
18
102
}
330
18
100
AcDbGroup
300

 70
     3
 71
     0
  0
GROUP
  5
379D
102
{ACAD_REACTORS
330
18
102
}
330
18
100
AcDbGroup
300

 70
     3
 71
     0
  0
GROUP
  5
6385
102
{ACAD_REACTORS
330
18
102
}
330
18
100
AcDbGroup
300

 70
     3
 71
     0
  0
GROUP
  5
1AFC
102
{ACAD_REACTORS
330
18
102
}
330
18
100
AcDbGroup
300

 70
     3
 71
     0
  0
GROUP
  5
4959
102
{ACAD_REACTORS
330
18
102
}
330
18
100
AcDbGroup
300

 70
     3
 71
     0
  0
GROUP
  5
49D9
102
{ACAD_REACTORS
330
18
102
}
330
18
100
AcDbGroup
300

 70
     3
 71
     0
  0
GROUP
  5
1C32
102
{ACAD_REACTORS
330
18
102
}
330
18
100
AcDbGroup
300

 70
     3
 71
     0
  0
GROUP
  5
491E
102
{ACAD_REACTORS
330
18
102
}
330
18
100
AcDbGroup
300

 70
     3
 71
     0
  0
GROUP
  5
1AE9
102
{ACAD_REACTORS
330
18
102
}
330
18
100
AcDbGroup
300

 70
     3
 71
     0
  0
GROUP
  5
1B2C
102
{ACAD_REACTORS
330
18
102
}
330
18
100
AcDbGroup
300

 70
     3
 71
     0
  0
GROUP
  5
1C36
102
{ACAD_REACTORS
330
18
102
}
330
18
100
AcDbGroup
300

 70
     3
 71
     0
  0
GROUP
  5
49C2
102
{ACAD_REACTORS
330
18
102
}
330
18
100
AcDbGroup
300

 70
     3
 71
     0
  0
GROUP
  5
6396
102
{ACAD_REACTORS
330
18
102
}
330
18
100
AcDbGroup
300

 70
     3
 71
     0
  0
GROUP
  5
6425
102
{ACAD_REACTORS
330
18
102
}
330
18
100
AcDbGroup
300

 70
     3
 71
     0
  0
GROUP
  5
4A11
102
{ACAD_REACTORS
330
18
102
}
330
18
100
AcDbGroup
300

 70
     3
 71
     0
  0
GROUP
  5
494A
102
{ACAD_REACTORS
330
18
102
}
330
18
100
AcDbGroup
300

 70
     3
 71
     0
  0
GROUP
  5
62FF
102
{ACAD_REACTORS
330
18
102
}
330
18
100
AcDbGroup
300

 70
     3
 71
     0
  0
GROUP
  5
6352
102
{ACAD_REACTORS
330
18
102
}
330
18
100
AcDbGroup
300

 70
     3
 71
     0
  0
GROUP
  5
1BAE
102
{ACAD_REACTORS
330
18
102
}
330
18
100
AcDbGroup
300

 70
     3
 71
     0
  0
GROUP
  5
1AEB
102
{ACAD_REACTORS
330
18
102
}
330
18
100
AcDbGroup
300

 70
     3
 71
     0
  0
GROUP
  5
63CF
102
{ACAD_REACTORS
330
18
102
}
330
18
100
AcDbGroup
300

 70
     3
 71
     0
  0
GROUP
  5
622C
102
{ACAD_REACTORS
330
18
102
}
330
18
100
AcDbGroup
300

 70
     3
 71
     0
  0
GROUP
  5
1C1A
102
{ACAD_REACTORS
330
18
102
}
330
18
100
AcDbGroup
300

 70
     3
 71
     0
  0
GROUP
  5
1B6C
102
{ACAD_REACTORS
330
18
102
}
330
18
100
AcDbGroup
300

 70
     3
 71
     0
  0
GROUP
  5
1B6F
102
{ACAD_REACTORS
330
18
102
}
330
18
100
AcDbGroup
300

 70
     3
 71
     0
  0
GROUP
  5
1BB5
102
{ACAD_REACTORS
330
18
102
}
330
18
100
AcDbGroup
300

 70
     3
 71
     0
  0
GROUP
  5
62DF
102
{ACAD_REACTORS
330
18
102
}
330
18
100
AcDbGroup
300

 70
     3
 71
     0
  0
GROUP
  5
6294
102
{ACAD_REACTORS
330
18
102
}
330
18
100
AcDbGroup
300

 70
     3
 71
     0
  0
GROUP
  5
62CD
102
{ACAD_REACTORS
330
18
102
}
330
18
100
AcDbGroup
300

 70
     3
 71
     0
  0
GROUP
  5
4A15
102
{ACAD_REACTORS
330
18
102
}
330
18
100
AcDbGroup
300

 70
     3
 71
     0
  0
GROUP
  5
628C
102
{ACAD_REACTORS
330
18
102
}
330
18
100
AcDbGroup
300

 70
     3
 71
     0
  0
GROUP
  5
49B3
102
{ACAD_REACTORS
330
18
102
}
330
18
100
AcDbGroup
300

 70
     3
 71
     0
  0
GROUP
  5
1AFA
102
{ACAD_REACTORS
330
18
102
}
330
18
100
AcDbGroup
300

 70
     3
 71
     0
  0
GROUP
  5
48A9
102
{ACAD_REACTORS
330
18
102
}
330
18
100
AcDbGroup
300

 70
     3
 71
     0
  0
GROUP
  5
4891
102
{ACAD_REACTORS
330
18
102
}
330
18
100
AcDbGroup
300

 70
     3
 71
     0
  0
GROUP
  5
4A06
102
{ACAD_REACTORS
330
18
102
}
330
18
100
AcDbGroup
300

 70
     3
 71
     0
  0
GROUP
  5
37B3
102
{ACAD_REACTORS
330
18
102
}
330
18
100
AcDbGroup
300

 70
     3
 71
     0
  0
GROUP
  5
483D
102
{ACAD_REACTORS
330
18
102
}
330
18
100
AcDbGroup
300

 70
     3
 71
     0
  0
GROUP
  5
37B2
102
{ACAD_REACTORS
330
18
102
}
330
18
100
AcDbGroup
300

 70
     3
 71
     0
  0
GROUP
  5
1AD8
102
{ACAD_REACTORS
330
18
102
}
330
18
100
AcDbGroup
300

 70
     3
 71
     0
  0
GROUP
  5
37AB
102
{ACAD_REACTORS
330
18
102
}
330
18
100
AcDbGroup
300

 70
     3
 71
     0
  0
GROUP
  5
495C
102
{ACAD_REACTORS
330
18
102
}
330
18
100
AcDbGroup
300

 70
     3
 71
     0
  0
GROUP
  5
62C4
102
{ACAD_REACTORS
330
18
102
}
330
18
100
AcDbGroup
300

 70
     3
 71
     0
  0
GROUP
  5
4834
102
{ACAD_REACTORS
330
18
102
}
330
18
100
AcDbGroup
300

 70
     3
 71
     0
  0
GROUP
  5
488D
102
{ACAD_REACTORS
330
18
102
}
330
18
100
AcDbGroup
300

 70
     3
 71
     0
  0
GROUP
  5
635F
102
{ACAD_REACTORS
330
18
102
}
330
18
100
AcDbGroup
300

 70
     3
 71
     0
  0
GROUP
  5
48B1
102
{ACAD_REACTORS
330
18
102
}
330
18
100
AcDbGroup
300

 70
     3
 71
     0
  0
GROUP
  5
1B1D
102
{ACAD_REACTORS
330
18
102
}
330
18
100
AcDbGroup
300

 70
     3
 71
     0
  0
GROUP
  5
1C5A
102
{ACAD_REACTORS
330
18
102
}
330
18
100
AcDbGroup
300

 70
     3
 71
     0
  0
GROUP
  5
63B2
102
{ACAD_REACTORS
330
18
102
}
330
18
100
AcDbGroup
300

 70
     3
 71
     0
  0
GROUP
  5
1B82
102
{ACAD_REACTORS
330
18
102
}
330
18
100
AcDbGroup
300

 70
     3
 71
     0
  0
GROUP
  5
48A2
102
{ACAD_REACTORS
330
18
102
}
330
18
100
AcDbGroup
300

 70
     3
 71
     0
  0
GROUP
  5
1B0A
102
{ACAD_REACTORS
330
18
102
}
330
18
100
AcDbGroup
300

 70
     3
 71
     0
  0
GROUP
  5
6229
102
{ACAD_REACTORS
330
18
102
}
330
18
100
AcDbGroup
300

 70
     3
 71
     0
  0
GROUP
  5
1B88
102
{ACAD_REACTORS
330
18
102
}
330
18
100
AcDbGroup
300

 70
     3
 71
     0
  0
GROUP
  5
625B
102
{ACAD_REACTORS
330
18
102
}
330
18
100
AcDbGroup
300

 70
     3
 71
     0
  0
GROUP
  5
1B04
102
{ACAD_REACTORS
330
18
102
}
330
18
100
AcDbGroup
300

 70
     3
 71
     0
  0
GROUP
  5
487A
102
{ACAD_REACTORS
330
18
102
}
330
18
100
AcDbGroup
300

 70
     3
 71
     0
  0
GROUP
  5
1B2B
102
{ACAD_REACTORS
330
18
102
}
330
18
100
AcDbGroup
300

 70
     3
 71
     0
  0
GROUP
  5
63A2
102
{ACAD_REACTORS
330
18
102
}
330
18
100
AcDbGroup
300

 70
     3
 71
     0
  0
GROUP
  5
4844
102
{ACAD_REACTORS
330
18
102
}
330
18
100
AcDbGroup
300

 70
     3
 71
     0
  0
GROUP
  5
1B35
102
{ACAD_REACTORS
330
18
102
}
330
18
100
AcDbGroup
300

 70
     3
 71
     0
  0
GROUP
  5
6402
102
{ACAD_REACTORS
330
18
102
}
330
18
100
AcDbGroup
300

 70
     3
 71
     0
  0
GROUP
  5
63D6
102
{ACAD_REACTORS
330
18
102
}
330
18
100
AcDbGroup
300

 70
     3
 71
     0
  0
GROUP
  5
6350
102
{ACAD_REACTORS
330
18
102
}
330
18
100
AcDbGroup
300

 70
     3
 71
     0
  0
GROUP
  5
6400
102
{ACAD_REACTORS
330
18
102
}
330
18
100
AcDbGroup
300

 70
     3
 71
     0
  0
GROUP
  5
6399
102
{ACAD_REACTORS
330
18
102
}
330
18
100
AcDbGroup
300

 70
     3
 71
     0
  0
GROUP
  5
1ACE
102
{ACAD_REACTORS
330
18
102
}
330
18
100
AcDbGroup
300

 70
     3
 71
     0
  0
GROUP
  5
1BB4
102
{ACAD_REACTORS
330
18
102
}
330
18
100
AcDbGroup
300

 70
     3
 71
     0
  0
GROUP
  5
1C03
102
{ACAD_REACTORS
330
18
102
}
330
18
100
AcDbGroup
300

 70
     3
 71
     0
  0
GROUP
  5
4995
102
{ACAD_REACTORS
330
18
102
}
330
18
100
AcDbGroup
300

 70
     3
 71
     0
  0
GROUP
  5
1C45
102
{ACAD_REACTORS
330
18
102
}
330
18
100
AcDbGroup
300

 70
     3
 71
     0
  0
GROUP
  5
49FC
102
{ACAD_REACTORS
330
18
102
}
330
18
100
AcDbGroup
300

 70
     3
 71
     0
  0
GROUP
  5
6283
102
{ACAD_REACTORS
330
18
102
}
330
18
100
AcDbGroup
300

 70
     3
 71
     0
  0
GROUP
  5
6341
102
{ACAD_REACTORS
330
18
102
}
330
18
100
AcDbGroup
300

 70
     3
 71
     0
  0
GROUP
  5
1BA8
102
{ACAD_REACTORS
330
18
102
}
330
18
100
AcDbGroup
300

 70
     3
 71
     0
  0
GROUP
  5
63F0
102
{ACAD_REACTORS
330
18
102
}
330
18
100
AcDbGroup
300

 70
     3
 71
     0
  0
GROUP
  5
49D8
102
{ACAD_REACTORS
330
18
102
}
330
18
100
AcDbGroup
300

 70
     3
 71
     0
  0
GROUP
  5
4990
102
{ACAD_REACTORS
330
18
102
}
330
18
100
AcDbGroup
300

 70
     3
 71
     0
  0
GROUP
  5
629B
102
{ACAD_REACTORS
330
18
102
}
330
18
100
AcDbGroup
300

 70
     3
 71
     0
  0
GROUP
  5
1C0E
102
{ACAD_REACTORS
330
18
102
}
330
18
100
AcDbGroup
300

 70
     3
 71
     0
  0
GROUP
  5
1460
102
{ACAD_REACTORS
330
18
102
}
330
18
100
AcDbGroup
300

 70
     3
 71
     0
  0
GROUP
  5
6381
102
{ACAD_REACTORS
330
18
102
}
330
18
100
AcDbGroup
300

 70
     3
 71
     0
  0
GROUP
  5
37B9
102
{ACAD_REACTORS
330
18
102
}
330
18
100
AcDbGroup
300

 70
     3
 71
     0
  0
GROUP
  5
1AD1
102
{ACAD_REACTORS
330
18
102
}
330
18
100
AcDbGroup
300

 70
     3
 71
     0
  0
GROUP
  5
1AF3
102
{ACAD_REACTORS
330
18
102
}
330
18
100
AcDbGroup
300

 70
     3
 71
     0
  0
GROUP
  5
635B
102
{ACAD_REACTORS
330
18
102
}
330
18
100
AcDbGroup
300

 70
     3
 71
     0
  0
GROUP
  5
1BBD
102
{ACAD_REACTORS
330
18
102
}
330
18
100
AcDbGroup
300

 70
     3
 71
     0
  0
GROUP
  5
1B16
102
{ACAD_REACTORS
330
18
102
}
330
18
100
AcDbGroup
300

 70
     3
 71
     0
  0
GROUP
  5
1B62
102
{ACAD_REACTORS
330
18
102
}
330
18
100
AcDbGroup
300

 70
     3
 71
     0
  0
GROUP
  5
494D
102
{ACAD_REACTORS
330
18
102
}
330
18
100
AcDbGroup
300

 70
     3
 71
     0
  0
GROUP
  5
1AFD
102
{ACAD_REACTORS
330
18
102
}
330
18
100
AcDbGroup
300

 70
     3
 71
     0
  0
GROUP
  5
37C2
102
{ACAD_REACTORS
330
18
102
}
330
18
100
AcDbGroup
300

 70
     3
 71
     0
  0
GROUP
  5
49D5
102
{ACAD_REACTORS
330
18
102
}
330
18
100
AcDbGroup
300

 70
     3
 71
     0
  0
GROUP
  5
4A0F
102
{ACAD_REACTORS
330
18
102
}
330
18
100
AcDbGroup
300

 70
     3
 71
     0
  0
GROUP
  5
6392
102
{ACAD_REACTORS
330
18
102
}
330
18
100
AcDbGroup
300

 70
     3
 71
     0
  0
GROUP
  5
1BED
102
{ACAD_REACTORS
330
18
102
}
330
18
100
AcDbGroup
300

 70
     3
 71
     0
  0
GROUP
  5
1BF5
102
{ACAD_REACTORS
330
18
102
}
330
18
100
AcDbGroup
300

 70
     3
 71
     0
  0
GROUP
  5
62E9
102
{ACAD_REACTORS
330
18
102
}
330
18
100
AcDbGroup
300

 70
     3
 71
     0
  0
GROUP
  5
48B3
102
{ACAD_REACTORS
330
18
102
}
330
18
100
AcDbGroup
300

 70
     3
 71
     0
  0
GROUP
  5
62C8
102
{ACAD_REACTORS
330
18
102
}
330
18
100
AcDbGroup
300

 70
     3
 71
     0
  0
GROUP
  5
638B
102
{ACAD_REACTORS
330
18
102
}
330
18
100
AcDbGroup
300

 70
     3
 71
     0
  0
GROUP
  5
48E3
102
{ACAD_REACTORS
330
18
102
}
330
18
100
AcDbGroup
300

 70
     3
 71
     0
  0
GROUP
  5
4929
102
{ACAD_REACTORS
330
18
102
}
330
18
100
AcDbGroup
300

 70
     3
 71
     0
  0
GROUP
  5
6316
102
{ACAD_REACTORS
330
18
102
}
330
18
100
AcDbGroup
300

 70
     3
 71
     0
  0
GROUP
  5
37BF
102
{ACAD_REACTORS
330
18
102
}
330
18
100
AcDbGroup
300

 70
     3
 71
     0
  0
GROUP
  5
1BBB
102
{ACAD_REACTORS
330
18
102
}
330
18
100
AcDbGroup
300

 70
     3
 71
     0
  0
GROUP
  5
6304
102
{ACAD_REACTORS
330
18
102
}
330
18
100
AcDbGroup
300

 70
     3
 71
     0
  0
GROUP
  5
1BE1
102
{ACAD_REACTORS
330
18
102
}
330
18
100
AcDbGroup
300

 70
     3
 71
     0
  0
GROUP
  5
49F0
102
{ACAD_REACTORS
330
18
102
}
330
18
100
AcDbGroup
300

 70
     3
 71
     0
  0
GROUP
  5
1AEC
102
{ACAD_REACTORS
330
18
102
}
330
18
100
AcDbGroup
300

 70
     3
 71
     0
  0
GROUP
  5
498C
102
{ACAD_REACTORS
330
18
102
}
330
18
100
AcDbGroup
300

 70
     3
 71
     0
  0
GROUP
  5
1B0C
102
{ACAD_REACTORS
330
18
102
}
330
18
100
AcDbGroup
300

 70
     3
 71
     0
  0
GROUP
  5
1BB6
102
{ACAD_REACTORS
330
18
102
}
330
18
100
AcDbGroup
300

 70
     3
 71
     0
  0
GROUP
  5
488F
102
{ACAD_REACTORS
330
18
102
}
330
18
100
AcDbGroup
300

 70
     3
 71
     0
  0
GROUP
  5
625E
102
{ACAD_REACTORS
330
18
102
}
330
18
100
AcDbGroup
300

 70
     3
 71
     0
  0
GROUP
  5
4989
102
{ACAD_REACTORS
330
18
102
}
330
18
100
AcDbGroup
300

 70
     3
 71
     0
  0
GROUP
  5
4899
102
{ACAD_REACTORS
330
18
102
}
330
18
100
AcDbGroup
300

 70
     3
 71
     0
  0
GROUP
  5
1BBF
102
{ACAD_REACTORS
330
18
102
}
330
18
100
AcDbGroup
300

 70
     3
 71
     0
  0
GROUP
  5
63C9
102
{ACAD_REACTORS
330
18
102
}
330
18
100
AcDbGroup
300

 70
     3
 71
     0
  0
GROUP
  5
6375
102
{ACAD_REACTORS
330
18
102
}
330
18
100
AcDbGroup
300

 70
     3
 71
     0
  0
GROUP
  5
4911
102
{ACAD_REACTORS
330
18
102
}
330
18
100
AcDbGroup
300

 70
     3
 71
     0
  0
GROUP
  5
635C
102
{ACAD_REACTORS
330
18
102
}
330
18
100
AcDbGroup
300

 70
     3
 71
     0
  0
GROUP
  5
487D
102
{ACAD_REACTORS
330
18
102
}
330
18
100
AcDbGroup
300

 70
     3
 71
     0
  0
GROUP
  5
1B5D
102
{ACAD_REACTORS
330
18
102
}
330
18
100
AcDbGroup
300

 70
     3
 71
     0
  0
GROUP
  5
63BB
102
{ACAD_REACTORS
330
18
102
}
330
18
100
AcDbGroup
300

 70
     3
 71
     0
  0
GROUP
  5
637A
102
{ACAD_REACTORS
330
18
102
}
330
18
100
AcDbGroup
300

 70
     3
 71
     0
  0
GROUP
  5
6261
102
{ACAD_REACTORS
330
18
102
}
330
18
100
AcDbGroup
300

 70
     3
 71
     0
  0
GROUP
  5
49CF
102
{ACAD_REACTORS
330
18
102
}
330
18
100
AcDbGroup
300

 70
     3
 71
     0
  0
GROUP
  5
6262
102
{ACAD_REACTORS
330
18
102
}
330
18
100
AcDbGroup
300

 70
     3
 71
     0
  0
GROUP
  5
1C02
102
{ACAD_REACTORS
330
18
102
}
330
18
100
AcDbGroup
300

 70
     3
 71
     0
  0
GROUP
  5
6394
102
{ACAD_REACTORS
330
18
102
}
330
18
100
AcDbGroup
300

 70
     3
 71
     0
  0
GROUP
  5
1BB1
102
{ACAD_REACTORS
330
18
102
}
330
18
100
AcDbGroup
300

 70
     3
 71
     0
  0
GROUP
  5
48E8
102
{ACAD_REACTORS
330
18
102
}
330
18
100
AcDbGroup
300

 70
     3
 71
     0
  0
GROUP
  5
37A3
102
{ACAD_REACTORS
330
18
102
}
330
18
100
AcDbGroup
300

 70
     3
 71
     0
  0
GROUP
  5
49AA
102
{ACAD_REACTORS
330
18
102
}
330
18
100
AcDbGroup
300

 70
     3
 71
     0
  0
GROUP
  5
63BC
102
{ACAD_REACTORS
330
18
102
}
330
18
100
AcDbGroup
300

 70
     3
 71
     0
  0
GROUP
  5
62AF
102
{ACAD_REACTORS
330
18
102
}
330
18
100
AcDbGroup
300

 70
     3
 71
     0
  0
GROUP
  5
48E1
102
{ACAD_REACTORS
330
18
102
}
330
18
100
AcDbGroup
300

 70
     3
 71
     0
  0
GROUP
  5
6311
102
{ACAD_REACTORS
330
18
102
}
330
18
100
AcDbGroup
300

 70
     3
 71
     0
  0
GROUP
  5
6369
102
{ACAD_REACTORS
330
18
102
}
330
18
100
AcDbGroup
300

 70
     3
 71
     0
  0
GROUP
  5
1C53
102
{ACAD_REACTORS
330
18
102
}
330
18
100
AcDbGroup
300

 70
     3
 71
     0
  0
GROUP
  5
499A
102
{ACAD_REACTORS
330
18
102
}
330
18
100
AcDbGroup
300

 70
     3
 71
     0
  0
GROUP
  5
4874
102
{ACAD_REACTORS
330
18
102
}
330
18
100
AcDbGroup
300

 70
     3
 71
     0
  0
GROUP
  5
4896
102
{ACAD_REACTORS
330
18
102
}
330
18
100
AcDbGroup
300

 70
     3
 71
     0
  0
GROUP
  5
481F
102
{ACAD_REACTORS
330
18
102
}
330
18
100
AcDbGroup
300

 70
     3
 71
     0
  0
GROUP
  5
1459
102
{ACAD_REACTORS
330
18
102
}
330
18
100
AcDbGroup
300

 70
     3
 71
     0
  0
GROUP
  5
49F8
102
{ACAD_REACTORS
330
18
102
}
330
18
100
AcDbGroup
300

 70
     3
 71
     0
  0
GROUP
  5
4974
102
{ACAD_REACTORS
330
18
102
}
330
18
100
AcDbGroup
300

 70
     3
 71
     0
  0
GROUP
  5
497E
102
{ACAD_REACTORS
330
18
102
}
330
18
100
AcDbGroup
300

 70
     3
 71
     0
  0
GROUP
  5
1AD0
102
{ACAD_REACTORS
330
18
102
}
330
18
100
AcDbGroup
300

 70
     3
 71
     0
  0
GROUP
  5
639E
102
{ACAD_REACTORS
330
18
102
}
330
18
100
AcDbGroup
300

 70
     3
 71
     0
  0
GROUP
  5
6220
102
{ACAD_REACTORS
330
18
102
}
330
18
100
AcDbGroup
300

 70
     3
 71
     0
  0
GROUP
  5
63E1
102
{ACAD_REACTORS
330
18
102
}
330
18
100
AcDbGroup
300

 70
     3
 71
     0
  0
GROUP
  5
48B4
102
{ACAD_REACTORS
330
18
102
}
330
18
100
AcDbGroup
300

 70
     3
 71
     0
  0
GROUP
  5
4A17
102
{ACAD_REACTORS
330
18
102
}
330
18
100
AcDbGroup
300

 70
     3
 71
     0
  0
GROUP
  5
1B92
102
{ACAD_REACTORS
330
18
102
}
330
18
100
AcDbGroup
300

 70
     3
 71
     0
  0
GROUP
  5
1B2A
102
{ACAD_REACTORS
330
18
102
}
330
18
100
AcDbGroup
300

 70
     3
 71
     0
  0
GROUP
  5
48D2
102
{ACAD_REACTORS
330
18
102
}
330
18
100
AcDbGroup
300

 70
     3
 71
     0
  0
GROUP
  5
1C15
102
{ACAD_REACTORS
330
18
102
}
330
18
100
AcDbGroup
300

 70
     3
 71
     0
  0
GROUP
  5
1C58
102
{ACAD_REACTORS
330
18
102
}
330
18
100
AcDbGroup
300

 70
     3
 71
     0
  0
GROUP
  5
49BD
102
{ACAD_REACTORS
330
18
102
}
330
18
100
AcDbGroup
300

 70
     3
 71
     0
  0
GROUP
  5
1B8B
102
{ACAD_REACTORS
330
18
102
}
330
18
100
AcDbGroup
300

 70
     3
 71
     0
  0
GROUP
  5
1C1B
102
{ACAD_REACTORS
330
18
102
}
330
18
100
AcDbGroup
300

 70
     3
 71
     0
  0
GROUP
  5
495E
102
{ACAD_REACTORS
330
18
102
}
330
18
100
AcDbGroup
300

 70
     3
 71
     0
  0
GROUP
  5
1C20
102
{ACAD_REACTORS
330
18
102
}
330
18
100
AcDbGroup
300

 70
     3
 71
     0
  0
GROUP
  5
1C3A
102
{ACAD_REACTORS
330
18
102
}
330
18
100
AcDbGroup
300

 70
     3
 71
     0
  0
GROUP
  5
49E8
102
{ACAD_REACTORS
330
18
102
}
330
18
100
AcDbGroup
300

 70
     3
 71
     0
  0
GROUP
  5
37A6
102
{ACAD_REACTORS
330
18
102
}
330
18
100
AcDbGroup
300

 70
     3
 71
     0
  0
GROUP
  5
635A
102
{ACAD_REACTORS
330
18
102
}
330
18
100
AcDbGroup
300

 70
     3
 71
     0
  0
GROUP
  5
1BD4
102
{ACAD_REACTORS
330
18
102
}
330
18
100
AcDbGroup
300

 70
     3
 71
     0
  0
GROUP
  5
62A0
102
{ACAD_REACTORS
330
18
102
}
330
18
100
AcDbGroup
300

 70
     3
 71
     0
  0
GROUP
  5
4997
102
{ACAD_REACTORS
330
18
102
}
330
18
100
AcDbGroup
300

 70
     3
 71
     0
  0
GROUP
  5
6317
102
{ACAD_REACTORS
330
18
102
}
330
18
100
AcDbGroup
300

 70
     3
 71
     0
  0
GROUP
  5
1C21
102
{ACAD_REACTORS
330
18
102
}
330
18
100
AcDbGroup
300

 70
     3
 71
     0
  0
GROUP
  5
1AEE
102
{ACAD_REACTORS
330
18
102
}
330
18
100
AcDbGroup
300

 70
     3
 71
     0
  0
GROUP
  5
6248
102
{ACAD_REACTORS
330
18
102
}
330
18
100
AcDbGroup
300

 70
     3
 71
     0
  0
GROUP
  5
1AED
102
{ACAD_REACTORS
330
18
102
}
330
18
100
AcDbGroup
300

 70
     3
 71
     0
  0
GROUP
  5
497F
102
{ACAD_REACTORS
330
18
102
}
330
18
100
AcDbGroup
300

 70
     3
 71
     0
  0
GROUP
  5
1C48
102
{ACAD_REACTORS
330
18
102
}
330
18
100
AcDbGroup
300

 70
     3
 71
     0
  0
GROUP
  5
1BD3
102
{ACAD_REACTORS
330
18
102
}
330
18
100
AcDbGroup
300

 70
     3
 71
     0
  0
GROUP
  5
48BB
102
{ACAD_REACTORS
330
18
102
}
330
18
100
AcDbGroup
300

 70
     3
 71
     0
  0
GROUP
  5
1C37
102
{ACAD_REACTORS
330
18
102
}
330
18
100
AcDbGroup
300

 70
     3
 71
     0
  0
GROUP
  5
1C44
102
{ACAD_REACTORS
330
18
102
}
330
18
100
AcDbGroup
300

 70
     3
 71
     0
  0
GROUP
  5
49F6
102
{ACAD_REACTORS
330
18
102
}
330
18
100
AcDbGroup
300

 70
     3
 71
     0
  0
GROUP
  5
496F
102
{ACAD_REACTORS
330
18
102
}
330
18
100
AcDbGroup
300

 70
     3
 71
     0
  0
GROUP
  5
62AA
102
{ACAD_REACTORS
330
18
102
}
330
18
100
AcDbGroup
300

 70
     3
 71
     0
  0
GROUP
  5
49D3
102
{ACAD_REACTORS
330
18
102
}
330
18
100
AcDbGroup
300

 70
     3
 71
     0
  0
GROUP
  5
4955
102
{ACAD_REACTORS
330
18
102
}
330
18
100
AcDbGroup
300

 70
     3
 71
     0
  0
GROUP
  5
1BE9
102
{ACAD_REACTORS
330
18
102
}
330
18
100
AcDbGroup
300

 70
     3
 71
     0
  0
GROUP
  5
49C7
102
{ACAD_REACTORS
330
18
102
}
330
18
100
AcDbGroup
300

 70
     3
 71
     0
  0
GROUP
  5
48AC
102
{ACAD_REACTORS
330
18
102
}
330
18
100
AcDbGroup
300

 70
     3
 71
     0
  0
GROUP
  5
6327
102
{ACAD_REACTORS
330
18
102
}
330
18
100
AcDbGroup
300

 70
     3
 71
     0
  0
GROUP
  5
4973
102
{ACAD_REACTORS
330
18
102
}
330
18
100
AcDbGroup
300

 70
     3
 71
     0
  0
GROUP
  5
1C08
102
{ACAD_REACTORS
330
18
102
}
330
18
100
AcDbGroup
300

 70
     3
 71
     0
  0
GROUP
  5
62F1
102
{ACAD_REACTORS
330
18
102
}
330
18
100
AcDbGroup
300

 70
     3
 71
     0
  0
GROUP
  5
1BBA
102
{ACAD_REACTORS
330
18
102
}
330
18
100
AcDbGroup
300

 70
     3
 71
     0
  0
GROUP
  5
484C
102
{ACAD_REACTORS
330
18
102
}
330
18
100
AcDbGroup
300

 70
     3
 71
     0
  0
GROUP
  5
1462
102
{ACAD_REACTORS
330
18
102
}
330
18
100
AcDbGroup
300

 70
     3
 71
     0
  0
GROUP
  5
1B13
102
{ACAD_REACTORS
330
18
102
}
330
18
100
AcDbGroup
300

 70
     3
 71
     0
  0
GROUP
  5
62C2
102
{ACAD_REACTORS
330
18
102
}
330
18
100
AcDbGroup
300

 70
     3
 71
     0
  0
GROUP
  5
1C46
102
{ACAD_REACTORS
330
18
102
}
330
18
100
AcDbGroup
300

 70
     3
 71
     0
  0
GROUP
  5
63AC
102
{ACAD_REACTORS
330
18
102
}
330
18
100
AcDbGroup
300

 70
     3
 71
     0
  0
GROUP
  5
62F5
102
{ACAD_REACTORS
330
18
102
}
330
18
100
AcDbGroup
300

 70
     3
 71
     0
  0
GROUP
  5
1BF9
102
{ACAD_REACTORS
330
18
102
}
330
18
100
AcDbGroup
300

 70
     3
 71
     0
  0
GROUP
  5
1466
102
{ACAD_REACTORS
330
18
102
}
330
18
100
AcDbGroup
300

 70
     3
 71
     0
  0
GROUP
  5
1B69
102
{ACAD_REACTORS
330
18
102
}
330
18
100
AcDbGroup
300

 70
     3
 71
     0
  0
GROUP
  5
48F2
102
{ACAD_REACTORS
330
18
102
}
330
18
100
AcDbGroup
300

 70
     3
 71
     0
  0
GROUP
  5
49DD
102
{ACAD_REACTORS
330
18
102
}
330
18
100
AcDbGroup
300

 70
     3
 71
     0
  0
GROUP
  5
4894
102
{ACAD_REACTORS
330
18
102
}
330
18
100
AcDbGroup
300

 70
     3
 71
     0
  0
GROUP
  5
1B75
102
{ACAD_REACTORS
330
18
102
}
330
18
100
AcDbGroup
300

 70
     3
 71
     0
  0
GROUP
  5
48E6
102
{ACAD_REACTORS
330
18
102
}
330
18
100
AcDbGroup
300

 70
     3
 71
     0
  0
GROUP
  5
1C2B
102
{ACAD_REACTORS
330
18
102
}
330
18
100
AcDbGroup
300

 70
     3
 71
     0
  0
GROUP
  5
629C
102
{ACAD_REACTORS
330
18
102
}
330
18
100
AcDbGroup
300

 70
     3
 71
     0
  0
GROUP
  5
1BC4
102
{ACAD_REACTORS
330
18
102
}
330
18
100
AcDbGroup
300

 70
     3
 71
     0
  0
GROUP
  5
63D2
102
{ACAD_REACTORS
330
18
102
}
330
18
100
AcDbGroup
300

 70
     3
 71
     0
  0
GROUP
  5
1C4D
102
{ACAD_REACTORS
330
18
102
}
330
18
100
AcDbGroup
300

 70
     3
 71
     0
  0
GROUP
  5
48F5
102
{ACAD_REACTORS
330
18
102
}
330
18
100
AcDbGroup
300

 70
     3
 71
     0
  0
GROUP
  5
4813
102
{ACAD_REACTORS
330
18
102
}
330
18
100
AcDbGroup
300

 70
     3
 71
     0
  0
GROUP
  5
63B6
102
{ACAD_REACTORS
330
18
102
}
330
18
100
AcDbGroup
300

 70
     3
 71
     0
  0
GROUP
  5
49EB
102
{ACAD_REACTORS
330
18
102
}
330
18
100
AcDbGroup
300

 70
     3
 71
     0
  0
GROUP
  5
37C0
102
{ACAD_REACTORS
330
18
102
}
330
18
100
AcDbGroup
300

 70
     3
 71
     0
  0
GROUP
  5
1BCC
102
{ACAD_REACTORS
330
18
102
}
330
18
100
AcDbGroup
300

 70
     3
 71
     0
  0
GROUP
  5
4A03
102
{ACAD_REACTORS
330
18
102
}
330
18
100
AcDbGroup
300

 70
     3
 71
     0
  0
GROUP
  5
48B7
102
{ACAD_REACTORS
330
18
102
}
330
18
100
AcDbGroup
300

 70
     3
 71
     0
  0
GROUP
  5
497D
102
{ACAD_REACTORS
330
18
102
}
330
18
100
AcDbGroup
300

 70
     3
 71
     0
  0
GROUP
  5
4912
102
{ACAD_REACTORS
330
18
102
}
330
18
100
AcDbGroup
300

 70
     3
 71
     0
  0
GROUP
  5
48FF
102
{ACAD_REACTORS
330
18
102
}
330
18
100
AcDbGroup
300

 70
     3
 71
     0
  0
GROUP
  5
630E
102
{ACAD_REACTORS
330
18
102
}
330
18
100
AcDbGroup
300

 70
     3
 71
     0
  0
GROUP
  5
6370
102
{ACAD_REACTORS
330
18
102
}
330
18
100
AcDbGroup
300

 70
     3
 71
     0
  0
GROUP
  5
622D
102
{ACAD_REACTORS
330
18
102
}
330
18
100
AcDbGroup
300

 70
     3
 71
     0
  0
GROUP
  5
4988
102
{ACAD_REACTORS
330
18
102
}
330
18
100
AcDbGroup
300

 70
     3
 71
     0
  0
GROUP
  5
62BE
102
{ACAD_REACTORS
330
18
102
}
330
18
100
AcDbGroup
300

 70
     3
 71
     0
  0
GROUP
  5
6241
102
{ACAD_REACTORS
330
18
102
}
330
18
100
AcDbGroup
300

 70
     3
 71
     0
  0
GROUP
  5
4958
102
{ACAD_REACTORS
330
18
102
}
330
18
100
AcDbGroup
300

 70
     3
 71
     0
  0
GROUP
  5
63EA
102
{ACAD_REACTORS
330
18
102
}
330
18
100
AcDbGroup
300

 70
     3
 71
     0
  0
GROUP
  5
1BDF
102
{ACAD_REACTORS
330
18
102
}
330
18
100
AcDbGroup
300

 70
     3
 71
     0
  0
GROUP
  5
6307
102
{ACAD_REACTORS
330
18
102
}
330
18
100
AcDbGroup
300

 70
     3
 71
     0
  0
GROUP
  5
4824
102
{ACAD_REACTORS
330
18
102
}
330
18
100
AcDbGroup
300

 70
     3
 71
     0
  0
GROUP
  5
49C9
102
{ACAD_REACTORS
330
18
102
}
330
18
100
AcDbGroup
300

 70
     3
 71
     0
  0
GROUP
  5
499B
102
{ACAD_REACTORS
330
18
102
}
330
18
100
AcDbGroup
300

 70
     3
 71
     0
  0
GROUP
  5
37A5
102
{ACAD_REACTORS
330
18
102
}
330
18
100
AcDbGroup
300

 70
     3
 71
     0
  0
GROUP
  5
6236
102
{ACAD_REACTORS
330
18
102
}
330
18
100
AcDbGroup
300

 70
     3
 71
     0
  0
GROUP
  5
6264
102
{ACAD_REACTORS
330
18
102
}
330
18
100
AcDbGroup
300

 70
     3
 71
     0
  0
GROUP
  5
37B5
102
{ACAD_REACTORS
330
18
102
}
330
18
100
AcDbGroup
300

 70
     3
 71
     0
  0
GROUP
  5
63C2
102
{ACAD_REACTORS
330
18
102
}
330
18
100
AcDbGroup
300

 70
     3
 71
     0
  0
GROUP
  5
4952
102
{ACAD_REACTORS
330
18
102
}
330
18
100
AcDbGroup
300

 70
     3
 71
     0
  0
GROUP
  5
49B1
102
{ACAD_REACTORS
330
18
102
}
330
18
100
AcDbGroup
300

 70
     3
 71
     0
  0
GROUP
  5
49A5
102
{ACAD_REACTORS
330
18
102
}
330
18
100
AcDbGroup
300

 70
     3
 71
     0
  0
GROUP
  5
1BD1
102
{ACAD_REACTORS
330
18
102
}
330
18
100
AcDbGroup
300

 70
     3
 71
     0
  0
GROUP
  5
1B99
102
{ACAD_REACTORS
330
18
102
}
330
18
100
AcDbGroup
300

 70
     3
 71
     0
  0
GROUP
  5
4993
102
{ACAD_REACTORS
330
18
102
}
330
18
100
AcDbGroup
300

 70
     3
 71
     0
  0
GROUP
  5
4948
102
{ACAD_REACTORS
330
18
102
}
330
18
100
AcDbGroup
300

 70
     3
 71
     0
  0
GROUP
  5
63FC
102
{ACAD_REACTORS
330
18
102
}
330
18
100
AcDbGroup
300

 70
     3
 71
     0
  0
GROUP
  5
4981
102
{ACAD_REACTORS
330
18
102
}
330
18
100
AcDbGroup
300

 70
     3
 71
     0
  0
GROUP
  5
4962
102
{ACAD_REACTORS
330
18
102
}
330
18
100
AcDbGroup
300

 70
     3
 71
     0
  0
GROUP
  5
4931
102
{ACAD_REACTORS
330
18
102
}
330
18
100
AcDbGroup
300

 70
     3
 71
     0
  0
GROUP
  5
4932
102
{ACAD_REACTORS
330
18
102
}
330
18
100
AcDbGroup
300

 70
     3
 71
     0
  0
GROUP
  5
1C23
102
{ACAD_REACTORS
330
18
102
}
330
18
100
AcDbGroup
300

 70
     3
 71
     0
  0
GROUP
  5
1BF6
102
{ACAD_REACTORS
330
18
102
}
330
18
100
AcDbGroup
300

 70
     3
 71
     0
  0
GROUP
  5
63A8
102
{ACAD_REACTORS
330
18
102
}
330
18
100
AcDbGroup
300

 70
     3
 71
     0
  0
GROUP
  5
63A5
102
{ACAD_REACTORS
330
18
102
}
330
18
100
AcDbGroup
300

 70
     3
 71
     0
  0
GROUP
  5
379B
102
{ACAD_REACTORS
330
18
102
}
330
18
100
AcDbGroup
300

 70
     3
 71
     0
  0
GROUP
  5
62A5
102
{ACAD_REACTORS
330
18
102
}
330
18
100
AcDbGroup
300

 70
     3
 71
     0
  0
GROUP
  5
1B79
102
{ACAD_REACTORS
330
18
102
}
330
18
100
AcDbGroup
300

 70
     3
 71
     0
  0
GROUP
  5
4880
102
{ACAD_REACTORS
330
18
102
}
330
18
100
AcDbGroup
300

 70
     3
 71
     0
  0
GROUP
  5
1B8C
102
{ACAD_REACTORS
330
18
102
}
330
18
100
AcDbGroup
300

 70
     3
 71
     0
  0
GROUP
  5
49AB
102
{ACAD_REACTORS
330
18
102
}
330
18
100
AcDbGroup
300

 70
     3
 71
     0
  0
GROUP
  5
1B72
102
{ACAD_REACTORS
330
18
102
}
330
18
100
AcDbGroup
300

 70
     3
 71
     0
  0
GROUP
  5
621A
102
{ACAD_REACTORS
330
18
102
}
330
18
100
AcDbGroup
300

 70
     3
 71
     0
  0
GROUP
  5
1BDE
102
{ACAD_REACTORS
330
18
102
}
330
18
100
AcDbGroup
300

 70
     3
 71
     0
  0
GROUP
  5
48EC
102
{ACAD_REACTORS
330
18
102
}
330
18
100
AcDbGroup
300

 70
     3
 71
     0
  0
GROUP
  5
638A
102
{ACAD_REACTORS
330
18
102
}
330
18
100
AcDbGroup
300

 70
     3
 71
     0
  0
GROUP
  5
4890
102
{ACAD_REACTORS
330
18
102
}
330
18
100
AcDbGroup
300

 70
     3
 71
     0
  0
GROUP
  5
1BFB
102
{ACAD_REACTORS
330
18
102
}
330
18
100
AcDbGroup
300

 70
     3
 71
     0
  0
GROUP
  5
497B
102
{ACAD_REACTORS
330
18
102
}
330
18
100
AcDbGroup
300

 70
     3
 71
     0
  0
GROUP
  5
62D3
102
{ACAD_REACTORS
330
18
102
}
330
18
100
AcDbGroup
300

 70
     3
 71
     1
  0
GROUP
  5
6233
102
{ACAD_REACTORS
330
18
102
}
330
18
100
AcDbGroup
300

 70
     3
 71
     0
  0
GROUP
  5
1BB7
102
{ACAD_REACTORS
330
18
102
}
330
18
100
AcDbGroup
300

 70
     3
 71
     0
  0
GROUP
  5
1C01
102
{ACAD_REACTORS
330
18
102
}
330
18
100
AcDbGroup
300

 70
     3
 71
     0
  0
GROUP
  5
62AE
102
{ACAD_REACTORS
330
18
102
}
330
18
100
AcDbGroup
300

 70
     3
 71
     0
  0
GROUP
  5
48E0
102
{ACAD_REACTORS
330
18
102
}
330
18
100
AcDbGroup
300

 70
     3
 71
     0
  0
GROUP
  5
633E
102
{ACAD_REACTORS
330
18
102
}
330
18
100
AcDbGroup
300

 70
     3
 71
     0
  0
GROUP
  5
63D9
102
{ACAD_REACTORS
330
18
102
}
330
18
100
AcDbGroup
300

 70
     3
 71
     0
  0
GROUP
  5
48B5
102
{ACAD_REACTORS
330
18
102
}
330
18
100
AcDbGroup
300

 70
     3
 71
     0
  0
GROUP
  5
4964
102
{ACAD_REACTORS
330
18
102
}
330
18
100
AcDbGroup
300

 70
     3
 71
     0
  0
GROUP
  5
4884
102
{ACAD_REACTORS
330
18
102
}
330
18
100
AcDbGroup
300

 70
     3
 71
     0
  0
GROUP
  5
1B41
102
{ACAD_REACTORS
330
18
102
}
330
18
100
AcDbGroup
300

 70
     3
 71
     0
  0
GROUP
  5
1BB2
102
{ACAD_REACTORS
330
18
102
}
330
18
100
AcDbGroup
300

 70
     3
 71
     0
  0
GROUP
  5
49CB
102
{ACAD_REACTORS
330
18
102
}
330
18
100
AcDbGroup
300

 70
     3
 71
     0
  0
GROUP
  5
145B
102
{ACAD_REACTORS
330
18
102
}
330
18
100
AcDbGroup
300

 70
     3
 71
     0
  0
GROUP
  5
1AE5
102
{ACAD_REACTORS
330
18
102
}
330
18
100
AcDbGroup
300

 70
     3
 71
     0
  0
GROUP
  5
4950
102
{ACAD_REACTORS
330
18
102
}
330
18
100
AcDbGroup
300

 70
     3
 71
     0
  0
GROUP
  5
1B5F
102
{ACAD_REACTORS
330
18
102
}
330
18
100
AcDbGroup
300

 70
     3
 71
     0
  0
GROUP
  5
1C05
102
{ACAD_REACTORS
330
18
102
}
330
18
100
AcDbGroup
300

 70
     3
 71
     0
  0
GROUP
  5
1C4E
102
{ACAD_REACTORS
330
18
102
}
330
18
100
AcDbGroup
300

 70
     3
 71
     0
  0
GROUP
  5
49B9
102
{ACAD_REACTORS
330
18
102
}
330
18
100
AcDbGroup
300

 70
     3
 71
     0
  0
GROUP
  5
63E3
102
{ACAD_REACTORS
330
18
102
}
330
18
100
AcDbGroup
300

 70
     3
 71
     0
  0
GROUP
  5
1BF3
102
{ACAD_REACTORS
330
18
102
}
330
18
100
AcDbGroup
300

 70
     3
 71
     0
  0
GROUP
  5
1C35
102
{ACAD_REACTORS
330
18
102
}
330
18
100
AcDbGroup
300

 70
     3
 71
     0
  0
GROUP
  5
4946
102
{ACAD_REACTORS
330
18
102
}
330
18
100
AcDbGroup
300

 70
     3
 71
     0
  0
GROUP
  5
62C3
102
{ACAD_REACTORS
330
18
102
}
330
18
100
AcDbGroup
300

 70
     3
 71
     0
  0
GROUP
  5
6219
102
{ACAD_REACTORS
330
18
102
}
330
18
100
AcDbGroup
300

 70
     3
 71
     0
  0
GROUP
  5
631E
102
{ACAD_REACTORS
330
18
102
}
330
18
100
AcDbGroup
300

 70
     3
 71
     0
  0
GROUP
  5
4A01
102
{ACAD_REACTORS
330
18
102
}
330
18
100
AcDbGroup
300

 70
     3
 71
     0
  0
GROUP
  5
4847
102
{ACAD_REACTORS
330
18
102
}
330
18
100
AcDbGroup
300

 70
     3
 71
     0
  0
GROUP
  5
37A9
102
{ACAD_REACTORS
330
18
102
}
330
18
100
AcDbGroup
300

 70
     3
 71
     0
  0
GROUP
  5
6395
102
{ACAD_REACTORS
330
18
102
}
330
18
100
AcDbGroup
300

 70
     3
 71
     0
  0
GROUP
  5
1B24
102
{ACAD_REACTORS
330
18
102
}
330
18
100
AcDbGroup
300

 70
     3
 71
     0
  0
GROUP
  5
49EA
102
{ACAD_REACTORS
330
18
102
}
330
18
100
AcDbGroup
300

 70
     3
 71
     0
  0
GROUP
  5
497C
102
{ACAD_REACTORS
330
18
102
}
330
18
100
AcDbGroup
300

 70
     3
 71
     0
  0
GROUP
  5
63B7
102
{ACAD_REACTORS
330
18
102
}
330
18
100
AcDbGroup
300

 70
     3
 71
     0
  0
GROUP
  5
1B12
102
{ACAD_REACTORS
330
18
102
}
330
18
100
AcDbGroup
300

 70
     3
 71
     0
  0
GROUP
  5
37B7
102
{ACAD_REACTORS
330
18
102
}
330
18
100
AcDbGroup
300

 70
     3
 71
     0
  0
GROUP
  5
638C
102
{ACAD_REACTORS
330
18
102
}
330
18
100
AcDbGroup
300

 70
     3
 71
     0
  0
GROUP
  5
6362
102
{ACAD_REACTORS
330
18
102
}
330
18
100
AcDbGroup
300

 70
     3
 71
     0
  0
GROUP
  5
62C0
102
{ACAD_REACTORS
330
18
102
}
330
18
100
AcDbGroup
300

 70
     3
 71
     0
  0
GROUP
  5
1C3F
102
{ACAD_REACTORS
330
18
102
}
330
18
100
AcDbGroup
300

 70
     3
 71
     0
  0
GROUP
  5
1B07
102
{ACAD_REACTORS
330
18
102
}
330
18
100
AcDbGroup
300

 70
     3
 71
     0
  0
GROUP
  5
636B
102
{ACAD_REACTORS
330
18
102
}
330
18
100
AcDbGroup
300

 70
     3
 71
     0
  0
GROUP
  5
1B51
102
{ACAD_REACTORS
330
18
102
}
330
18
100
AcDbGroup
300

 70
     3
 71
     0
  0
GROUP
  5
4967
102
{ACAD_REACTORS
330
18
102
}
330
18
100
AcDbGroup
300

 70
     3
 71
     0
  0
GROUP
  5
482C
102
{ACAD_REACTORS
330
18
102
}
330
18
100
AcDbGroup
300

 70
     3
 71
     0
  0
GROUP
  5
634D
102
{ACAD_REACTORS
330
18
102
}
330
18
100
AcDbGroup
300

 70
     3
 71
     0
  0
GROUP
  5
49BC
102
{ACAD_REACTORS
330
18
102
}
330
18
100
AcDbGroup
300

 70
     3
 71
     0
  0
GROUP
  5
49A9
102
{ACAD_REACTORS
330
18
102
}
330
18
100
AcDbGroup
300

 70
     3
 71
     0
  0
GROUP
  5
6359
102
{ACAD_REACTORS
330
18
102
}
330
18
100
AcDbGroup
300

 70
     3
 71
     0
  0
GROUP
  5
4926
102
{ACAD_REACTORS
330
18
102
}
330
18
100
AcDbGroup
300

 70
     3
 71
     0
  0
GROUP
  5
1ACF
102
{ACAD_REACTORS
330
18
102
}
330
18
100
AcDbGroup
300

 70
     3
 71
     0
  0
GROUP
  5
1B09
102
{ACAD_REACTORS
330
18
102
}
330
18
100
AcDbGroup
300

 70
     3
 71
     0
  0
GROUP
  5
634E
102
{ACAD_REACTORS
330
18
102
}
330
18
100
AcDbGroup
300

 70
     3
 71
     0
  0
GROUP
  5
4872
102
{ACAD_REACTORS
330
18
102
}
330
18
100
AcDbGroup
300

 70
     3
 71
     0
  0
GROUP
  5
6404
102
{ACAD_REACTORS
330
18
102
}
330
18
100
AcDbGroup
300

 70
     3
 71
     0
  0
GROUP
  5
1B6A
102
{ACAD_REACTORS
330
18
102
}
330
18
100
AcDbGroup
300

 70
     3
 71
     0
  0
GROUP
  5
63FA
102
{ACAD_REACTORS
330
18
102
}
330
18
100
AcDbGroup
300

 70
     3
 71
     0
  0
GROUP
  5
63F8
102
{ACAD_REACTORS
330
18
102
}
330
18
100
AcDbGroup
300

 70
     3
 71
     0
  0
GROUP
  5
1B8D
102
{ACAD_REACTORS
330
18
102
}
330
18
100
AcDbGroup
300

 70
     3
 71
     0
  0
GROUP
  5
6357
102
{ACAD_REACTORS
330
18
102
}
330
18
100
AcDbGroup
300

 70
     3
 71
     0
  0
GROUP
  5
1B03
102
{ACAD_REACTORS
330
18
102
}
330
18
100
AcDbGroup
300

 70
     3
 71
     0
  0
GROUP
  5
6224
102
{ACAD_REACTORS
330
18
102
}
330
18
100
AcDbGroup
300

 70
     3
 71
     0
  0
GROUP
  5
1C24
102
{ACAD_REACTORS
330
18
102
}
330
18
100
AcDbGroup
300

 70
     3
 71
     0
  0
GROUP
  5
1C07
102
{ACAD_REACTORS
330
18
102
}
330
18
100
AcDbGroup
300

 70
     3
 71
     0
  0
GROUP
  5
6417
102
{ACAD_REACTORS
330
18
102
}
330
18
100
AcDbGroup
300

 70
     3
 71
     0
  0
GROUP
  5
1B53
102
{ACAD_REACTORS
330
18
102
}
330
18
100
AcDbGroup
300

 70
     3
 71
     0
  0
GROUP
  5
486F
102
{ACAD_REACTORS
330
18
102
}
330
18
100
AcDbGroup
300

 70
     3
 71
     0
  0
GROUP
  5
1BBE
102
{ACAD_REACTORS
330
18
102
}
330
18
100
AcDbGroup
300

 70
     3
 71
     0
  0
GROUP
  5
62ED
102
{ACAD_REACTORS
330
18
102
}
330
18
100
AcDbGroup
300

 70
     3
 71
     0
  0
GROUP
  5
62B9
102
{ACAD_REACTORS
330
18
102
}
330
18
100
AcDbGroup
300

 70
     3
 71
     0
  0
GROUP
  5
49E6
102
{ACAD_REACTORS
330
18
102
}
330
18
100
AcDbGroup
300

 70
     3
 71
     0
  0
GROUP
  5
632B
102
{ACAD_REACTORS
330
18
102
}
330
18
100
AcDbGroup
300

 70
     3
 71
     0
  0
GROUP
  5
6406
102
{ACAD_REACTORS
330
18
102
}
330
18
100
AcDbGroup
300

 70
     3
 71
     0
  0
GROUP
  5
6240
102
{ACAD_REACTORS
330
18
102
}
330
18
100
AcDbGroup
300

 70
     3
 71
     0
  0
GROUP
  5
482E
102
{ACAD_REACTORS
330
18
102
}
330
18
100
AcDbGroup
300

 70
     3
 71
     0
  0
GROUP
  5
48E4
102
{ACAD_REACTORS
330
18
102
}
330
18
100
AcDbGroup
300

 70
     3
 71
     0
  0
GROUP
  5
4811
102
{ACAD_REACTORS
330
18
102
}
330
18
100
AcDbGroup
300

 70
     3
 71
     0
  0
GROUP
  5
1C18
102
{ACAD_REACTORS
330
18
102
}
330
18
100
AcDbGroup
300

 70
     3
 71
     0
  0
GROUP
  5
623F
102
{ACAD_REACTORS
330
18
102
}
330
18
100
AcDbGroup
300

 70
     3
 71
     0
  0
GROUP
  5
49D2
102
{ACAD_REACTORS
330
18
102
}
330
18
100
AcDbGroup
300

 70
     3
 71
     0
  0
GROUP
  5
4903
102
{ACAD_REACTORS
330
18
102
}
330
18
100
AcDbGroup
300

 70
     3
 71
     0
  0
GROUP
  5
63CB
102
{ACAD_REACTORS
330
18
102
}
330
18
100
AcDbGroup
300

 70
     3
 71
     0
  0
GROUP
  5
1BD8
102
{ACAD_REACTORS
330
18
102
}
330
18
100
AcDbGroup
300

 70
     3
 71
     0
  0
GROUP
  5
6393
102
{ACAD_REACTORS
330
18
102
}
330
18
100
AcDbGroup
300

 70
     3
 71
     0
  0
GROUP
  5
6383
102
{ACAD_REACTORS
330
18
102
}
330
18
100
AcDbGroup
300

 70
     3
 71
     0
  0
GROUP
  5
63E5
102
{ACAD_REACTORS
330
18
102
}
330
18
100
AcDbGroup
300

 70
     3
 71
     0
  0
GROUP
  5
6277
102
{ACAD_REACTORS
330
18
102
}
330
18
100
AcDbGroup
300

 70
     3
 71
     0
  0
GROUP
  5
1BB8
102
{ACAD_REACTORS
330
18
102
}
330
18
100
AcDbGroup
300

 70
     3
 71
     0
  0
GROUP
  5
489F
102
{ACAD_REACTORS
330
18
102
}
330
18
100
AcDbGroup
300

 70
     3
 71
     0
  0
GROUP
  5
49CA
102
{ACAD_REACTORS
330
18
102
}
330
18
100
AcDbGroup
300

 70
     3
 71
     0
  0
GROUP
  5
1B58
102
{ACAD_REACTORS
330
18
102
}
330
18
100
AcDbGroup
300

 70
     3
 71
     0
  0
GROUP
  5
62EE
102
{ACAD_REACTORS
330
18
102
}
330
18
100
AcDbGroup
300

 70
     3
 71
     0
  0
GROUP
  5
63E7
102
{ACAD_REACTORS
330
18
102
}
330
18
100
AcDbGroup
300

 70
     3
 71
     0
  0
GROUP
  5
48D3
102
{ACAD_REACTORS
330
18
102
}
330
18
100
AcDbGroup
300

 70
     3
 71
     0
  0
GROUP
  5
4905
102
{ACAD_REACTORS
330
18
102
}
330
18
100
AcDbGroup
300

 70
     3
 71
     0
  0
GROUP
  5
6415
102
{ACAD_REACTORS
330
18
102
}
330
18
100
AcDbGroup
300

 70
     3
 71
     0
  0
GROUP
  5
48DC
102
{ACAD_REACTORS
330
18
102
}
330
18
100
AcDbGroup
300

 70
     3
 71
     0
  0
GROUP
  5
379A
102
{ACAD_REACTORS
330
18
102
}
330
18
100
AcDbGroup
300

 70
     3
 71
     0
  0
GROUP
  5
49FA
102
{ACAD_REACTORS
330
18
102
}
330
18
100
AcDbGroup
300

 70
     3
 71
     0
  0
GROUP
  5
37AC
102
{ACAD_REACTORS
330
18
102
}
330
18
100
AcDbGroup
300

 70
     3
 71
     0
  0
GROUP
  5
49A6
102
{ACAD_REACTORS
330
18
102
}
330
18
100
AcDbGroup
300

 70
     3
 71
     0
  0
GROUP
  5
636F
102
{ACAD_REACTORS
330
18
102
}
330
18
100
AcDbGroup
300

 70
     3
 71
     0
  0
GROUP
  5
1B7D
102
{ACAD_REACTORS
330
18
102
}
330
18
100
AcDbGroup
300

 70
     3
 71
     0
  0
GROUP
  5
4882
102
{ACAD_REACTORS
330
18
102
}
330
18
100
AcDbGroup
300

 70
     3
 71
     0
  0
GROUP
  5
637C
102
{ACAD_REACTORS
330
18
102
}
330
18
100
AcDbGroup
300

 70
     3
 71
     0
  0
GROUP
  5
4957
102
{ACAD_REACTORS
330
18
102
}
330
18
100
AcDbGroup
300

 70
     3
 71
     0
  0
GROUP
  5
49B7
102
{ACAD_REACTORS
330
18
102
}
330
18
100
AcDbGroup
300

 70
     3
 71
     0
  0
GROUP
  5
49BA
102
{ACAD_REACTORS
330
18
102
}
330
18
100
AcDbGroup
300

 70
     3
 71
     0
  0
GROUP
  5
1BCD
102
{ACAD_REACTORS
330
18
102
}
330
18
100
AcDbGroup
300

 70
     3
 71
     0
  0
GROUP
  5
6223
102
{ACAD_REACTORS
330
18
102
}
330
18
100
AcDbGroup
300

 70
     3
 71
     0
  0
GROUP
  5
4A08
102
{ACAD_REACTORS
330
18
102
}
330
18
100
AcDbGroup
300

 70
     3
 71
     0
  0
GROUP
  5
1BEC
102
{ACAD_REACTORS
330
18
102
}
330
18
100
AcDbGroup
300

 70
     3
 71
     0
  0
GROUP
  5
488B
102
{ACAD_REACTORS
330
18
102
}
330
18
100
AcDbGroup
300

 70
     3
 71
     0
  0
GROUP
  5
1ACD
102
{ACAD_REACTORS
330
18
102
}
330
18
100
AcDbGroup
300

 70
     3
 71
     0
  0
GROUP
  5
4999
102
{ACAD_REACTORS
330
18
102
}
330
18
100
AcDbGroup
300

 70
     3
 71
     0
  0
GROUP
  5
629A
102
{ACAD_REACTORS
330
18
102
}
330
18
100
AcDbGroup
300

 70
     3
 71
     0
  0
GROUP
  5
6222
102
{ACAD_REACTORS
330
18
102
}
330
18
100
AcDbGroup
300

 70
     3
 71
     0
  0
GROUP
  5
6218
102
{ACAD_REACTORS
330
18
102
}
330
18
100
AcDbGroup
300

 70
     3
 71
     0
  0
GROUP
  5
4915
102
{ACAD_REACTORS
330
18
102
}
330
18
100
AcDbGroup
300

 70
     3
 71
     0
  0
GROUP
  5
491A
102
{ACAD_REACTORS
330
18
102
}
330
18
100
AcDbGroup
300

 70
     3
 71
     0
  0
GROUP
  5
48FE
102
{ACAD_REACTORS
330
18
102
}
330
18
100
AcDbGroup
300

 70
     3
 71
     0
  0
GROUP
  5
1C29
102
{ACAD_REACTORS
330
18
102
}
330
18
100
AcDbGroup
300

 70
     3
 71
     0
  0
GROUP
  5
1BF8
102
{ACAD_REACTORS
330
18
102
}
330
18
100
AcDbGroup
300

 70
     3
 71
     0
  0
GROUP
  5
624F
102
{ACAD_REACTORS
330
18
102
}
330
18
100
AcDbGroup
300

 70
     3
 71
     0
  0
GROUP
  5
1AF2
102
{ACAD_REACTORS
330
18
102
}
330
18
100
AcDbGroup
300

 70
     3
 71
     0
  0
GROUP
  5
48B2
102
{ACAD_REACTORS
330
18
102
}
330
18
100
AcDbGroup
300

 70
     3
 71
     0
  0
GROUP
  5
63D7
102
{ACAD_REACTORS
330
18
102
}
330
18
100
AcDbGroup
300

 70
     3
 71
     0
  0
GROUP
  5
6216
102
{ACAD_REACTORS
330
18
102
}
330
18
100
AcDbGroup
300

 70
     3
 71
     0
  0
GROUP
  5
1B37
102
{ACAD_REACTORS
330
18
102
}
330
18
100
AcDbGroup
300

 70
     3
 71
     0
  0
GROUP
  5
4986
102
{ACAD_REACTORS
330
18
102
}
330
18
100
AcDbGroup
300

 70
     3
 71
     0
  0
GROUP
  5
1B54
102
{ACAD_REACTORS
330
18
102
}
330
18
100
AcDbGroup
300

 70
     3
 71
     0
  0
GROUP
  5
4821
102
{ACAD_REACTORS
330
18
102
}
330
18
100
AcDbGroup
300

 70
     3
 71
     0
  0
GROUP
  5
37A1
102
{ACAD_REACTORS
330
18
102
}
330
18
100
AcDbGroup
300

 70
     3
 71
     0
  0
GROUP
  5
6378
102
{ACAD_REACTORS
330
18
102
}
330
18
100
AcDbGroup
300

 70
     3
 71
     0
  0
GROUP
  5
1B34
102
{ACAD_REACTORS
330
18
102
}
330
18
100
AcDbGroup
300

 70
     3
 71
     0
  0
GROUP
  5
1B8E
102
{ACAD_REACTORS
330
18
102
}
330
18
100
AcDbGroup
300

 70
     3
 71
     0
  0
GROUP
  5
1B49
102
{ACAD_REACTORS
330
18
102
}
330
18
100
AcDbGroup
300

 70
     3
 71
     0
  0
GROUP
  5
1B9D
102
{ACAD_REACTORS
330
18
102
}
330
18
100
AcDbGroup
300

 70
     3
 71
     0
  0
GROUP
  5
4893
102
{ACAD_REACTORS
330
18
102
}
330
18
100
AcDbGroup
300

 70
     3
 71
     0
  0
GROUP
  5
63BF
102
{ACAD_REACTORS
330
18
102
}
330
18
100
AcDbGroup
300

 70
     3
 71
     0
  0
GROUP
  5
6364
102
{ACAD_REACTORS
330
18
102
}
330
18
100
AcDbGroup
300

 70
     3
 71
     0
  0
GROUP
  5
623D
102
{ACAD_REACTORS
330
18
102
}
330
18
100
AcDbGroup
300

 70
     3
 71
     0
  0
GROUP
  5
627C
102
{ACAD_REACTORS
330
18
102
}
330
18
100
AcDbGroup
300

 70
     3
 71
     0
  0
GROUP
  5
4839
102
{ACAD_REACTORS
330
18
102
}
330
18
100
AcDbGroup
300

 70
     3
 71
     0
  0
GROUP
  5
1B36
102
{ACAD_REACTORS
330
18
102
}
330
18
100
AcDbGroup
300

 70
     3
 71
     0
  0
GROUP
  5
62A9
102
{ACAD_REACTORS
330
18
102
}
330
18
100
AcDbGroup
300

 70
     3
 71
     0
  0
GROUP
  5
1454
102
{ACAD_REACTORS
330
18
102
}
330
18
100
AcDbGroup
300

 70
     3
 71
     0
  0
GROUP
  5
62BF
102
{ACAD_REACTORS
330
18
102
}
330
18
100
AcDbGroup
300

 70
     3
 71
     0
  0
GROUP
  5
4830
102
{ACAD_REACTORS
330
18
102
}
330
18
100
AcDbGroup
300

 70
     3
 71
     0
  0
GROUP
  5
63C7
102
{ACAD_REACTORS
330
18
102
}
330
18
100
AcDbGroup
300

 70
     3
 71
     0
  0
GROUP
  5
4944
102
{ACAD_REACTORS
330
18
102
}
330
18
100
AcDbGroup
300

 70
     3
 71
     0
  0
GROUP
  5
6263
102
{ACAD_REACTORS
330
18
102
}
330
18
100
AcDbGroup
300

 70
     3
 71
     0
  0
GROUP
  5
1B65
102
{ACAD_REACTORS
330
18
102
}
330
18
100
AcDbGroup
300

 70
     3
 71
     0
  0
GROUP
  5
1BD7
102
{ACAD_REACTORS
330
18
102
}
330
18
100
AcDbGroup
300

 70
     3
 71
     0
  0
GROUP
  5
49FF
102
{ACAD_REACTORS
330
18
102
}
330
18
100
AcDbGroup
300

 70
     3
 71
     0
  0
GROUP
  5
49F3
102
{ACAD_REACTORS
330
18
102
}
330
18
100
AcDbGroup
300

 70
     3
 71
     0
  0
GROUP
  5
1AF6
102
{ACAD_REACTORS
330
18
102
}
330
18
100
AcDbGroup
300

 70
     3
 71
     0
  0
GROUP
  5
1C0D
102
{ACAD_REACTORS
330
18
102
}
330
18
100
AcDbGroup
300

 70
     3
 71
     0
  0
GROUP
  5
480C
102
{ACAD_REACTORS
330
18
102
}
330
18
100
AcDbGroup
300

 70
     3
 71
     0
  0
GROUP
  5
49E5
102
{ACAD_REACTORS
330
18
102
}
330
18
100
AcDbGroup
300

 70
     3
 71
     0
  0
GROUP
  5
4825
102
{ACAD_REACTORS
330
18
102
}
330
18
100
AcDbGroup
300

 70
     3
 71
     0
  0
GROUP
  5
1C10
102
{ACAD_REACTORS
330
18
102
}
330
18
100
AcDbGroup
300

 70
     3
 71
     0
  0
GROUP
  5
1BDC
102
{ACAD_REACTORS
330
18
102
}
330
18
100
AcDbGroup
300

 70
     3
 71
     0
  0
GROUP
  5
37B4
102
{ACAD_REACTORS
330
18
102
}
330
18
100
AcDbGroup
300

 70
     3
 71
     0
  0
GROUP
  5
1B57
102
{ACAD_REACTORS
330
18
102
}
330
18
100
AcDbGroup
300

 70
     3
 71
     0
  0
GROUP
  5
4A09
102
{ACAD_REACTORS
330
18
102
}
330
18
100
AcDbGroup
300

 70
     3
 71
     0
  0
GROUP
  5
1C3E
102
{ACAD_REACTORS
330
18
102
}
330
18
100
AcDbGroup
300

 70
     3
 71
     0
  0
GROUP
  5
1C4F
102
{ACAD_REACTORS
330
18
102
}
330
18
100
AcDbGroup
300

 70
     3
 71
     0
  0
GROUP
  5
62FB
102
{ACAD_REACTORS
330
18
102
}
330
18
100
AcDbGroup
300

 70
     3
 71
     0
  0
GROUP
  5
627E
102
{ACAD_REACTORS
330
18
102
}
330
18
100
AcDbGroup
300

 70
     3
 71
     0
  0
GROUP
  5
6237
102
{ACAD_REACTORS
330
18
102
}
330
18
100
AcDbGroup
300

 70
     3
 71
     0
  0
GROUP
  5
1C1F
102
{ACAD_REACTORS
330
18
102
}
330
18
100
AcDbGroup
300

 70
     3
 71
     0
  0
GROUP
  5
6320
102
{ACAD_REACTORS
330
18
102
}
330
18
100
AcDbGroup
300

 70
     3
 71
     0
  0
GROUP
  5
631F
102
{ACAD_REACTORS
330
18
102
}
330
18
100
AcDbGroup
300

 70
     3
 71
     0
  0
GROUP
  5
379C
102
{ACAD_REACTORS
330
18
102
}
330
18
100
AcDbGroup
300

 70
     3
 71
     0
  0
GROUP
  5
1B46
102
{ACAD_REACTORS
330
18
102
}
330
18
100
AcDbGroup
300

 70
     3
 71
     0
  0
GROUP
  5
1C04
102
{ACAD_REACTORS
330
18
102
}
330
18
100
AcDbGroup
300

 70
     3
 71
     0
  0
GROUP
  5
63AB
102
{ACAD_REACTORS
330
18
102
}
330
18
100
AcDbGroup
300

 70
     3
 71
     0
  0
GROUP
  5
49C5
102
{ACAD_REACTORS
330
18
102
}
330
18
100
AcDbGroup
300

 70
     3
 71
     0
  0
GROUP
  5
1B6B
102
{ACAD_REACTORS
330
18
102
}
330
18
100
AcDbGroup
300

 70
     3
 71
     0
  0
GROUP
  5
495F
102
{ACAD_REACTORS
330
18
102
}
330
18
100
AcDbGroup
300

 70
     3
 71
     0
  0
GROUP
  5
1AFB
102
{ACAD_REACTORS
330
18
102
}
330
18
100
AcDbGroup
300

 70
     3
 71
     0
  0
GROUP
  5
1ADC
102
{ACAD_REACTORS
330
18
102
}
330
18
100
AcDbGroup
300

 70
     3
 71
     0
  0
GROUP
  5
1B97
102
{ACAD_REACTORS
330
18
102
}
330
18
100
AcDbGroup
300

 70
     3
 71
     0
  0
GROUP
  5
624B
102
{ACAD_REACTORS
330
18
102
}
330
18
100
AcDbGroup
300

 70
     3
 71
     0
  0
GROUP
  5
4A19
102
{ACAD_REACTORS
330
18
102
}
330
18
100
AcDbGroup
300

 70
     3
 71
     0
  0
GROUP
  5
4818
102
{ACAD_REACTORS
330
18
102
}
330
18
100
AcDbGroup
300

 70
     3
 71
     0
  0
GROUP
  5
63A6
102
{ACAD_REACTORS
330
18
102
}
330
18
100
AcDbGroup
300

 70
     3
 71
     0
  0
GROUP
  5
4910
102
{ACAD_REACTORS
330
18
102
}
330
18
100
AcDbGroup
300

 70
     3
 71
     0
  0
GROUP
  5
6389
102
{ACAD_REACTORS
330
18
102
}
330
18
100
AcDbGroup
300

 70
     3
 71
     0
  0
GROUP
  5
145C
102
{ACAD_REACTORS
330
18
102
}
330
18
100
AcDbGroup
300

 70
     3
 71
     0
  0
GROUP
  5
1B44
102
{ACAD_REACTORS
330
18
102
}
330
18
100
AcDbGroup
300

 70
     3
 71
     0
  0
GROUP
  5
490E
102
{ACAD_REACTORS
330
18
102
}
330
18
100
AcDbGroup
300

 70
     3
 71
     0
  0
GROUP
  5
1C40
102
{ACAD_REACTORS
330
18
102
}
330
18
100
AcDbGroup
300

 70
     3
 71
     0
  0
GROUP
  5
1C33
102
{ACAD_REACTORS
330
18
102
}
330
18
100
AcDbGroup
300

 70
     3
 71
     0
  0
GROUP
  5
1C0F
102
{ACAD_REACTORS
330
18
102
}
330
18
100
AcDbGroup
300

 70
     3
 71
     0
  0
GROUP
  5
48CD
102
{ACAD_REACTORS
330
18
102
}
330
18
100
AcDbGroup
300

 70
     3
 71
     0
  0
GROUP
  5
6358
102
{ACAD_REACTORS
330
18
102
}
330
18
100
AcDbGroup
300

 70
     3
 71
     0
  0
GROUP
  5
1C2C
102
{ACAD_REACTORS
330
18
102
}
330
18
100
AcDbGroup
300

 70
     3
 71
     0
  0
GROUP
  5
49BF
102
{ACAD_REACTORS
330
18
102
}
330
18
100
AcDbGroup
300

 70
     3
 71
     0
  0
GROUP
  5
1BC3
102
{ACAD_REACTORS
330
18
102
}
330
18
100
AcDbGroup
300

 70
     3
 71
     0
  0
GROUP
  5
4838
102
{ACAD_REACTORS
330
18
102
}
330
18
100
AcDbGroup
300

 70
     3
 71
     0
  0
GROUP
  5
1B17
102
{ACAD_REACTORS
330
18
102
}
330
18
100
AcDbGroup
300

 70
     3
 71
     0
  0
GROUP
  5
1B71
102
{ACAD_REACTORS
330
18
102
}
330
18
100
AcDbGroup
300

 70
     3
 71
     0
  0
GROUP
  5
145D
102
{ACAD_REACTORS
330
18
102
}
330
18
100
AcDbGroup
300

 70
     3
 71
     0
  0
GROUP
  5
4820
102
{ACAD_REACTORS
330
18
102
}
330
18
100
AcDbGroup
300

 70
     3
 71
     0
  0
GROUP
  5
1C31
102
{ACAD_REACTORS
330
18
102
}
330
18
100
AcDbGroup
300

 70
     3
 71
     0
  0
GROUP
  5
6416
102
{ACAD_REACTORS
330
18
102
}
330
18
100
AcDbGroup
300

 70
     3
 71
     0
  0
GROUP
  5
62D6
102
{ACAD_REACTORS
330
18
102
}
330
18
100
AcDbGroup
300

 70
     3
 71
     0
  0
GROUP
  5
640E
102
{ACAD_REACTORS
330
18
102
}
330
18
100
AcDbGroup
300

 70
     3
 71
     0
  0
GROUP
  5
1B5A
102
{ACAD_REACTORS
330
18
102
}
330
18
100
AcDbGroup
300

 70
     3
 71
     0
  0
GROUP
  5
631B
102
{ACAD_REACTORS
330
18
102
}
330
18
100
AcDbGroup
300

 70
     3
 71
     0
  0
GROUP
  5
48F7
102
{ACAD_REACTORS
330
18
102
}
330
18
100
AcDbGroup
300

 70
     3
 71
     0
  0
GROUP
  5
1B40
102
{ACAD_REACTORS
330
18
102
}
330
18
100
AcDbGroup
300

 70
     3
 71
     0
  0
GROUP
  5
1C2E
102
{ACAD_REACTORS
330
18
102
}
330
18
100
AcDbGroup
300

 70
     3
 71
     0
  0
GROUP
  5
4885
102
{ACAD_REACTORS
330
18
102
}
330
18
100
AcDbGroup
300

 70
     3
 71
     0
  0
GROUP
  5
62D5
102
{ACAD_REACTORS
330
18
102
}
330
18
100
AcDbGroup
300

 70
     3
 71
     0
  0
GROUP
  5
6344
102
{ACAD_REACTORS
330
18
102
}
330
18
100
AcDbGroup
300

 70
     3
 71
     0
  0
GROUP
  5
486A
102
{ACAD_REACTORS
330
18
102
}
330
18
100
AcDbGroup
300

 70
     3
 71
     0
  0
GROUP
  5
1B3F
102
{ACAD_REACTORS
330
18
102
}
330
18
100
AcDbGroup
300

 70
     3
 71
     0
  0
GROUP
  5
628B
102
{ACAD_REACTORS
330
18
102
}
330
18
100
AcDbGroup
300

 70
     3
 71
     0
  0
GROUP
  5
494E
102
{ACAD_REACTORS
330
18
102
}
330
18
100
AcDbGroup
300

 70
     3
 71
     0
  0
GROUP
  5
6312
102
{ACAD_REACTORS
330
18
102
}
330
18
100
AcDbGroup
300

 70
     3
 71
     0
  0
GROUP
  5
48C7
102
{ACAD_REACTORS
330
18
102
}
330
18
100
AcDbGroup
300

 70
     3
 71
     1
  0
GROUP
  5
1BAC
102
{ACAD_REACTORS
330
18
102
}
330
18
100
AcDbGroup
300

 70
     3
 71
     0
  0
GROUP
  5
493B
102
{ACAD_REACTORS
330
18
102
}
330
18
100
AcDbGroup
300

 70
     3
 71
     0
  0
GROUP
  5
62A1
102
{ACAD_REACTORS
330
18
102
}
330
18
100
AcDbGroup
300

 70
     3
 71
     0
  0
GROUP
  5
1B11
102
{ACAD_REACTORS
330
18
102
}
330
18
100
AcDbGroup
300

 70
     3
 71
     0
  0
GROUP
  5
633F
102
{ACAD_REACTORS
330
18
102
}
330
18
100
AcDbGroup
300

 70
     3
 71
     0
  0
GROUP
  5
1464
102
{ACAD_REACTORS
330
18
102
}
330
18
100
AcDbGroup
300

 70
     3
 71
     0
  0
GROUP
  5
48EE
102
{ACAD_REACTORS
330
18
102
}
330
18
100
AcDbGroup
300

 70
     3
 71
     0
  0
GROUP
  5
4877
102
{ACAD_REACTORS
330
18
102
}
330
18
100
AcDbGroup
300

 70
     3
 71
     0
  0
GROUP
  5
49D0
102
{ACAD_REACTORS
330
18
102
}
330
18
100
AcDbGroup
300

 70
     3
 71
     0
  0
GROUP
  5
1B61
102
{ACAD_REACTORS
330
18
102
}
330
18
100
AcDbGroup
300

 70
     3
 71
     0
  0
GROUP
  5
63B8
102
{ACAD_REACTORS
330
18
102
}
330
18
100
AcDbGroup
300

 70
     3
 71
     0
  0
GROUP
  5
48DE
102
{ACAD_REACTORS
330
18
102
}
330
18
100
AcDbGroup
300

 70
     3
 71
     0
  0
GROUP
  5
492F
102
{ACAD_REACTORS
330
18
102
}
330
18
100
AcDbGroup
300

 70
     3
 71
     0
  0
GROUP
  5
145F
102
{ACAD_REACTORS
330
18
102
}
330
18
100
AcDbGroup
300

 70
     3
 71
     0
  0
GROUP
  5
63AA
102
{ACAD_REACTORS
330
18
102
}
330
18
100
AcDbGroup
300

 70
     3
 71
     0
  0
GROUP
  5
48E2
102
{ACAD_REACTORS
330
18
102
}
330
18
100
AcDbGroup
300

 70
     3
 71
     0
  0
GROUP
  5
48A1
102
{ACAD_REACTORS
330
18
102
}
330
18
100
AcDbGroup
300

 70
     3
 71
     0
  0
GROUP
  5
499F
102
{ACAD_REACTORS
330
18
102
}
330
18
100
AcDbGroup
300

 70
     3
 71
     0
  0
GROUP
  5
6388
102
{ACAD_REACTORS
330
18
102
}
330
18
100
AcDbGroup
300

 70
     3
 71
     0
  0
GROUP
  5
4860
102
{ACAD_REACTORS
330
18
102
}
330
18
100
AcDbGroup
300

 70
     3
 71
     0
  0
GROUP
  5
1BF1
102
{ACAD_REACTORS
330
18
102
}
330
18
100
AcDbGroup
300

 70
     3
 71
     0
  0
GROUP
  5
1468
102
{ACAD_REACTORS
330
18
102
}
330
18
100
AcDbGroup
300

 70
     3
 71
     0
  0
GROUP
  5
4828
102
{ACAD_REACTORS
330
18
102
}
330
18
100
AcDbGroup
300

 70
     3
 71
     0
  0
GROUP
  5
4938
102
{ACAD_REACTORS
330
18
102
}
330
18
100
AcDbGroup
300

 70
     3
 71
     0
  0
GROUP
  5
4940
102
{ACAD_REACTORS
330
18
102
}
330
18
100
AcDbGroup
300

 70
     3
 71
     0
  0
GROUP
  5
48D8
102
{ACAD_REACTORS
330
18
102
}
330
18
100
AcDbGroup
300

 70
     3
 71
     0
  0
GROUP
  5
63F1
102
{ACAD_REACTORS
330
18
102
}
330
18
100
AcDbGroup
300

 70
     3
 71
     0
  0
GROUP
  5
48ED
102
{ACAD_REACTORS
330
18
102
}
330
18
100
AcDbGroup
300

 70
     3
 71
     0
  0
GROUP
  5
1B15
102
{ACAD_REACTORS
330
18
102
}
330
18
100
AcDbGroup
300

 70
     3
 71
     0
  0
GROUP
  5
62BD
102
{ACAD_REACTORS
330
18
102
}
330
18
100
AcDbGroup
300

 70
     3
 71
     0
  0
GROUP
  5
1C2F
102
{ACAD_REACTORS
330
18
102
}
330
18
100
AcDbGroup
300

 70
     3
 71
     0
  0
GROUP
  5
1B7C
102
{ACAD_REACTORS
330
18
102
}
330
18
100
AcDbGroup
300

 70
     3
 71
     0
  0
GROUP
  5
1AE3
102
{ACAD_REACTORS
330
18
102
}
330
18
100
AcDbGroup
300

 70
     3
 71
     0
  0
GROUP
  5
636C
102
{ACAD_REACTORS
330
18
102
}
330
18
100
AcDbGroup
300

 70
     3
 71
     0
  0
GROUP
  5
4889
102
{ACAD_REACTORS
330
18
102
}
330
18
100
AcDbGroup
300

 70
     3
 71
     0
  0
GROUP
  5
63C4
102
{ACAD_REACTORS
330
18
102
}
330
18
100
AcDbGroup
300

 70
     3
 71
     0
  0
GROUP
  5
1B33
102
{ACAD_REACTORS
330
18
102
}
330
18
100
AcDbGroup
300

 70
     3
 71
     0
  0
GROUP
  5
629E
102
{ACAD_REACTORS
330
18
102
}
330
18
100
AcDbGroup
300

 70
     3
 71
     0
  0
GROUP
  5
623C
102
{ACAD_REACTORS
330
18
102
}
330
18
100
AcDbGroup
300

 70
     3
 71
     0
  0
GROUP
  5
484B
102
{ACAD_REACTORS
330
18
102
}
330
18
100
AcDbGroup
300

 70
     3
 71
     0
  0
GROUP
  5
1B76
102
{ACAD_REACTORS
330
18
102
}
330
18
100
AcDbGroup
300

 70
     3
 71
     0
  0
GROUP
  5
1BA1
102
{ACAD_REACTORS
330
18
102
}
330
18
100
AcDbGroup
300

 70
     3
 71
     0
  0
GROUP
  5
63DB
102
{ACAD_REACTORS
330
18
102
}
330
18
100
AcDbGroup
300

 70
     3
 71
     0
  0
GROUP
  5
4851
102
{ACAD_REACTORS
330
18
102
}
330
18
100
AcDbGroup
300

 70
     3
 71
     0
  0
GROUP
  5
62E2
102
{ACAD_REACTORS
330
18
102
}
330
18
100
AcDbGroup
300

 70
     3
 71
     0
  0
GROUP
  5
1AE4
102
{ACAD_REACTORS
330
18
102
}
330
18
100
AcDbGroup
300

 70
     3
 71
     0
  0
GROUP
  5
628D
102
{ACAD_REACTORS
330
18
102
}
330
18
100
AcDbGroup
300

 70
     3
 71
     0
  0
GROUP
  5
641E
102
{ACAD_REACTORS
330
18
102
}
330
18
100
AcDbGroup
300

 70
     3
 71
     0
  0
GROUP
  5
639B
102
{ACAD_REACTORS
330
18
102
}
330
18
100
AcDbGroup
300

 70
     3
 71
     0
  0
GROUP
  5
6259
102
{ACAD_REACTORS
330
18
102
}
330
18
100
AcDbGroup
300

 70
     3
 71
     0
  0
GROUP
  5
62BC
102
{ACAD_REACTORS
330
18
102
}
330
18
100
AcDbGroup
300

 70
     3
 71
     0
  0
GROUP
  5
4985
102
{ACAD_REACTORS
330
18
102
}
330
18
100
AcDbGroup
300

 70
     3
 71
     0
  0
GROUP
  5
495A
102
{ACAD_REACTORS
330
18
102
}
330
18
100
AcDbGroup
300

 70
     3
 71
     0
  0
GROUP
  5
48F3
102
{ACAD_REACTORS
330
18
102
}
330
18
100
AcDbGroup
300

 70
     3
 71
     0
  0
GROUP
  5
622E
102
{ACAD_REACTORS
330
18
102
}
330
18
100
AcDbGroup
300

 70
     3
 71
     0
  0
GROUP
  5
1B90
102
{ACAD_REACTORS
330
18
102
}
330
18
100
AcDbGroup
300

 70
     3
 71
     0
  0
GROUP
  5
4A0A
102
{ACAD_REACTORS
330
18
102
}
330
18
100
AcDbGroup
300

 70
     3
 71
     0
  0
GROUP
  5
632A
102
{ACAD_REACTORS
330
18
102
}
330
18
100
AcDbGroup
300

 70
     3
 71
     0
  0
GROUP
  5
1C06
102
{ACAD_REACTORS
330
18
102
}
330
18
100
AcDbGroup
300

 70
     3
 71
     0
  0
GROUP
  5
62EB
102
{ACAD_REACTORS
330
18
102
}
330
18
100
AcDbGroup
300

 70
     3
 71
     0
  0
GROUP
  5
1B21
102
{ACAD_REACTORS
330
18
102
}
330
18
100
AcDbGroup
300

 70
     3
 71
     0
  0
GROUP
  5
1BA4
102
{ACAD_REACTORS
330
18
102
}
330
18
100
AcDbGroup
300

 70
     3
 71
     0
  0
GROUP
  5
6366
102
{ACAD_REACTORS
330
18
102
}
330
18
100
AcDbGroup
300

 70
     3
 71
     0
  0
GROUP
  5
1C0B
102
{ACAD_REACTORS
330
18
102
}
330
18
100
AcDbGroup
300

 70
     3
 71
     0
  0
GROUP
  5
49A3
102
{ACAD_REACTORS
330
18
102
}
330
18
100
AcDbGroup
300

 70
     3
 71
     0
  0
GROUP
  5
1B0F
102
{ACAD_REACTORS
330
18
102
}
330
18
100
AcDbGroup
300

 70
     3
 71
     0
  0
GROUP
  5
1ADB
102
{ACAD_REACTORS
330
18
102
}
330
18
100
AcDbGroup
300

 70
     3
 71
     0
  0
GROUP
  5
494F
102
{ACAD_REACTORS
330
18
102
}
330
18
100
AcDbGroup
300

 70
     3
 71
     0
  0
GROUP
  5
6235
102
{ACAD_REACTORS
330
18
102
}
330
18
100
AcDbGroup
300

 70
     3
 71
     0
  0
GROUP
  5
48FD
102
{ACAD_REACTORS
330
18
102
}
330
18
100
AcDbGroup
300

 70
     3
 71
     0
  0
GROUP
  5
1B9B
102
{ACAD_REACTORS
330
18
102
}
330
18
100
AcDbGroup
300

 70
     3
 71
     0
  0
GROUP
  5
6380
102
{ACAD_REACTORS
330
18
102
}
330
18
100
AcDbGroup
300

 70
     3
 71
     0
  0
GROUP
  5
486D
102
{ACAD_REACTORS
330
18
102
}
330
18
100
AcDbGroup
300

 70
     3
 71
     0
  0
GROUP
  5
482A
102
{ACAD_REACTORS
330
18
102
}
330
18
100
AcDbGroup
300

 70
     3
 71
     0
  0
GROUP
  5
4835
102
{ACAD_REACTORS
330
18
102
}
330
18
100
AcDbGroup
300

 70
     3
 71
     0
  0
GROUP
  5
1C11
102
{ACAD_REACTORS
330
18
102
}
330
18
100
AcDbGroup
300

 70
     3
 71
     0
  0
GROUP
  5
483B
102
{ACAD_REACTORS
330
18
102
}
330
18
100
AcDbGroup
300

 70
     3
 71
     0
  0
GROUP
  5
4965
102
{ACAD_REACTORS
330
18
102
}
330
18
100
AcDbGroup
300

 70
     3
 71
     0
  0
GROUP
  5
4904
102
{ACAD_REACTORS
330
18
102
}
330
18
100
AcDbGroup
300

 70
     3
 71
     0
  0
GROUP
  5
1AEA
102
{ACAD_REACTORS
330
18
102
}
330
18
100
AcDbGroup
300

 70
     3
 71
     0
  0
GROUP
  5
1AD3
102
{ACAD_REACTORS
330
18
102
}
330
18
100
AcDbGroup
300

 70
     3
 71
     0
  0
GROUP
  5
6296
102
{ACAD_REACTORS
330
18
102
}
330
18
100
AcDbGroup
300

 70
     3
 71
     0
  0
GROUP
  5
6257
102
{ACAD_REACTORS
330
18
102
}
330
18
100
AcDbGroup
300

 70
     3
 71
     0
  0
GROUP
  5
1ACB
102
{ACAD_REACTORS
330
18
102
}
330
18
100
AcDbGroup
300

 70
     3
 71
     0
  0
GROUP
  5
1B05
102
{ACAD_REACTORS
330
18
102
}
330
18
100
AcDbGroup
300

 70
     3
 71
     0
  0
GROUP
  5
48B6
102
{ACAD_REACTORS
330
18
102
}
330
18
100
AcDbGroup
300

 70
     3
 71
     0
  0
GROUP
  5
498E
102
{ACAD_REACTORS
330
18
102
}
330
18
100
AcDbGroup
300

 70
     3
 71
     0
  0
GROUP
  5
4876
102
{ACAD_REACTORS
330
18
102
}
330
18
100
AcDbGroup
300

 70
     3
 71
     0
  0
GROUP
  5
62FC
102
{ACAD_REACTORS
330
18
102
}
330
18
100
AcDbGroup
300

 70
     3
 71
     0
  0
GROUP
  5
484F
102
{ACAD_REACTORS
330
18
102
}
330
18
100
AcDbGroup
300

 70
     3
 71
     0
  0
GROUP
  5
4976
102
{ACAD_REACTORS
330
18
102
}
330
18
100
AcDbGroup
300

 70
     3
 71
     0
  0
GROUP
  5
1BA0
102
{ACAD_REACTORS
330
18
102
}
330
18
100
AcDbGroup
300

 70
     3
 71
     0
  0
GROUP
  5
1BA9
102
{ACAD_REACTORS
330
18
102
}
330
18
100
AcDbGroup
300

 70
     3
 71
     0
  0
GROUP
  5
48A6
102
{ACAD_REACTORS
330
18
102
}
330
18
100
AcDbGroup
300

 70
     3
 71
     0
  0
GROUP
  5
6411
102
{ACAD_REACTORS
330
18
102
}
330
18
100
AcDbGroup
300

 70
     3
 71
     0
  0
GROUP
  5
6374
102
{ACAD_REACTORS
330
18
102
}
330
18
100
AcDbGroup
300

 70
     3
 71
     0
  0
GROUP
  5
1C55
102
{ACAD_REACTORS
330
18
102
}
330
18
100
AcDbGroup
300

 70
     3
 71
     0
  0
GROUP
  5
1B81
102
{ACAD_REACTORS
330
18
102
}
330
18
100
AcDbGroup
300

 70
     3
 71
     0
  0
GROUP
  5
1B29
102
{ACAD_REACTORS
330
18
102
}
330
18
100
AcDbGroup
300

 70
     3
 71
     0
  0
GROUP
  5
48FB
102
{ACAD_REACTORS
330
18
102
}
330
18
100
AcDbGroup
300

 70
     3
 71
     0
  0
GROUP
  5
63A7
102
{ACAD_REACTORS
330
18
102
}
330
18
100
AcDbGroup
300

 70
     3
 71
     0
  0
GROUP
  5
4854
102
{ACAD_REACTORS
330
18
102
}
330
18
100
AcDbGroup
300

 70
     3
 71
     0
  0
GROUP
  5
6265
102
{ACAD_REACTORS
330
18
102
}
330
18
100
AcDbGroup
300

 70
     3
 71
     0
  0
GROUP
  5
37C3
102
{ACAD_REACTORS
330
18
102
}
330
18
100
AcDbGroup
300

 70
     3
 71
     0
  0
GROUP
  5
480D
102
{ACAD_REACTORS
330
18
102
}
330
18
100
AcDbGroup
300

 70
     3
 71
     0
  0
GROUP
  5
49C6
102
{ACAD_REACTORS
330
18
102
}
330
18
100
AcDbGroup
300

 70
     3
 71
     0
  0
GROUP
  5
6254
102
{ACAD_REACTORS
330
18
102
}
330
18
100
AcDbGroup
300

 70
     3
 71
     0
  0
GROUP
  5
1BC5
102
{ACAD_REACTORS
330
18
102
}
330
18
100
AcDbGroup
300

 70
     3
 71
     0
  0
GROUP
  5
1455
102
{ACAD_REACTORS
330
18
102
}
330
18
100
AcDbGroup
300

 70
     3
 71
     0
  0
GROUP
  5
48CE
102
{ACAD_REACTORS
330
18
102
}
330
18
100
AcDbGroup
300

 70
     3
 71
     0
  0
GROUP
  5
6345
102
{ACAD_REACTORS
330
18
102
}
330
18
100
AcDbGroup
300

 70
     3
 71
     0
  0
GROUP
  5
6287
102
{ACAD_REACTORS
330
18
102
}
330
18
100
AcDbGroup
300

 70
     3
 71
     0
  0
GROUP
  5
37A2
102
{ACAD_REACTORS
330
18
102
}
330
18
100
AcDbGroup
300

 70
     3
 71
     0
  0
GROUP
  5
1B32
102
{ACAD_REACTORS
330
18
102
}
330
18
100
AcDbGroup
300

 70
     3
 71
     0
  0
GROUP
  5
6367
102
{ACAD_REACTORS
330
18
102
}
330
18
100
AcDbGroup
300

 70
     3
 71
     0
  0
GROUP
  5
494B
102
{ACAD_REACTORS
330
18
102
}
330
18
100
AcDbGroup
300

 70
     3
 71
     0
  0
GROUP
  5
1C49
102
{ACAD_REACTORS
330
18
102
}
330
18
100
AcDbGroup
300

 70
     3
 71
     0
  0
GROUP
  5
1B30
102
{ACAD_REACTORS
330
18
102
}
330
18
100
AcDbGroup
300

 70
     3
 71
     0
  0
GROUP
  5
49DF
102
{ACAD_REACTORS
330
18
102
}
330
18
100
AcDbGroup
300

 70
     3
 71
     0
  0
GROUP
  5
629D
102
{ACAD_REACTORS
330
18
102
}
330
18
100
AcDbGroup
300

 70
     3
 71
     0
  0
GROUP
  5
6419
102
{ACAD_REACTORS
330
18
102
}
330
18
100
AcDbGroup
300

 70
     3
 71
     0
  0
GROUP
  5
49F7
102
{ACAD_REACTORS
330
18
102
}
330
18
100
AcDbGroup
300

 70
     3
 71
     0
  0
GROUP
  5
6355
102
{ACAD_REACTORS
330
18
102
}
330
18
100
AcDbGroup
300

 70
     3
 71
     0
  0
GROUP
  5
63C0
102
{ACAD_REACTORS
330
18
102
}
330
18
100
AcDbGroup
300

 70
     3
 71
     0
  0
GROUP
  5
62DB
102
{ACAD_REACTORS
330
18
102
}
330
18
100
AcDbGroup
300

 70
     3
 71
     0
  0
GROUP
  5
4826
102
{ACAD_REACTORS
330
18
102
}
330
18
100
AcDbGroup
300

 70
     3
 71
     0
  0
GROUP
  5
6305
102
{ACAD_REACTORS
330
18
102
}
330
18
100
AcDbGroup
300

 70
     3
 71
     0
  0
GROUP
  5
6293
102
{ACAD_REACTORS
330
18
102
}
330
18
100
AcDbGroup
300

 70
     3
 71
     0
  0
GROUP
  5
1AE7
102
{ACAD_REACTORS
330
18
102
}
330
18
100
AcDbGroup
300

 70
     3
 71
     0
  0
GROUP
  5
6426
102
{ACAD_REACTORS
330
18
102
}
330
18
100
AcDbGroup
300

 70
     3
 71
     0
  0
GROUP
  5
6410
102
{ACAD_REACTORS
330
18
102
}
330
18
100
AcDbGroup
300

 70
     3
 71
     0
  0
GROUP
  5
1B4E
102
{ACAD_REACTORS
330
18
102
}
330
18
100
AcDbGroup
300

 70
     3
 71
     0
  0
GROUP
  5
48D7
102
{ACAD_REACTORS
330
18
102
}
330
18
100
AcDbGroup
300

 70
     3
 71
     0
  0
GROUP
  5
1BE7
102
{ACAD_REACTORS
330
18
102
}
330
18
100
AcDbGroup
300

 70
     3
 71
     0
  0
GROUP
  5
6376
102
{ACAD_REACTORS
330
18
102
}
330
18
100
AcDbGroup
300

 70
     3
 71
     0
  0
GROUP
  5
49F9
102
{ACAD_REACTORS
330
18
102
}
330
18
100
AcDbGroup
300

 70
     3
 71
     0
  0
GROUP
  5
37B8
102
{ACAD_REACTORS
330
18
102
}
330
18
100
AcDbGroup
300

 70
     3
 71
     0
  0
GROUP
  5
1AF9
102
{ACAD_REACTORS
330
18
102
}
330
18
100
AcDbGroup
300

 70
     3
 71
     0
  0
GROUP
  5
4994
102
{ACAD_REACTORS
330
18
102
}
330
18
100
AcDbGroup
300

 70
     3
 71
     0
  0
GROUP
  5
1BA7
102
{ACAD_REACTORS
330
18
102
}
330
18
100
AcDbGroup
300

 70
     3
 71
     0
  0
GROUP
  5
1B67
102
{ACAD_REACTORS
330
18
102
}
330
18
100
AcDbGroup
300

 70
     3
 71
     0
  0
GROUP
  5
37AF
102
{ACAD_REACTORS
330
18
102
}
330
18
100
AcDbGroup
300

 70
     3
 71
     0
  0
GROUP
  5
1B31
102
{ACAD_REACTORS
330
18
102
}
330
18
100
AcDbGroup
300

 70
     3
 71
     0
  0
GROUP
  5
6336
102
{ACAD_REACTORS
330
18
102
}
330
18
100
AcDbGroup
300

 70
     3
 71
     0
  0
GROUP
  5
1B4D
102
{ACAD_REACTORS
330
18
102
}
330
18
100
AcDbGroup
300

 70
     3
 71
     0
  0
GROUP
  5
1AF8
102
{ACAD_REACTORS
330
18
102
}
330
18
100
AcDbGroup
300

 70
     3
 71
     0
  0
GROUP
  5
63DF
102
{ACAD_REACTORS
330
18
102
}
330
18
100
AcDbGroup
300

 70
     3
 71
     0
  0
GROUP
  5
63D8
102
{ACAD_REACTORS
330
18
102
}
330
18
100
AcDbGroup
300

 70
     3
 71
     0
  0
GROUP
  5
6251
102
{ACAD_REACTORS
330
18
102
}
330
18
100
AcDbGroup
300

 70
     3
 71
     0
  0
GROUP
  5
482F
102
{ACAD_REACTORS
330
18
102
}
330
18
100
AcDbGroup
300

 70
     3
 71
     0
  0
GROUP
  5
488E
102
{ACAD_REACTORS
330
18
102
}
330
18
100
AcDbGroup
300

 70
     3
 71
     0
  0
GROUP
  5
1BC6
102
{ACAD_REACTORS
330
18
102
}
330
18
100
AcDbGroup
300

 70
     3
 71
     0
  0
GROUP
  5
49A7
102
{ACAD_REACTORS
330
18
102
}
330
18
100
AcDbGroup
300

 70
     3
 71
     0
  0
GROUP
  5
489A
102
{ACAD_REACTORS
330
18
102
}
330
18
100
AcDbGroup
300

 70
     3
 71
     0
  0
GROUP
  5
6246
102
{ACAD_REACTORS
330
18
102
}
330
18
100
AcDbGroup
300

 70
     3
 71
     0
  0
GROUP
  5
496D
102
{ACAD_REACTORS
330
18
102
}
330
18
100
AcDbGroup
300

 70
     3
 71
     0
  0
GROUP
  5
62DA
102
{ACAD_REACTORS
330
18
102
}
330
18
100
AcDbGroup
300

 70
     3
 71
     0
  0
GROUP
  5
499E
102
{ACAD_REACTORS
330
18
102
}
330
18
100
AcDbGroup
300

 70
     3
 71
     0
  0
GROUP
  5
640D
102
{ACAD_REACTORS
330
18
102
}
330
18
100
AcDbGroup
300

 70
     3
 71
     0
  0
GROUP
  5
1BAF
102
{ACAD_REACTORS
330
18
102
}
330
18
100
AcDbGroup
300

 70
     3
 71
     0
  0
GROUP
  5
6349
102
{ACAD_REACTORS
330
18
102
}
330
18
100
AcDbGroup
300

 70
     3
 71
     0
  0
GROUP
  5
1C30
102
{ACAD_REACTORS
330
18
102
}
330
18
100
AcDbGroup
300

 70
     3
 71
     0
  0
GROUP
  5
49D1
102
{ACAD_REACTORS
330
18
102
}
330
18
100
AcDbGroup
300

 70
     3
 71
     0
  0
GROUP
  5
4969
102
{ACAD_REACTORS
330
18
102
}
330
18
100
AcDbGroup
300

 70
     3
 71
     0
  0
GROUP
  5
48EA
102
{ACAD_REACTORS
330
18
102
}
330
18
100
AcDbGroup
300

 70
     3
 71
     0
  0
GROUP
  5
493E
102
{ACAD_REACTORS
330
18
102
}
330
18
100
AcDbGroup
300

 70
     3
 71
     0
  0
GROUP
  5
49F2
102
{ACAD_REACTORS
330
18
102
}
330
18
100
AcDbGroup
300

 70
     3
 71
     0
  0
GROUP
  5
62E8
102
{ACAD_REACTORS
330
18
102
}
330
18
100
AcDbGroup
300

 70
     3
 71
     0
  0
GROUP
  5
6225
102
{ACAD_REACTORS
330
18
102
}
330
18
100
AcDbGroup
300

 70
     3
 71
     0
  0
GROUP
  5
62D7
102
{ACAD_REACTORS
330
18
102
}
330
18
100
AcDbGroup
300

 70
     3
 71
     0
  0
GROUP
  5
1B01
102
{ACAD_REACTORS
330
18
102
}
330
18
100
AcDbGroup
300

 70
     3
 71
     0
  0
GROUP
  5
1C38
102
{ACAD_REACTORS
330
18
102
}
330
18
100
AcDbGroup
300

 70
     3
 71
     0
  0
GROUP
  5
623E
102
{ACAD_REACTORS
330
18
102
}
330
18
100
AcDbGroup
300

 70
     3
 71
     0
  0
GROUP
  5
48DB
102
{ACAD_REACTORS
330
18
102
}
330
18
100
AcDbGroup
300

 70
     3
 71
     0
  0
GROUP
  5
63A4
102
{ACAD_REACTORS
330
18
102
}
330
18
100
AcDbGroup
300

 70
     3
 71
     0
  0
GROUP
  5
49AF
102
{ACAD_REACTORS
330
18
102
}
330
18
100
AcDbGroup
300

 70
     3
 71
     0
  0
GROUP
  5
623A
102
{ACAD_REACTORS
330
18
102
}
330
18
100
AcDbGroup
300

 70
     3
 71
     0
  0
GROUP
  5
6403
102
{ACAD_REACTORS
330
18
102
}
330
18
100
AcDbGroup
300

 70
     3
 71
     0
  0
GROUP
  5
62B3
102
{ACAD_REACTORS
330
18
102
}
330
18
100
AcDbGroup
300

 70
     3
 71
     0
  0
GROUP
  5
1B9C
102
{ACAD_REACTORS
330
18
102
}
330
18
100
AcDbGroup
300

 70
     3
 71
     0
  0
GROUP
  5
1AF1
102
{ACAD_REACTORS
330
18
102
}
330
18
100
AcDbGroup
300

 70
     3
 71
     0
  0
GROUP
  5
6250
102
{ACAD_REACTORS
330
18
102
}
330
18
100
AcDbGroup
300

 70
     3
 71
     0
  0
GROUP
  5
4963
102
{ACAD_REACTORS
330
18
102
}
330
18
100
AcDbGroup
300

 70
     3
 71
     0
  0
GROUP
  5
4832
102
{ACAD_REACTORS
330
18
102
}
330
18
100
AcDbGroup
300

 70
     3
 71
     0
  0
GROUP
  5
6351
102
{ACAD_REACTORS
330
18
102
}
330
18
100
AcDbGroup
300

 70
     3
 71
     0
  0
GROUP
  5
6243
102
{ACAD_REACTORS
330
18
102
}
330
18
100
AcDbGroup
300

 70
     3
 71
     0
  0
GROUP
  5
48EF
102
{ACAD_REACTORS
330
18
102
}
330
18
100
AcDbGroup
300

 70
     3
 71
     0
  0
GROUP
  5
62D0
102
{ACAD_REACTORS
330
18
102
}
330
18
100
AcDbGroup
300

 70
     3
 71
     0
  0
GROUP
  5
48D5
102
{ACAD_REACTORS
330
18
102
}
330
18
100
AcDbGroup
300

 70
     3
 71
     0
  0
GROUP
  5
6422
102
{ACAD_REACTORS
330
18
102
}
330
18
100
AcDbGroup
300

 70
     3
 71
     0
  0
GROUP
  5
63FD
102
{ACAD_REACTORS
330
18
102
}
330
18
100
AcDbGroup
300

 70
     3
 71
     0
  0
GROUP
  5
628A
102
{ACAD_REACTORS
330
18
102
}
330
18
100
AcDbGroup
300

 70
     3
 71
     0
  0
GROUP
  5
6258
102
{ACAD_REACTORS
330
18
102
}
330
18
100
AcDbGroup
300

 70
     3
 71
     0
  0
GROUP
  5
1BC8
102
{ACAD_REACTORS
330
18
102
}
330
18
100
AcDbGroup
300

 70
     3
 71
     0
  0
GROUP
  5
491D
102
{ACAD_REACTORS
330
18
102
}
330
18
100
AcDbGroup
300

 70
     3
 71
     0
  0
GROUP
  5
37BA
102
{ACAD_REACTORS
330
18
102
}
330
18
100
AcDbGroup
300

 70
     3
 71
     0
  0
GROUP
  5
1BE6
102
{ACAD_REACTORS
330
18
102
}
330
18
100
AcDbGroup
300

 70
     3
 71
     0
  0
GROUP
  5
4875
102
{ACAD_REACTORS
330
18
102
}
330
18
100
AcDbGroup
300

 70
     3
 71
     0
  0
GROUP
  5
4831
102
{ACAD_REACTORS
330
18
102
}
330
18
100
AcDbGroup
300

 70
     3
 71
     0
  0
GROUP
  5
630B
102
{ACAD_REACTORS
330
18
102
}
330
18
100
AcDbGroup
300

 70
     3
 71
     0
  0
GROUP
  5
6353
102
{ACAD_REACTORS
330
18
102
}
330
18
100
AcDbGroup
300

 70
     3
 71
     0
  0
GROUP
  5
62A7
102
{ACAD_REACTORS
330
18
102
}
330
18
100
AcDbGroup
300

 70
     3
 71
     0
  0
GROUP
  5
1B39
102
{ACAD_REACTORS
330
18
102
}
330
18
100
AcDbGroup
300

 70
     3
 71
     0
  0
GROUP
  5
1AD5
102
{ACAD_REACTORS
330
18
102
}
330
18
100
AcDbGroup
300

 70
     3
 71
     0
  0
GROUP
  5
489C
102
{ACAD_REACTORS
330
18
102
}
330
18
100
AcDbGroup
300

 70
     3
 71
     0
  0
GROUP
  5
1AF7
102
{ACAD_REACTORS
330
18
102
}
330
18
100
AcDbGroup
300

 70
     3
 71
     0
  0
GROUP
  5
1B4C
102
{ACAD_REACTORS
330
18
102
}
330
18
100
AcDbGroup
300

 70
     3
 71
     0
  0
GROUP
  5
627F
102
{ACAD_REACTORS
330
18
102
}
330
18
100
AcDbGroup
300

 70
     3
 71
     0
  0
GROUP
  5
6252
102
{ACAD_REACTORS
330
18
102
}
330
18
100
AcDbGroup
300

 70
     3
 71
     0
  0
GROUP
  5
48C3
102
{ACAD_REACTORS
330
18
102
}
330
18
100
AcDbGroup
300

 70
     3
 71
     0
  0
GROUP
  5
1BFF
102
{ACAD_REACTORS
330
18
102
}
330
18
100
AcDbGroup
300

 70
     3
 71
     0
  0
GROUP
  5
63D0
102
{ACAD_REACTORS
330
18
102
}
330
18
100
AcDbGroup
300

 70
     3
 71
     0
  0
GROUP
  5
49CC
102
{ACAD_REACTORS
330
18
102
}
330
18
100
AcDbGroup
300

 70
     3
 71
     0
  0
GROUP
  5
63A1
102
{ACAD_REACTORS
330
18
102
}
330
18
100
AcDbGroup
300

 70
     3
 71
     0
  0
GROUP
  5
481A
102
{ACAD_REACTORS
330
18
102
}
330
18
100
AcDbGroup
300

 70
     3
 71
     0
  0
GROUP
  5
1BDB
102
{ACAD_REACTORS
330
18
102
}
330
18
100
AcDbGroup
300

 70
     3
 71
     0
  0
GROUP
  5
1B6D
102
{ACAD_REACTORS
330
18
102
}
330
18
100
AcDbGroup
300

 70
     3
 71
     0
  0
GROUP
  5
63F2
102
{ACAD_REACTORS
330
18
102
}
330
18
100
AcDbGroup
300

 70
     3
 71
     0
  0
GROUP
  5
4855
102
{ACAD_REACTORS
330
18
102
}
330
18
100
AcDbGroup
300

 70
     3
 71
     0
  0
GROUP
  5
1ADD
102
{ACAD_REACTORS
330
18
102
}
330
18
100
AcDbGroup
300

 70
     3
 71
     0
  0
GROUP
  5
1C12
102
{ACAD_REACTORS
330
18
102
}
330
18
100
AcDbGroup
300

 70
     3
 71
     0
  0
GROUP
  5
1C57
102
{ACAD_REACTORS
330
18
102
}
330
18
100
AcDbGroup
300

 70
     3
 71
     0
  0
GROUP
  5
4908
102
{ACAD_REACTORS
330
18
102
}
330
18
100
AcDbGroup
300

 70
     3
 71
     0
  0
GROUP
  5
4836
102
{ACAD_REACTORS
330
18
102
}
330
18
100
AcDbGroup
300

 70
     3
 71
     0
  0
GROUP
  5
4856
102
{ACAD_REACTORS
330
18
102
}
330
18
100
AcDbGroup
300

 70
     3
 71
     0
  0
GROUP
  5
48CB
102
{ACAD_REACTORS
330
18
102
}
330
18
100
AcDbGroup
300

 70
     3
 71
     0
  0
GROUP
  5
483E
102
{ACAD_REACTORS
330
18
102
}
330
18
100
AcDbGroup
300

 70
     3
 71
     0
  0
GROUP
  5
4809
102
{ACAD_REACTORS
330
18
102
}
330
18
100
AcDbGroup
300

 70
     3
 71
     0
  0
GROUP
  5
1BD9
102
{ACAD_REACTORS
330
18
102
}
330
18
100
AcDbGroup
300

 70
     3
 71
     0
  0
GROUP
  5
62E5
102
{ACAD_REACTORS
330
18
102
}
330
18
100
AcDbGroup
300

 70
     3
 71
     0
  0
GROUP
  5
63F5
102
{ACAD_REACTORS
330
18
102
}
330
18
100
AcDbGroup
300

 70
     3
 71
     0
  0
GROUP
  5
1AD6
102
{ACAD_REACTORS
330
18
102
}
330
18
100
AcDbGroup
300

 70
     3
 71
     0
  0
GROUP
  5
62B4
102
{ACAD_REACTORS
330
18
102
}
330
18
100
AcDbGroup
300

 70
     3
 71
     0
  0
GROUP
  5
49DA
102
{ACAD_REACTORS
330
18
102
}
330
18
100
AcDbGroup
300

 70
     3
 71
     0
  0
GROUP
  5
63BE
102
{ACAD_REACTORS
330
18
102
}
330
18
100
AcDbGroup
300

 70
     3
 71
     0
  0
GROUP
  5
1C5B
102
{ACAD_REACTORS
330
18
102
}
330
18
100
AcDbGroup
300

 70
     3
 71
     0
  0
GROUP
  5
6315
102
{ACAD_REACTORS
330
18
102
}
330
18
100
AcDbGroup
300

 70
     3
 71
     0
  0
GROUP
  5
4892
102
{ACAD_REACTORS
330
18
102
}
330
18
100
AcDbGroup
300

 70
     3
 71
     0
  0
GROUP
  5
630C
102
{ACAD_REACTORS
330
18
102
}
330
18
100
AcDbGroup
300

 70
     3
 71
     0
  0
GROUP
  5
4901
102
{ACAD_REACTORS
330
18
102
}
330
18
100
AcDbGroup
300

 70
     3
 71
     0
  0
GROUP
  5
1C60
102
{ACAD_REACTORS
330
18
102
}
330
18
100
AcDbGroup
300

 70
     3
 71
     0
  0
GROUP
  5
6413
102
{ACAD_REACTORS
330
18
102
}
330
18
100
AcDbGroup
300

 70
     3
 71
     0
  0
GROUP
  5
4829
102
{ACAD_REACTORS
330
18
102
}
330
18
100
AcDbGroup
300

 70
     3
 71
     0
  0
GROUP
  5
48A3
102
{ACAD_REACTORS
330
18
102
}
330
18
100
AcDbGroup
300

 70
     3
 71
     0
  0
GROUP
  5
62EF
102
{ACAD_REACTORS
330
18
102
}
330
18
100
AcDbGroup
300

 70
     3
 71
     0
  0
GROUP
  5
6377
102
{ACAD_REACTORS
330
18
102
}
330
18
100
AcDbGroup
300

 70
     3
 71
     0
  0
GROUP
  5
4857
102
{ACAD_REACTORS
330
18
102
}
330
18
100
AcDbGroup
300

 70
     3
 71
     0
  0
GROUP
  5
4945
102
{ACAD_REACTORS
330
18
102
}
330
18
100
AcDbGroup
300

 70
     3
 71
     0
  0
GROUP
  5
1B94
102
{ACAD_REACTORS
330
18
102
}
330
18
100
AcDbGroup
300

 70
     3
 71
     0
  0
GROUP
  5
49B5
102
{ACAD_REACTORS
330
18
102
}
330
18
100
AcDbGroup
300

 70
     3
 71
     0
  0
GROUP
  5
1BFE
102
{ACAD_REACTORS
330
18
102
}
330
18
100
AcDbGroup
300

 70
     3
 71
     0
  0
GROUP
  5
1BF0
102
{ACAD_REACTORS
330
18
102
}
330
18
100
AcDbGroup
300

 70
     3
 71
     0
  0
GROUP
  5
1C1D
102
{ACAD_REACTORS
330
18
102
}
330
18
100
AcDbGroup
300

 70
     3
 71
     0
  0
GROUP
  5
1BCF
102
{ACAD_REACTORS
330
18
102
}
330
18
100
AcDbGroup
300

 70
     3
 71
     0
  0
GROUP
  5
48C9
102
{ACAD_REACTORS
330
18
102
}
330
18
100
AcDbGroup
300

 70
     3
 71
     0
  0
GROUP
  5
1B6E
102
{ACAD_REACTORS
330
18
102
}
330
18
100
AcDbGroup
300

 70
     3
 71
     0
  0
GROUP
  5
6279
102
{ACAD_REACTORS
330
18
102
}
330
18
100
AcDbGroup
300

 70
     3
 71
     0
  0
GROUP
  5
63DC
102
{ACAD_REACTORS
330
18
102
}
330
18
100
AcDbGroup
300

 70
     3
 71
     0
  0
GROUP
  5
4842
102
{ACAD_REACTORS
330
18
102
}
330
18
100
AcDbGroup
300

 70
     3
 71
     0
  0
GROUP
  5
4A02
102
{ACAD_REACTORS
330
18
102
}
330
18
100
AcDbGroup
300

 70
     3
 71
     0
  0
GROUP
  5
1C5D
102
{ACAD_REACTORS
330
18
102
}
330
18
100
AcDbGroup
300

 70
     3
 71
     0
  0
GROUP
  5
631D
102
{ACAD_REACTORS
330
18
102
}
330
18
100
AcDbGroup
300

 70
     3
 71
     0
  0
GROUP
  5
1B77
102
{ACAD_REACTORS
330
18
102
}
330
18
100
AcDbGroup
300

 70
     3
 71
     0
  0
GROUP
  5
49E3
102
{ACAD_REACTORS
330
18
102
}
330
18
100
AcDbGroup
300

 70
     3
 71
     0
  0
GROUP
  5
6337
102
{ACAD_REACTORS
330
18
102
}
330
18
100
AcDbGroup
300

 70
     3
 71
     0
  0
GROUP
  5
1B50
102
{ACAD_REACTORS
330
18
102
}
330
18
100
AcDbGroup
300

 70
     3
 71
     0
  0
GROUP
  5
48F8
102
{ACAD_REACTORS
330
18
102
}
330
18
100
AcDbGroup
300

 70
     3
 71
     0
  0
GROUP
  5
4A04
102
{ACAD_REACTORS
330
18
102
}
330
18
100
AcDbGroup
300

 70
     3
 71
     0
  0
GROUP
  5
636A
102
{ACAD_REACTORS
330
18
102
}
330
18
100
AcDbGroup
300

 70
     3
 71
     0
  0
GROUP
  5
6347
102
{ACAD_REACTORS
330
18
102
}
330
18
100
AcDbGroup
300

 70
     3
 71
     0
  0
GROUP
  5
4A0C
102
{ACAD_REACTORS
330
18
102
}
330
18
100
AcDbGroup
300

 70
     3
 71
     0
  0
GROUP
  5
640C
102
{ACAD_REACTORS
330
18
102
}
330
18
100
AcDbGroup
300

 70
     3
 71
     0
  0
GROUP
  5
4887
102
{ACAD_REACTORS
330
18
102
}
330
18
100
AcDbGroup
300

 70
     3
 71
     0
  0
GROUP
  5
62B0
102
{ACAD_REACTORS
330
18
102
}
330
18
100
AcDbGroup
300

 70
     3
 71
     0
  0
GROUP
  5
48FA
102
{ACAD_REACTORS
330
18
102
}
330
18
100
AcDbGroup
300

 70
     3
 71
     0
  0
GROUP
  5
49F5
102
{ACAD_REACTORS
330
18
102
}
330
18
100
AcDbGroup
300

 70
     3
 71
     0
  0
GROUP
  5
6302
102
{ACAD_REACTORS
330
18
102
}
330
18
100
AcDbGroup
300

 70
     3
 71
     0
  0
GROUP
  5
62F7
102
{ACAD_REACTORS
330
18
102
}
330
18
100
AcDbGroup
300

 70
     3
 71
     0
  0
GROUP
  5
4833
102
{ACAD_REACTORS
330
18
102
}
330
18
100
AcDbGroup
300

 70
     3
 71
     0
  0
GROUP
  5
4975
102
{ACAD_REACTORS
330
18
102
}
330
18
100
AcDbGroup
300

 70
     3
 71
     0
  0
GROUP
  5
6313
102
{ACAD_REACTORS
330
18
102
}
330
18
100
AcDbGroup
300

 70
     3
 71
     0
  0
GROUP
  5
6382
102
{ACAD_REACTORS
330
18
102
}
330
18
100
AcDbGroup
300

 70
     3
 71
     0
  0
GROUP
  5
4978
102
{ACAD_REACTORS
330
18
102
}
330
18
100
AcDbGroup
300

 70
     3
 71
     0
  0
GROUP
  5
62D4
102
{ACAD_REACTORS
330
18
102
}
330
18
100
AcDbGroup
300

 70
     3
 71
     1
  0
GROUP
  5
63B5
102
{ACAD_REACTORS
330
18
102
}
330
18
100
AcDbGroup
300

 70
     3
 71
     0
  0
GROUP
  5
49D4
102
{ACAD_REACTORS
330
18
102
}
330
18
100
AcDbGroup
300

 70
     3
 71
     0
  0
GROUP
  5
495D
102
{ACAD_REACTORS
330
18
102
}
330
18
100
AcDbGroup
300

 70
     3
 71
     0
  0
GROUP
  5
63E6
102
{ACAD_REACTORS
330
18
102
}
330
18
100
AcDbGroup
300

 70
     3
 71
     0
  0
GROUP
  5
625C
102
{ACAD_REACTORS
330
18
102
}
330
18
100
AcDbGroup
300

 70
     3
 71
     0
  0
GROUP
  5
1C61
102
{ACAD_REACTORS
330
18
102
}
330
18
100
AcDbGroup
300

 70
     3
 71
     0
  0
GROUP
  5
4858
102
{ACAD_REACTORS
330
18
102
}
330
18
100
AcDbGroup
300

 70
     3
 71
     0
  0
GROUP
  5
63B3
102
{ACAD_REACTORS
330
18
102
}
330
18
100
AcDbGroup
300

 70
     3
 71
     0
  0
GROUP
  5
49BE
102
{ACAD_REACTORS
330
18
102
}
330
18
100
AcDbGroup
300

 70
     3
 71
     0
  0
GROUP
  5
493F
102
{ACAD_REACTORS
330
18
102
}
330
18
100
AcDbGroup
300

 70
     3
 71
     0
  0
GROUP
  5
4913
102
{ACAD_REACTORS
330
18
102
}
330
18
100
AcDbGroup
300

 70
     3
 71
     0
  0
GROUP
  5
6245
102
{ACAD_REACTORS
330
18
102
}
330
18
100
AcDbGroup
300

 70
     3
 71
     0
  0
GROUP
  5
48C6
102
{ACAD_REACTORS
330
18
102
}
330
18
100
AcDbGroup
300

 70
     3
 71
     1
  0
GROUP
  5
62D8
102
{ACAD_REACTORS
330
18
102
}
330
18
100
AcDbGroup
300

 70
     3
 71
     0
  0
GROUP
  5
37C1
102
{ACAD_REACTORS
330
18
102
}
330
18
100
AcDbGroup
300

 70
     3
 71
     0
  0
GROUP
  5
1BEF
102
{ACAD_REACTORS
330
18
102
}
330
18
100
AcDbGroup
300

 70
     3
 71
     0
  0
GROUP
  5
49F1
102
{ACAD_REACTORS
330
18
102
}
330
18
100
AcDbGroup
300

 70
     3
 71
     0
  0
GROUP
  5
37BC
102
{ACAD_REACTORS
330
18
102
}
330
18
100
AcDbGroup
300

 70
     3
 71
     0
  0
GROUP
  5
630A
102
{ACAD_REACTORS
330
18
102
}
330
18
100
AcDbGroup
300

 70
     3
 71
     0
  0
GROUP
  5
1B7B
102
{ACAD_REACTORS
330
18
102
}
330
18
100
AcDbGroup
300

 70
     3
 71
     0
  0
GROUP
  5
1457
102
{ACAD_REACTORS
330
18
102
}
330
18
100
AcDbGroup
300

 70
     3
 71
     0
  0
GROUP
  5
1B19
102
{ACAD_REACTORS
330
18
102
}
330
18
100
AcDbGroup
300

 70
     3
 71
     0
  0
GROUP
  5
6282
102
{ACAD_REACTORS
330
18
102
}
330
18
100
AcDbGroup
300

 70
     3
 71
     0
  0
GROUP
  5
4898
102
{ACAD_REACTORS
330
18
102
}
330
18
100
AcDbGroup
300

 70
     3
 71
     0
  0
GROUP
  5
6333
102
{ACAD_REACTORS
330
18
102
}
330
18
100
AcDbGroup
300

 70
     3
 71
     0
  0
GROUP
  5
1C28
102
{ACAD_REACTORS
330
18
102
}
330
18
100
AcDbGroup
300

 70
     3
 71
     0
  0
GROUP
  5
63BA
102
{ACAD_REACTORS
330
18
102
}
330
18
100
AcDbGroup
300

 70
     3
 71
     0
  0
GROUP
  5
6398
102
{ACAD_REACTORS
330
18
102
}
330
18
100
AcDbGroup
300

 70
     3
 71
     0
  0
GROUP
  5
63DD
102
{ACAD_REACTORS
330
18
102
}
330
18
100
AcDbGroup
300

 70
     3
 71
     0
  0
GROUP
  5
1B7F
102
{ACAD_REACTORS
330
18
102
}
330
18
100
AcDbGroup
300

 70
     3
 71
     0
  0
GROUP
  5
62E0
102
{ACAD_REACTORS
330
18
102
}
330
18
100
AcDbGroup
300

 70
     3
 71
     0
  0
GROUP
  5
6407
102
{ACAD_REACTORS
330
18
102
}
330
18
100
AcDbGroup
300

 70
     3
 71
     0
  0
GROUP
  5
498B
102
{ACAD_REACTORS
330
18
102
}
330
18
100
AcDbGroup
300

 70
     3
 71
     0
  0
GROUP
  5
1AE6
102
{ACAD_REACTORS
330
18
102
}
330
18
100
AcDbGroup
300

 70
     3
 71
     0
  0
GROUP
  5
1C0C
102
{ACAD_REACTORS
330
18
102
}
330
18
100
AcDbGroup
300

 70
     3
 71
     0
  0
GROUP
  5
1AEF
102
{ACAD_REACTORS
330
18
102
}
330
18
100
AcDbGroup
300

 70
     3
 71
     0
  0
GROUP
  5
4815
102
{ACAD_REACTORS
330
18
102
}
330
18
100
AcDbGroup
300

 70
     3
 71
     0
  0
GROUP
  5
62A8
102
{ACAD_REACTORS
330
18
102
}
330
18
100
AcDbGroup
300

 70
     3
 71
     0
  0
GROUP
  5
626D
102
{ACAD_REACTORS
330
18
102
}
330
18
100
AcDbGroup
300

 70
     3
 71
     0
  0
GROUP
  5
63DE
102
{ACAD_REACTORS
330
18
102
}
330
18
100
AcDbGroup
300

 70
     3
 71
     0
  0
GROUP
  5
62AC
102
{ACAD_REACTORS
330
18
102
}
330
18
100
AcDbGroup
300

 70
     3
 71
     0
  0
GROUP
  5
63E2
102
{ACAD_REACTORS
330
18
102
}
330
18
100
AcDbGroup
300

 70
     3
 71
     0
  0
GROUP
  5
496B
102
{ACAD_REACTORS
330
18
102
}
330
18
100
AcDbGroup
300

 70
     3
 71
     0
  0
GROUP
  5
487E
102
{ACAD_REACTORS
330
18
102
}
330
18
100
AcDbGroup
300

 70
     3
 71
     0
  0
GROUP
  5
1BA6
102
{ACAD_REACTORS
330
18
102
}
330
18
100
AcDbGroup
300

 70
     3
 71
     0
  0
GROUP
  5
482D
102
{ACAD_REACTORS
330
18
102
}
330
18
100
AcDbGroup
300

 70
     3
 71
     0
  0
GROUP
  5
4886
102
{ACAD_REACTORS
330
18
102
}
330
18
100
AcDbGroup
300

 70
     3
 71
     0
  0
GROUP
  5
1BC2
102
{ACAD_REACTORS
330
18
102
}
330
18
100
AcDbGroup
300

 70
     3
 71
     0
  0
GROUP
  5
487F
102
{ACAD_REACTORS
330
18
102
}
330
18
100
AcDbGroup
300

 70
     3
 71
     0
  0
GROUP
  5
4968
102
{ACAD_REACTORS
330
18
102
}
330
18
100
AcDbGroup
300

 70
     3
 71
     0
  0
GROUP
  5
49C3
102
{ACAD_REACTORS
330
18
102
}
330
18
100
AcDbGroup
300

 70
     3
 71
     0
  0
GROUP
  5
49EF
102
{ACAD_REACTORS
330
18
102
}
330
18
100
AcDbGroup
300

 70
     3
 71
     0
  0
GROUP
  5
6322
102
{ACAD_REACTORS
330
18
102
}
330
18
100
AcDbGroup
300

 70
     3
 71
     0
  0
GROUP
  5
4991
102
{ACAD_REACTORS
330
18
102
}
330
18
100
AcDbGroup
300

 70
     3
 71
     0
  0
GROUP
  5
48C8
102
{ACAD_REACTORS
330
18
102
}
330
18
100
AcDbGroup
300

 70
     3
 71
     0
  0
GROUP
  5
62B2
102
{ACAD_REACTORS
330
18
102
}
330
18
100
AcDbGroup
300

 70
     3
 71
     0
  0
GROUP
  5
62CA
102
{ACAD_REACTORS
330
18
102
}
330
18
100
AcDbGroup
300

 70
     3
 71
     0
  0
GROUP
  5
1B3E
102
{ACAD_REACTORS
330
18
102
}
330
18
100
AcDbGroup
300

 70
     3
 71
     0
  0
GROUP
  5
1C27
102
{ACAD_REACTORS
330
18
102
}
330
18
100
AcDbGroup
300

 70
     3
 71
     0
  0
GROUP
  5
486C
102
{ACAD_REACTORS
330
18
102
}
330
18
100
AcDbGroup
300

 70
     3
 71
     0
  0
GROUP
  5
1C56
102
{ACAD_REACTORS
330
18
102
}
330
18
100
AcDbGroup
300

 70
     3
 71
     0
  0
GROUP
  5
489E
102
{ACAD_REACTORS
330
18
102
}
330
18
100
AcDbGroup
300

 70
     3
 71
     0
  0
GROUP
  5
48BD
102
{ACAD_REACTORS
330
18
102
}
330
18
100
AcDbGroup
300

 70
     3
 71
     0
  0
GROUP
  5
1B22
102
{ACAD_REACTORS
330
18
102
}
330
18
100
AcDbGroup
300

 70
     3
 71
     0
  0
GROUP
  5
1AE0
102
{ACAD_REACTORS
330
18
102
}
330
18
100
AcDbGroup
300

 70
     3
 71
     0
  0
MLINESTYLE
  5
1D
102
{ACAD_REACTORS
330
19
102
}
330
19
100
AcDbMlineStyle
  2
STANDARD
 70
     0
  3

 62
     0
 51
90.0
 52
90.0
 71
     2
 49
0.5
 62
   256
  6
BYLAYER
 49
-0.5
 62
   256
  6
BYLAYER
  0
ACDBPLACEHOLDER
  5
EDC6
102
{ACAD_REACTORS
330
EDC5
102
}
330
EDC5
100
AcDbPlaceHolder
280
     0
  0
XRECORD
  5
F3F5
102
{ACAD_REACTORS
330
F3EB
102
}
330
F3EB
100
AcDbXrecord
 90
        0
  0
XRECORD
  5
F3F9
102
{ACAD_REACTORS
330
F3EB
102
}
330
F3EB
100
AcDbXrecord
1000
DSTYLE
1002
{
1070
    79
 70
     2
1070
   179
 70
     1
1002
}
  0
XRECORD
  5
F3F6
102
{ACAD_REACTORS
330
F3EB
102
}
330
F3EB
100
AcDbXrecord
  1
{5EB6113A-69ED-450E-876F-E97B1CCBD74B}
  0
XRECORD
  5
F3EE
102
{ACAD_REACTORS
330
F3EB
102
}
330
F3EB
100
AcDbXrecord
  1

  0
XRECORD
  5
F3F4
102
{ACAD_REACTORS
330
F3EB
102
}
330
F3EB
100
AcDbXrecord
 90
        0
  0
XRECORD
  5
F3F0
102
{ACAD_REACTORS
330
F3EB
102
}
330
F3EB
100
AcDbXrecord
340
EDC7
  0
XRECORD
  5
F3F3
102
{ACAD_REACTORS
330
F3EB
102
}
330
F3EB
100
AcDbXrecord
 90
    14877
  0
XRECORD
  5
F3F1
102
{ACAD_REACTORS
330
F3EB
102
}
330
F3EB
100
AcDbXrecord
340
EDC8
  0
XRECORD
  5
F3F2
102
{ACAD_REACTORS
330
F3EB
102
}
330
F3EB
100
AcDbXrecord
340
EDC5
  0
XRECORD
  5
F3F8
102
{ACAD_REACTORS
330
F3EB
102
}
330
F3EB
100
AcDbXrecord
 40
0.0
  0
XRECORD
  5
F3FC
102
{ACAD_REACTORS
330
F3EB
102
}
330
F3EB
100
AcDbXrecord
340
0
  0
XRECORD
  5
F402
102
{ACAD_REACTORS
330
F3EB
102
}
330
F3EB
100
AcDbXrecord
 10
0.0
 20
0.0
 30
0.0
  0
XRECORD
  5
F3FE
102
{ACAD_REACTORS
330
F3EB
102
}
330
F3EB
100
AcDbXrecord
 10
0.0
 20
0.0
 30
0.0
  0
XRECORD
  5
F401
102
{ACAD_REACTORS
330
F3EB
102
}
330
F3EB
100
AcDbXrecord
 10
0.0
 20
0.0
 30
0.0
  0
XRECORD
  5
F3FF
102
{ACAD_REACTORS
330
F3EB
102
}
330
F3EB
100
AcDbXrecord
 10
0.0
 20
0.0
 30
0.0
  0
XRECORD
  5
F400
102
{ACAD_REACTORS
330
F3EB
102
}
330
F3EB
100
AcDbXrecord
 10
0.0
 20
0.0
 30
0.0
  0
XRECORD
  5
F3FD
102
{ACAD_REACTORS
330
F3EB
102
}
330
F3EB
100
AcDbXrecord
 10
0.0
 20
0.0
 30
0.0
  0
XRECORD
  5
F3FA
102
{ACAD_REACTORS
330
F3EB
102
}
330
F3EB
100
AcDbXrecord
340
0
  0
XRECORD
  5
F3FB
102
{ACAD_REACTORS
330
F3EB
102
}
330
F3EB
100
AcDbXrecord
 70
     0
  0
XRECORD
  5
F3EF
102
{ACAD_REACTORS
330
F3EB
102
}
330
F3EB
100
AcDbXrecord
  1

  0
XRECORD
  5
F3EC
102
{ACAD_REACTORS
330
F3EB
102
}
330
F3EB
100
AcDbXrecord
 90
        1
  0
XRECORD
  5
F3ED
102
{ACAD_REACTORS
330
F3EB
102
}
330
F3EB
100
AcDbXrecord
 90
       70
  0
XRECORD
  5
F405
102
{ACAD_REACTORS
330
F3EB
102
}
330
F3EB
100
AcDbXrecord
340
0
  0
XRECORD
  5
F40B
102
{ACAD_REACTORS
330
F3EB
102
}
330
F3EB
100
AcDbXrecord
 10
0.0
 20
0.0
 30
0.0
  0
XRECORD
  5
F407
102
{ACAD_REACTORS
330
F3EB
102
}
330
F3EB
100
AcDbXrecord
 10
0.0
 20
0.0
 30
0.0
  0
XRECORD
  5
F40A
102
{ACAD_REACTORS
330
F3EB
102
}
330
F3EB
100
AcDbXrecord
 10
0.0
 20
0.0
 30
0.0
  0
XRECORD
  5
F408
102
{ACAD_REACTORS
330
F3EB
102
}
330
F3EB
100
AcDbXrecord
 10
0.0
 20
0.0
 30
0.0
  0
XRECORD
  5
F409
102
{ACAD_REACTORS
330
F3EB
102
}
330
F3EB
100
AcDbXrecord
 10
0.0
 20
0.0
 30
0.0
  0
XRECORD
  5
F406
102
{ACAD_REACTORS
330
F3EB
102
}
330
F3EB
100
AcDbXrecord
 10
0.0
 20
0.0
 30
0.0
  0
XRECORD
  5
F403
102
{ACAD_REACTORS
330
F3EB
102
}
330
F3EB
100
AcDbXrecord
340
0
  0
XRECORD
  5
F404
102
{ACAD_REACTORS
330
F3EB
102
}
330
F3EB
100
AcDbXrecord
 70
     0
  0
XRECORD
  5
F3F7
102
{ACAD_REACTORS
330
F3EB
102
}
330
F3EB
100
AcDbXrecord
  1
{BB21ED0F-0303-4F46-B4D2-0168F26F1BD3}
  0
DICTIONARYVAR
  5
F3E3
102
{ACAD_REACTORS
330
F3E2
102
}
330
F3E2
100
DictionaryVariables
280
     0
  1
1
  0
ENDSEC
  0
EOF
