  0
SECTION
  2
HEADER
  9
$ACADVER
  1
AC1014
  9
$ACADMAINTVER
 70
     9
  9
$DWGCODEPAGE
  3
ANSI_1252
  9
$INSBASE
 10
421.0218958999721
 20
357.7769748938917
 30
0.0
  9
$EXTMIN
 10
10046.68802891256
 20
-2228.727886542692
 30
0.0
  9
$EXTMAX
 10
11323.91284648502
 20
777.4306974109472
 30
0.0
  9
$LIMMIN
 10
9749.260046900117
 20
-1602.70564605534
  9
$LIMMAX
 10
11438.24325486453
 20
-732.5285748461251
  9
$ORTHOMODE
 70
     1
  9
$REGENMODE
 70
     1
  9
$FILLMODE
 70
     1
  9
$QTEXTMODE
 70
     0
  9
$MIRRTEXT
 70
     1
  9
$DRAGMODE
 70
     2
  9
$LTSCALE
 40
5.0
  9
$OSMODE
 70
     8
  9
$ATTMODE
 70
     1
  9
$TEXTSIZE
 40
40.0
  9
$TRACEWID
 40
1.0
  9
$TEXTSTYLE
  7
ROMANS8
  9
$CLAYER
  8
VLB
  9
$CELTYPE
  6
BYLAYER
  9
$CECOLOR
 62
   256
  9
$CELTSCALE
 40
1.0
  9
$DELOBJ
 70
     1
  9
$DISPSILH
 70
     0
  9
$DIMSCALE
 40
0.0
  9
$DIMASZ
 40
3.5
  9
$DIMEXO
 40
0.1
  9
$DIMDLI
 40
7.0
  9
$DIMRND
 40
0.0
  9
$DIMDLE
 40
0.0
  9
$DIMEXE
 40
1.8
  9
$DIMTP
 40
0.0
  9
$DIMTM
 40
0.0
  9
$DIMTXT
 40
3.5
  9
$DIMCEN
 40
0.0
  9
$DIMTSZ
 40
0.0
  9
$DIMTOL
 70
     0
  9
$DIMLIM
 70
     0
  9
$DIMTIH
 70
     0
  9
$DIMTOH
 70
     0
  9
$DIMSE1
 70
     0
  9
$DIMSE2
 70
     0
  9
$DIMTAD
 70
     1
  9
$DIMZIN
 70
     8
  9
$DIMBLK
  1

  9
$DIMASO
 70
     1
  9
$DIMSHO
 70
     0
  9
$DIMPOST
  1

  9
$DIMAPOST
  1

  9
$DIMALT
 70
     0
  9
$DIMALTD
 70
     2
  9
$DIMALTF
 40
25.4
  9
$DIMLFAC
 40
1.0
  9
$DIMTOFL
 70
     0
  9
$DIMTVP
 40
0.0
  9
$DIMTIX
 70
     0
  9
$DIMSOXD
 70
     0
  9
$DIMSAH
 70
     0
  9
$DIMBLK1
  1

  9
$DIMBLK2
  1

  9
$DIMSTYLE
  2
1_1
  9
$DIMCLRD
 70
   256
  9
$DIMCLRE
 70
   256
  9
$DIMCLRT
 70
   256
  9
$DIMTFAC
 40
1.0
  9
$DIMGAP
 40
1.7
  9
$DIMJUST
 70
     0
  9
$DIMSD1
 70
     0
  9
$DIMSD2
 70
     0
  9
$DIMTOLJ
 70
     1
  9
$DIMTZIN
 70
     8
  9
$DIMALTZ
 70
     0
  9
$DIMALTTZ
 70
     0
  9
$DIMFIT
 70
     3
  9
$DIMUPT
 70
     1
  9
$DIMUNIT
 70
     2
  9
$DIMDEC
 70
     4
  9
$DIMTDEC
 70
     4
  9
$DIMALTU
 70
     2
  9
$DIMALTTD
 70
     2
  9
$DIMTXSTY
  7
ROMANS
  9
$DIMAUNIT
 70
     0
  9
$LUNITS
 70
     2
  9
$LUPREC
 70
     2
  9
$SKETCHINC
 40
1.0
  9
$FILLETRAD
 40
0.0
  9
$AUNITS
 70
     0
  9
$AUPREC
 70
     2
  9
$MENU
  1
ACAD
  9
$ELEVATION
 40
0.0
  9
$PELEVATION
 40
0.0
  9
$THICKNESS
 40
0.0
  9
$LIMCHECK
 70
     0
  9
$BLIPMODE
 70
     0
  9
$CHAMFERA
 40
15.0
  9
$CHAMFERB
 40
15.0
  9
$CHAMFERC
 40
0.0
  9
$CHAMFERD
 40
0.0
  9
$SKPOLY
 70
     0
  9
$TDCREATE
 40
2453661.442292060
  9
$TDUPDATE
 40
2453679.606106667
  9
$TDINDWG
 40
0.0006626505
  9
$TDUSRTIMER
 40
0.0006617245
  9
$USRTIMER
 70
     1
  9
$ANGBASE
 50
0.0
  9
$ANGDIR
 70
     0
  9
$PDMODE
 70
     2
  9
$PDSIZE
 40
2.0
  9
$PLINEWID
 40
0.0
  9
$COORDS
 70
     0
  9
$SPLFRAME
 70
     0
  9
$SPLINETYPE
 70
     6
  9
$SPLINESEGS
 70
     8
  9
$ATTDIA
 70
     0
  9
$ATTREQ
 70
     1
  9
$HANDLING
 70
 22529
  9
$HANDSEED
  5
F504
  9
$SURFTAB1
 70
     6
  9
$SURFTAB2
 70
     6
  9
$SURFTYPE
 70
     6
  9
$SURFU
 70
     6
  9
$SURFV
 70
     6
  9
$UCSNAME
  2

  9
$UCSORG
 10
10154.57763192681
 20
-1347.460051185509
 30
0.0
  9
$UCSXDIR
 10
1.0
 20
0.0
 30
0.0
  9
$UCSYDIR
 10
0.0
 20
1.0
 30
0.0
  9
$PUCSNAME
  2

  9
$PUCSORG
 10
0.0
 20
0.0
 30
0.0
  9
$PUCSXDIR
 10
1.0
 20
0.0
 30
0.0
  9
$PUCSYDIR
 10
0.0
 20
1.0
 30
0.0
  9
$USERI1
 70
     0
  9
$USERI2
 70
     0
  9
$USERI3
 70
     0
  9
$USERI4
 70
     0
  9
$USERI5
 70
     0
  9
$USERR1
 40
0.0
  9
$USERR2
 40
0.0
  9
$USERR3
 40
0.0
  9
$USERR4
 40
0.0
  9
$USERR5
 40
0.0
  9
$WORLDVIEW
 70
     1
  9
$SHADEDGE
 70
     3
  9
$SHADEDIF
 70
    70
  9
$TILEMODE
 70
     1
  9
$MAXACTVP
 70
    16
  9
$PINSBASE
 10
0.0
 20
0.0
 30
0.0
  9
$PLIMCHECK
 70
     0
  9
$PEXTMIN
 10
-559.9955194189885
 20
-11.99914987354685
 30
0.0
  9
$PEXTMAX
 10
898.8167291158939
 20
692.004025362777
 30
5.0
  9
$PLIMMIN
 10
-581.4504078847034
 20
-42.42333302514301
  9
$PLIMMAX
 10
920.2716460794404
 20
1019.530090726515
  9
$UNITMODE
 70
     1
  9
$VISRETAIN
 70
     0
  9
$PLINEGEN
 70
     0
  9
$PSLTSCALE
 70
     0
  9
$TREEDEPTH
 70
  3020
  9
$PICKSTYLE
 70
     1
  9
$CMLSTYLE
  2
STANDARD
  9
$CMLJUST
 70
     0
  9
$CMLSCALE
 40
1.0
  9
$PROXYGRAPHICS
 70
     1
  9
$MEASUREMENT
 70
     1
  0
ENDSEC
  0
SECTION
  2
CLASSES
  0
CLASS
  1
IDBUFFER
  2
AcDbIdBuffer
  3
AutoCAD 2000
 90
        0
280
     0
281
     0
  0
CLASS
  1
LWPOLYLINE
  2
AcDbPolyline
  3
AutoCAD 2000
 90
        0
280
     0
281
     1
  0
CLASS
  1
DICTIONARYVAR
  2
AcDbDictionaryVar
  3
AutoCAD 2000
 90
        0
280
     0
281
     0
  0
CLASS
  1
HATCH
  2
AcDbHatch
  3
AutoCAD 2000
 90
        0
280
     0
281
     1
  0
CLASS
  1
ACDBDICTIONARYWDFLT
  2
AcDbDictionaryWithDefault
  3
AutoCAD 2000
 90
        0
280
     0
281
     0
  0
CLASS
  1
ACDBPLACEHOLDER
  2
AcDbPlaceHolder
  3
AutoCAD 2000
 90
        0
280
     0
281
     0
  0
CLASS
  1
LAYOUT
  2
AcDbLayout
  3
AutoCAD 2000
 90
        0
280
     0
281
     0
  0
CLASS
  1
LONG_TRANSACTION
  2
AcDbLongTransaction
  3
AutoCAD 2000
 90
        0
280
     0
281
     0
  0
CLASS
  1
LWPOLYLINE
  2
AcDbPolyline
  3
AutoCAD 2000
 90
        0
280
     0
281
     1
  0
CLASS
  1
HATCH
  2
AcDbHatch
  3
AutoCAD 2000
 90
        0
280
     0
281
     1
  0
CLASS
  1
XRECORD
  2
AcDbXrecord
  3
AutoCAD 2000
 90
        0
280
     0
281
     0
  0
ENDSEC
  0
SECTION
  2
TABLES
  0
TABLE
  2
VPORT
  5
12
330
0
100
AcDbSymbolTable
 70
     2
  0
VPORT
  5
F4DE
330
12
100
AcDbSymbolTableRecord
100
AcDbViewportTableRecord
  2
*ACTIVE
 70
     0
 10
0.0
 20
0.0
 11
1.0
 21
1.0
 12
10844.43439678948
 22
-656.2341770041675
 13
0.0
 23
0.0
 14
1.0
 24
1.0
 15
10.0
 25
10.0
 16
0.0
 26
0.0
 36
1.0
 17
0.0
 27
0.0
 37
0.0
 40
4246.625255478375
 41
1.751219512195121
 42
50.0
 43
0.0
 44
0.0
 50
0.0
 51
0.0
 71
     0
 72
     0
 73
     1
 74
     1
 75
     0
 76
     0
 77
     0
 78
     0
  0
ENDTAB
  0
TABLE
  2
LTYPE
  5
D
330
0
100
AcDbSymbolTable
 70
     3
  0
LTYPE
  5
E
330
D
100
AcDbSymbolTableRecord
100
AcDbLinetypeTableRecord
  2
BYBLOCK
 70
     0
  3

 72
    65
 73
     0
 40
0.0
  0
LTYPE
  5
F
330
D
100
AcDbSymbolTableRecord
100
AcDbLinetypeTableRecord
  2
BYLAYER
 70
     0
  3

 72
    65
 73
     0
 40
0.0
  0
LTYPE
  5
5
330
D
100
AcDbSymbolTableRecord
100
AcDbLinetypeTableRecord
  2
AUSGEZOGEN
 70
     0
  3
Ausgezogene Linie
 72
    65
 73
     0
 40
0.0
  0
LTYPE
  5
21
330
D
100
AcDbSymbolTableRecord
100
AcDbLinetypeTableRecord
  2
MLA3
 70
     0
  3
------ - -------
 72
    65
 73
     4
 40
15.0
 49
10.0
 74
     0
 49
-2.0
 74
     0
 49
1.0
 74
     0
 49
-2.0
 74
     0
  0
LTYPE
  5
540
330
D
100
AcDbSymbolTableRecord
100
AcDbLinetypeTableRecord
  2
CONTINUOUS
 70
     0
  3
Solid line
 72
    65
 73
     0
 40
0.0
  0
ENDTAB
  0
TABLE
  2
LAYER
  5
A
330
0
100
AcDbSymbolTable
 70
     5
  0
LAYER
  5
4
330
A
100
AcDbSymbolTableRecord
100
AcDbLayerTableRecord
  2
0
 70
     0
 62
     7
  6
AUSGEZOGEN
  0
LAYER
  5
1B
330
A
100
AcDbSymbolTableRecord
100
AcDbLayerTableRecord
  2
VLB
 70
     0
 62
     7
  6
AUSGEZOGEN
  0
LAYER
  5
20
330
A
100
AcDbSymbolTableRecord
100
AcDbLayerTableRecord
  2
SPS
 70
     0
 62
     1
  6
MLA3
  0
LAYER
  5
5B
330
A
100
AcDbSymbolTableRecord
100
AcDbLayerTableRecord
  2
VLS
 70
     0
 62
   252
  6
AUSGEZOGEN
  0
LAYER
  5
541
330
A
100
AcDbSymbolTableRecord
100
AcDbLayerTableRecord
  2
TSK
 70
     0
 62
   150
  6
AUSGEZOGEN
  0
ENDTAB
  0
TABLE
  2
STYLE
  5
B
330
0
100
AcDbSymbolTable
 70
     3
  0
STYLE
  5
C
330
B
100
AcDbSymbolTableRecord
100
AcDbTextStyleTableRecord
  2
STANDARD
 70
     0
 40
0.0
 41
1.0
 50
0.0
 71
     0
 42
3.0
  3
txt
  4

  0
STYLE
  5
1C
330
B
100
AcDbSymbolTableRecord
100
AcDbTextStyleTableRecord
  2
ROMANS
 70
     0
 40
0.0
 41
1.0
 50
0.0
 71
     0
 42
3.5
  3
romans.shx
  4

  0
STYLE
  5
1451
330
B
100
AcDbSymbolTableRecord
100
AcDbTextStyleTableRecord
  2
ROMANS8
 70
     0
 40
0.0
 41
1.0
 50
0.0
 71
     0
 42
40.0
  3
simplex.shx
  4

  0
ENDTAB
  0
TABLE
  2
VIEW
  5
10
330
0
100
AcDbSymbolTable
 70
     0
  0
ENDTAB
  0
TABLE
  2
UCS
  5
11
330
0
100
AcDbSymbolTable
 70
     0
  0
ENDTAB
  0
TABLE
  2
APPID
  5
14
330
0
100
AcDbSymbolTable
 70
     6
  0
APPID
  5
15
330
14
100
AcDbSymbolTableRecord
100
AcDbRegAppTableRecord
  2
ACAD
 70
     0
  0
APPID
  5
81B
330
14
100
AcDbSymbolTableRecord
100
AcDbRegAppTableRecord
  2
CONTENTTABDATA
 70
     0
  0
APPID
  5
81C
330
14
100
AcDbSymbolTableRecord
100
AcDbRegAppTableRecord
  2
CONTENTCURRENTTAB
 70
     0
  0
APPID
  5
9B6
330
14
100
AcDbSymbolTableRecord
100
AcDbRegAppTableRecord
  2
CONTENTBLOCKDESCRIPTION
 70
     0
  0
APPID
  5
B5D
330
14
100
AcDbSymbolTableRecord
100
AcDbRegAppTableRecord
  2
CONTENTBLOCKICON
 70
     0
  0
APPID
  5
1453
330
14
100
AcDbSymbolTableRecord
100
AcDbRegAppTableRecord
  2
AVE_RENDER
 70
     0
  0
ENDTAB
  0
TABLE
  2
DIMSTYLE
  5
16
330
0
100
AcDbSymbolTable
 70
     1
  0
DIMSTYLE
105
1AC9
330
16
100
AcDbSymbolTableRecord
100
AcDbDimStyleTableRecord
  2
1_1
 70
     0
  3

  4

  5

  6

  7

 40
0.0
 41
3.5
 42
0.1
 43
7.0
 44
1.8
 45
0.0
 46
0.0
 47
0.0
 48
0.0
140
3.5
141
0.0
142
0.0
143
25.4
144
1.0
145
0.0
146
1.0
147
1.7
 71
     0
 72
     0
 73
     0
 74
     0
 75
     0
 76
     0
 77
     1
 78
     8
170
     0
171
     2
172
     0
173
     0
174
     0
175
     0
176
   256
177
   256
178
   256
270
     2
271
     4
272
     4
273
     2
274
     2
340
1C
275
     0
280
     0
281
     0
282
     0
283
     1
284
     8
285
     0
286
     0
287
     3
288
     1
  0
ENDTAB
  0
TABLE
  2
BLOCK_RECORD
  5
1
330
0
100
AcDbSymbolTable
 70
     1
  0
BLOCK_RECORD
  5
2
102
{ACAD_XDICTIONARY
360
F500
102
}
330
1
100
AcDbSymbolTableRecord
100
AcDbBlockTableRecord
  2
*MODEL_SPACE
  0
BLOCK_RECORD
  5
7
102
{ACAD_XDICTIONARY
360
F502
102
}
330
1
100
AcDbSymbolTableRecord
100
AcDbBlockTableRecord
  2
*PAPER_SPACE
  0
ENDTAB
  0
ENDSEC
  0
SECTION
  2
BLOCKS
  0
BLOCK
  5
3
330
2
100
AcDbEntity
  8
0
100
AcDbBlockBegin
  2
*MODEL_SPACE
 70
     2
 10
0.0
 20
0.0
 30
0.0
  3
*MODEL_SPACE
  1

  0
ENDBLK
  5
6
330
2
100
AcDbEntity
  8
0
100
AcDbBlockEnd
  0
BLOCK
  5
8
330
7
100
AcDbEntity
 67
     1
  8
0
100
AcDbBlockBegin
  2
*PAPER_SPACE
 70
     2
 10
0.0
 20
0.0
 30
0.0
  3
*PAPER_SPACE
  1

  0
ENDBLK
  5
9
330
7
100
AcDbEntity
 67
     1
  8
0
100
AcDbBlockEnd
  0
ENDSEC
  0
SECTION
  2
ENTITIES
  0
LINE
  5
F160
330
2
100
AcDbEntity
  8
VLB
100
AcDbLine
 10
10395.91284648501
 20
-807.0834451228302
 30
0.0
 11
11265.91284648501
 21
-807.0834451228302
 31
0.0
  0
LINE
  5
F161
330
2
100
AcDbEntity
  8
SPS
100
AcDbLine
 10
10830.91284648501
 20
-1735.727886542691
 30
0.0
 11
10337.91284648501
 21
-1735.727886542691
 31
0.0
  0
LINE
  5
F162
330
2
100
AcDbEntity
  8
VLB
100
AcDbLine
 10
10343.91284648501
 20
-1248.727886542686
 30
0.0
 11
11317.91284648502
 21
-2222.727886542693
 31
0.0
  0
LINE
  5
F163
330
2
100
AcDbEntity
  8
VLB
100
AcDbLine
 10
10343.91284648501
 20
-2222.727886542693
 30
0.0
 11
11317.91284648502
 21
-1248.727886542686
 31
0.0
  0
LINE
  5
F164
330
2
100
AcDbEntity
  8
VLB
100
AcDbLine
 10
11317.91284648502
 20
-1248.727886542686
 30
0.0
 11
10343.91284648501
 21
-1248.727886542686
 31
0.0
  0
LINE
  5
F165
330
2
100
AcDbEntity
  8
VLB
100
AcDbLine
 10
10343.91284648501
 20
-2222.727886542693
 30
0.0
 11
11317.91284648502
 21
-2222.727886542693
 31
0.0
  0
LINE
  5
F166
330
2
100
AcDbEntity
  8
VLB
100
AcDbLine
 10
10344.91284648502
 20
5.156565836466143
 30
0.0
 11
11316.91284648502
 21
5.156565836466143
 31
0.0
  0
LINE
  5
F167
330
2
100
AcDbEntity
  8
VLB
100
AcDbLine
 10
10344.04682108124
 20
6.656565836465233
 30
0.0
 11
10545.25338989383
 21
355.156565836467
 31
0.0
  0
TEXT
  5
F168
330
2
100
AcDbEntity
  8
TSK
100
AcDbText
 10
10086.68802891257
 20
-712.7464171301912
 30
0.0
 40
40.0
  1
Baugr. 3535 , 3540 & 3545  RFM 31
 50
90.0
  7
ROMANS8
100
AcDbText
  0
LINE
  5
F169
330
2
100
AcDbEntity
  8
VLB
100
AcDbLine
 10
10343.91284648501
 20
-1248.727886542686
 30
0.0
 11
10343.91284648501
 21
-2222.727886542693
 31
0.0
  0
LINE
  5
F16A
330
2
100
AcDbEntity
  8
SPS
100
AcDbLine
 10
10362.35204559974
 20
-2200.446119088382
 30
0.0
 11
10348.69175184371
 21
-2200.446119088382
 31
0.0
  0
LINE
  5
F16B
330
2
100
AcDbEntity
  8
SPS
100
AcDbLine
 10
10355.52189872172
 20
-2208.446119088382
 30
0.0
 11
10355.52189872172
 21
-2192.446119088382
 31
0.0
  0
LINE
  5
F16C
330
2
100
AcDbEntity
  8
VLB
100
AcDbLine
 10
10354.52189872175
 20
-2205.446119088382
 30
0.0
 11
10355.52189872172
 21
-2205.446119088382
 31
0.0
  0
LINE
  5
F16D
330
2
100
AcDbEntity
  8
VLB
100
AcDbLine
 10
10355.52189872172
 20
-2195.446119088382
 30
0.0
 11
10354.52189872175
 21
-2195.446119088382
 31
0.0
  0
ELLIPSE
  5
F16E
330
2
100
AcDbEntity
  8
VLB
100
AcDbEllipse
 10
10355.52189872172
 20
-2200.446119088382
 30
0.0
 11
0.0000000000000084
 21
5.0
 31
0.0
210
0.0
220
0.0
230
1.0
 40
0.7660254037896266
 41
3.141592653589793
 42
6.283185307179586
  0
ELLIPSE
  5
F16F
330
2
100
AcDbEntity
  8
VLB
100
AcDbEllipse
 10
10354.02189872175
 20
-2200.446119088382
 30
0.0
 11
-0.0000000000000025
 21
-1.5
 31
0.0
210
0.0
220
0.0
230
1.0
 40
0.837082593832747
 41
0.0
 42
6.283185307179586
  0
HATCH
  5
F170
330
2
100
AcDbEntity
  8
VLB
100
AcDbHatch
 10
0.0
 20
0.0
 30
0.0
210
0.0
220
0.0
230
1.0
  2
SOLID
 70
     1
 71
     0
 91
        2
 92
        5
 93
        2
 72
     3
 10
10354.02189872175
 20
-2200.446119088382
 11
-0.0000000000000025
 21
-1.5
 40
0.837082593832747
 50
90.0
 51
270.0
 73
     1
 72
     1
 10
10352.766274831
 20
-2200.446119088382
 11
10355.2775226125
 21
-2200.446119088382
 97
        0
 92
        5
 93
        2
 72
     3
 10
10354.02189872175
 20
-2200.446119088382
 11
-0.0000000000000025
 21
-1.5
 40
0.837082593832747
 50
270.0
 51
450.0
 73
     1
 72
     1
 10
10355.2775226125
 20
-2200.446119088382
 11
10352.766274831
 21
-2200.446119088382
 97
        0
 75
     0
 76
     1
 47
0.0516579537025894
 98
        2
 10
10354.263848647
 20
-2199.614913999624
 10
10354.31550665262
 20
-2200.907428284363
  0
ELLIPSE
  5
F171
330
2
100
AcDbEntity
  8
VLB
100
AcDbEllipse
 10
10354.52189872175
 20
-2200.446119088382
 30
0.0
 11
-0.0000000000000084
 21
-5.0
 31
0.0
210
0.0
220
0.0
230
1.0
 40
0.8660254037843287
 41
0.0
 42
6.283185307179586
  0
LINE
  5
F172
330
2
100
AcDbEntity
  8
VLB
100
AcDbLine
 10
10392.45925529932
 20
-1927.454383850793
 30
0.0
 11
10388.68196776992
 21
-1927.454383850793
 31
0.0
  0
LINE
  5
F173
330
2
100
AcDbEntity
  8
VLB
100
AcDbLine
 10
10392.67520454552
 20
-1927.727886542689
 30
0.0
 11
10393.50551513976
 21
-1927.727886542689
 31
0.0
  0
LINE
  5
F174
330
2
100
AcDbEntity
  8
VLB
100
AcDbLine
 10
10388.68196776992
 20
-1927.454383850793
 30
0.0
 11
10387.89708661544
 21
-1928.343992144108
 31
0.0
  0
LINE
  5
F175
330
2
100
AcDbEntity
  8
VLB
100
AcDbLine
 10
10392.45925529932
 20
-1939.001389234589
 30
0.0
 11
10394.73854466497
 21
-1936.114637888641
 31
0.0
  0
LINE
  5
F176
330
2
100
AcDbEntity
  8
SPS
100
AcDbLine
 10
10379.38173112218
 20
-1933.227886542689
 30
0.0
 11
10400.78089668618
 21
-1933.227886542689
 31
0.0
  0
LINE
  5
F177
330
2
100
AcDbEntity
  8
VLB
100
AcDbLine
 10
10394.73854466497
 20
-1936.114637888637
 30
0.0
 11
10390.96125713557
 21
-1936.114637888637
 31
0.0
  0
LINE
  5
F178
330
2
100
AcDbEntity
  8
VLB
100
AcDbLine
 10
10394.73854466497
 20
-1930.341135196741
 30
0.0
 11
10390.96125713557
 21
-1930.341135196741
 31
0.0
  0
LINE
  5
F179
330
2
100
AcDbEntity
  8
VLB
100
AcDbLine
 10
10394.73854466497
 20
-1930.341135196741
 30
0.0
 11
10394.73854466497
 21
-1936.114637888637
 31
0.0
  0
ARC
  5
F17A
330
2
100
AcDbEntity
  8
VLB
100
AcDbCircle
 10
10403.00130861738
 20
-1933.227886542686
 30
0.0
 40
12.3812831733212
100
AcDbArc
 50
166.5171407809421
 51
193.4828592190452
  0
LINE
  5
F17B
330
2
100
AcDbEntity
  8
VLB
100
AcDbLine
 10
10386.13505274436
 20
-1936.114637888637
 30
0.0
 11
10386.13505274436
 21
-1930.341135196741
 31
0.0
  0
ARC
  5
F17C
330
2
100
AcDbEntity
  8
VLB
100
AcDbCircle
 10
10394.89843639203
 20
-1941.566516348773
 30
0.0
 40
6.724905890916827
100
AcDbArc
 50
125.8356601628762
 51
157.5772853193951
  0
LINE
  5
F17D
330
2
100
AcDbEntity
  8
VLB
100
AcDbLine
 10
10388.68196776992
 20
-1939.001389234589
 30
0.0
 11
10387.89708661544
 21
-1938.11178094127
 31
0.0
  0
LINE
  5
F17E
330
2
100
AcDbEntity
  8
VLB
100
AcDbLine
 10
10392.45925529932
 20
-1939.001389234589
 30
0.0
 11
10388.68196776992
 21
-1939.001389234589
 31
0.0
  0
LINE
  5
F17F
330
2
100
AcDbEntity
  8
VLB
100
AcDbLine
 10
10393.50551513976
 20
-1938.727886542689
 30
0.0
 11
10392.67520454552
 21
-1938.727886542689
 31
0.0
  0
LINE
  5
F180
330
2
100
AcDbEntity
  8
VLB
100
AcDbLine
 10
10386.89101814806
 20
-1936.971472186097
 30
0.0
 11
10386.13505274436
 21
-1936.114637888637
 31
0.0
  0
LINE
  5
F181
330
2
100
AcDbEntity
  8
VLB
100
AcDbLine
 10
10386.89101814806
 20
-1929.484300899283
 30
0.0
 11
10386.13505274436
 21
-1930.341135196741
 31
0.0
  0
ELLIPSE
  5
F182
330
2
100
AcDbEntity
  8
VLB
100
AcDbEllipse
 10
10393.50551513976
 20
-1933.227886542689
 30
0.0
 11
0.0000000000000027
 21
5.5
 31
0.0
210
0.0
220
0.0
230
1.0
 40
0.5018190223973679
 41
3.141592653589793
 42
6.283185307179586
  0
ELLIPSE
  5
F183
330
2
100
AcDbEntity
  8
VLB
100
AcDbEllipse
 10
10392.53446917177
 20
-1933.227886542689
 30
0.0
 11
0.0000000000000027
 21
5.5
 31
0.0
210
0.0
220
0.0
230
1.0
 40
0.4708029923769408
 41
3.198708688530862
 42
6.226069272239205
  0
LINE
  5
F184
330
2
100
AcDbEntity
  8
VLB
100
AcDbLine
 10
10392.45925529932
 20
-1927.454383850793
 30
0.0
 11
10394.73854466497
 21
-1930.341135196743
 31
0.0
  0
ELLIPSE
  5
F185
330
2
100
AcDbEntity
  8
VLB
100
AcDbEllipse
 10
10388.37753909421
 20
-1933.227886542689
 30
0.0
 11
0.0000000000000024
 21
4.999999999999545
 31
0.0
210
0.0
220
0.0
230
1.0
 40
0.4484972699691251
 41
0.0
 42
6.283185307179586
  0
LINE
  5
F186
330
2
100
AcDbEntity
  8
SPS
100
AcDbLine
 10
10393.50551513976
 20
-1941.777360027926
 30
0.0
 11
10393.50551513976
 21
-1924.67788654269
 31
0.0
  0
ARC
  5
F187
330
2
100
AcDbEntity
  8
VLB
100
AcDbCircle
 10
10394.89843639203
 20
-1924.889256736603
 30
0.0
 40
6.724905890916827
100
AcDbArc
 50
202.4227146806048
 51
234.1643398371238
  0
LINE
  5
F188
330
2
100
AcDbEntity
  8
VLB
100
AcDbLine
 10
10392.45925529932
 20
-1532.454383850793
 30
0.0
 11
10388.68196776992
 21
-1532.454383850793
 31
0.0
  0
LINE
  5
F189
330
2
100
AcDbEntity
  8
VLB
100
AcDbLine
 10
10392.67520454552
 20
-1532.727886542689
 30
0.0
 11
10393.50551513976
 21
-1532.727886542689
 31
0.0
  0
LINE
  5
F18A
330
2
100
AcDbEntity
  8
VLB
100
AcDbLine
 10
10388.68196776992
 20
-1532.454383850793
 30
0.0
 11
10387.89708661544
 21
-1533.343992144108
 31
0.0
  0
LINE
  5
F18B
330
2
100
AcDbEntity
  8
VLB
100
AcDbLine
 10
10392.45925529932
 20
-1544.001389234589
 30
0.0
 11
10394.73854466497
 21
-1541.114637888641
 31
0.0
  0
LINE
  5
F18C
330
2
100
AcDbEntity
  8
SPS
100
AcDbLine
 10
10379.38173112218
 20
-1538.227886542689
 30
0.0
 11
10400.78089668618
 21
-1538.227886542689
 31
0.0
  0
LINE
  5
F18D
330
2
100
AcDbEntity
  8
VLB
100
AcDbLine
 10
10394.73854466497
 20
-1541.114637888638
 30
0.0
 11
10390.96125713557
 21
-1541.114637888638
 31
0.0
  0
LINE
  5
F18E
330
2
100
AcDbEntity
  8
VLB
100
AcDbLine
 10
10394.73854466497
 20
-1535.341135196741
 30
0.0
 11
10390.96125713557
 21
-1535.341135196741
 31
0.0
  0
LINE
  5
F18F
330
2
100
AcDbEntity
  8
VLB
100
AcDbLine
 10
10394.73854466497
 20
-1535.341135196741
 30
0.0
 11
10394.73854466497
 21
-1541.114637888638
 31
0.0
  0
ARC
  5
F190
330
2
100
AcDbEntity
  8
VLB
100
AcDbCircle
 10
10403.00130861738
 20
-1538.227886542687
 30
0.0
 40
12.3812831733212
100
AcDbArc
 50
166.5171407809421
 51
193.4828592190452
  0
LINE
  5
F191
330
2
100
AcDbEntity
  8
VLB
100
AcDbLine
 10
10386.13505274436
 20
-1541.114637888638
 30
0.0
 11
10386.13505274436
 21
-1535.341135196741
 31
0.0
  0
ARC
  5
F192
330
2
100
AcDbEntity
  8
VLB
100
AcDbCircle
 10
10394.89843639203
 20
-1546.566516348773
 30
0.0
 40
6.724905890916827
100
AcDbArc
 50
125.8356601628762
 51
157.5772853193951
  0
LINE
  5
F193
330
2
100
AcDbEntity
  8
VLB
100
AcDbLine
 10
10388.68196776992
 20
-1544.001389234589
 30
0.0
 11
10387.89708661544
 21
-1543.11178094127
 31
0.0
  0
LINE
  5
F194
330
2
100
AcDbEntity
  8
VLB
100
AcDbLine
 10
10392.45925529932
 20
-1544.001389234589
 30
0.0
 11
10388.68196776992
 21
-1544.001389234589
 31
0.0
  0
LINE
  5
F195
330
2
100
AcDbEntity
  8
VLB
100
AcDbLine
 10
10393.50551513976
 20
-1543.727886542689
 30
0.0
 11
10392.67520454552
 21
-1543.727886542689
 31
0.0
  0
LINE
  5
F196
330
2
100
AcDbEntity
  8
VLB
100
AcDbLine
 10
10386.89101814806
 20
-1541.971472186097
 30
0.0
 11
10386.13505274436
 21
-1541.114637888638
 31
0.0
  0
LINE
  5
F197
330
2
100
AcDbEntity
  8
VLB
100
AcDbLine
 10
10386.89101814806
 20
-1534.484300899284
 30
0.0
 11
10386.13505274436
 21
-1535.341135196741
 31
0.0
  0
ELLIPSE
  5
F198
330
2
100
AcDbEntity
  8
VLB
100
AcDbEllipse
 10
10393.50551513976
 20
-1538.227886542689
 30
0.0
 11
0.0000000000000027
 21
5.5
 31
0.0
210
0.0
220
0.0
230
1.0
 40
0.5018190223973679
 41
3.141592653589793
 42
6.283185307179586
  0
ELLIPSE
  5
F199
330
2
100
AcDbEntity
  8
VLB
100
AcDbEllipse
 10
10392.53446917177
 20
-1538.227886542689
 30
0.0
 11
0.0000000000000027
 21
5.5
 31
0.0
210
0.0
220
0.0
230
1.0
 40
0.4708029923769408
 41
3.198708688530862
 42
6.226069272239205
  0
LINE
  5
F19A
330
2
100
AcDbEntity
  8
VLB
100
AcDbLine
 10
10392.45925529932
 20
-1532.454383850793
 30
0.0
 11
10394.73854466497
 21
-1535.341135196743
 31
0.0
  0
ELLIPSE
  5
F19B
330
2
100
AcDbEntity
  8
VLB
100
AcDbEllipse
 10
10388.37753909421
 20
-1538.227886542689
 30
0.0
 11
0.0000000000000024
 21
4.999999999999545
 31
0.0
210
0.0
220
0.0
230
1.0
 40
0.4484972699691251
 41
0.0
 42
6.283185307179586
  0
LINE
  5
F19C
330
2
100
AcDbEntity
  8
SPS
100
AcDbLine
 10
10393.50551513976
 20
-1546.777360027926
 30
0.0
 11
10393.50551513976
 21
-1529.67788654269
 31
0.0
  0
ARC
  5
F19D
330
2
100
AcDbEntity
  8
VLB
100
AcDbCircle
 10
10394.89843639203
 20
-1529.889256736604
 30
0.0
 40
6.724905890916827
100
AcDbArc
 50
202.4227146806048
 51
234.1643398371238
  0
LINE
  5
F19E
330
2
100
AcDbEntity
  8
SPS
100
AcDbLine
 10
10358.19461393932
 20
-1260.336938779397
 30
0.0
 11
10374.19461393932
 21
-1260.336938779397
 31
0.0
  0
LINE
  5
F19F
330
2
100
AcDbEntity
  8
VLB
100
AcDbLine
 10
10361.19461393932
 20
-1259.336938779426
 30
0.0
 11
10361.19461393932
 21
-1260.336938779397
 31
0.0
  0
LINE
  5
F1A0
330
2
100
AcDbEntity
  8
VLB
100
AcDbLine
 10
10371.19461393932
 20
-1260.336938779397
 30
0.0
 11
10371.19461393932
 21
-1259.336938779426
 31
0.0
  0
ELLIPSE
  5
F1A1
330
2
100
AcDbEntity
  8
VLB
100
AcDbEllipse
 10
10366.19461393932
 20
-1259.336938779426
 30
0.0
 11
-5.0
 21
0.0000000000000059
 31
0.0
210
0.0
220
0.0
230
1.0
 40
0.8660254037843287
 41
0.0
 42
6.283185307179586
  0
ELLIPSE
  5
F1A2
330
2
100
AcDbEntity
  8
VLB
100
AcDbEllipse
 10
10366.19461393932
 20
-1260.336938779397
 30
0.0
 11
5.0
 21
-0.0000000000000059
 31
0.0
210
0.0
220
0.0
230
1.0
 40
0.7660254037896266
 41
3.141592653589793
 42
6.283185307179586
  0
ELLIPSE
  5
F1A3
330
2
100
AcDbEntity
  8
VLB
100
AcDbEllipse
 10
10366.19461393932
 20
-1258.836938779428
 30
0.0
 11
-1.5
 21
0.0000000000000018
 31
0.0
210
0.0
220
0.0
230
1.0
 40
0.837082593832747
 41
0.0
 42
6.283185307179586
  0
HATCH
  5
F1A4
330
2
100
AcDbEntity
  8
VLB
100
AcDbHatch
 10
0.0
 20
0.0
 30
0.0
210
0.0
220
0.0
230
1.0
  2
SOLID
 70
     1
 71
     0
 91
        2
 92
        5
 93
        2
 72
     3
 10
10366.19461393932
 20
-1258.836938779428
 11
-1.5
 21
0.0000000000000018
 40
0.837082593832747
 50
90.0
 51
270.0
 73
     1
 72
     1
 10
10366.19461393932
 20
-1257.581314888679
 11
10366.19461393932
 21
-1260.092562670177
 97
        0
 92
        5
 93
        2
 72
     3
 10
10366.19461393932
 20
-1258.836938779428
 11
-1.5
 21
0.0000000000000018
 40
0.837082593832747
 50
270.0
 51
450.0
 73
     1
 72
     1
 10
10366.19461393932
 20
-1260.092562670177
 11
10366.19461393932
 21
-1257.581314888679
 97
        0
 75
     0
 76
     1
 47
0.0516579537025894
 98
        2
 10
10367.02581902808
 20
-1259.078888704674
 10
10365.73330474334
 20
-1259.130546710301
  0
LINE
  5
F1A5
330
2
100
AcDbEntity
  8
SPS
100
AcDbLine
 10
10366.19461393932
 20
-1267.167085657412
 30
0.0
 11
10366.19461393932
 21
-1253.506791901383
 31
0.0
  0
LINE
  5
F1A6
330
2
100
AcDbEntity
  8
SPS
100
AcDbLine
 10
10360.71805114444
 20
23.53198333061118
 30
0.0
 11
10351.19177170281
 21
29.03198333060936
 31
0.0
  0
LINE
  5
F1A7
330
2
100
AcDbEntity
  8
VLB
100
AcDbLine
 10
10352.15587331795
 20
22.70185631167919
 30
0.0
 11
10357.15587331795
 21
31.36211034952975
 31
0.0
  0
ARC
  5
F1A8
330
2
100
AcDbEntity
  8
VLB
100
AcDbCircle
 10
10344.91284648502
 20
6.156565836466143
 30
0.0
 40
1.0
100
AcDbArc
 50
150.0000000000122
 51
270.0
  0
ARC
  5
F1A9
330
2
100
AcDbEntity
  8
VLB
100
AcDbCircle
 10
10365.04817816337
 20
21.03198333060936
 30
0.0
 40
12.99999999999925
100
AcDbArc
 50
127.3801350518994
 51
172.619864948082
  0
LINE
  5
F1AA
330
2
100
AcDbEntity
  8
VLB
100
AcDbLine
 10
10357.15587331795
 20
31.36211034952975
 30
0.0
 11
10358.02189872173
 21
30.86211034953339
 31
0.0
  0
LINE
  5
F1AB
330
2
100
AcDbEntity
  8
VLB
100
AcDbLine
 10
10353.02189872173
 20
22.20185631168897
 30
0.0
 11
10358.02189872173
 21
30.86211034953339
 31
0.0
  0
LINE
  5
F1AC
330
2
100
AcDbEntity
  8
VLB
100
AcDbLine
 10
10352.15587331795
 20
22.70185631168533
 30
0.0
 11
10353.02189872173
 21
22.20185631168897
 31
0.0
  0
LINE
  5
F1AD
330
2
100
AcDbEntity
  8
VLB
100
AcDbLine
 10
10395.29446862829
 20
97.66273000964838
 30
0.0
 11
10396.26551976295
 21
97.10210530772428
 31
0.0
  0
LINE
  5
F1AE
330
2
100
AcDbEntity
  8
VLB
100
AcDbLine
 10
10395.12388562984
 20
97.36726539348138
 30
0.0
 11
10391.31386442755
 21
99.56695344185618
 31
0.0
  0
ARC
  5
F1AF
330
2
100
AcDbEntity
  8
VLB
100
AcDbCircle
 10
10392.28135936359
 20
97.50505316882708
 30
0.0
 40
2.269403731244178
100
AcDbArc
 50
120.0005202688572
 51
184.5656133633799
  0
LINE
  5
F1B0
330
2
100
AcDbEntity
  8
VLB
100
AcDbLine
 10
10390.62002544406
 20
99.16635691746387
 30
0.0
 11
10391.31386442755
 21
99.56695344185618
 31
0.0
  0
LINE
  5
F1B1
330
2
100
AcDbEntity
  8
VLB
100
AcDbLine
 10
10391.23976284809
 20
90.63962631280492
 30
0.0
 11
10387.42974164579
 21
92.8393143611761
 31
0.0
  0
LINE
  5
F1B2
330
2
100
AcDbEntity
  8
VLB
100
AcDbLine
 10
10386.13502677683
 20
91.39794844898688
 30
0.0
 11
10386.13503405188
 21
90.59676800095303
 31
0.0
  0
ARC
  5
F1B3
330
2
100
AcDbEntity
  8
VLB
100
AcDbCircle
 10
10388.40443602964
 20
90.78988415902903
 30
0.0
 40
2.269403731244178
100
AcDbArc
 50
115.4354271744969
 51
180.0005202688628
  0
LINE
  5
F1B4
330
2
100
AcDbEntity
  8
VLB
100
AcDbLine
 10
10389.77446971525
 20
88.10161093609394
 30
0.0
 11
10390.74552084991
 21
87.54098623416258
 31
0.0
  0
LINE
  5
F1B5
330
2
100
AcDbEntity
  8
VLB
100
AcDbLine
 10
10389.94505525416
 20
88.39707995257459
 30
0.0
 11
10386.13503405188
 21
90.59676800095303
 31
0.0
  0
LINE
  5
F1B6
330
2
100
AcDbEntity
  8
SPS
100
AcDbLine
 10
10386.49490319981
 20
96.36911551256753
 30
0.0
 11
10406.58430711917
 21
84.77049275186482
 31
0.0
  0
LINE
  5
F1B7
330
2
100
AcDbEntity
  8
VLB
100
AcDbLine
 10
10396.26551976295
 20
97.10210530772428
 30
0.0
 11
10390.74552084991
 21
87.54098623416258
 31
0.0
  0
LINE
  5
F1B8
330
2
100
AcDbEntity
  8
VLB
100
AcDbLine
 10
10386.13502677683
 20
91.39794844898688
 30
0.0
 11
10390.62002544406
 21
99.16635691746387
 31
0.0
  0
ARC
  5
F1B9
330
2
100
AcDbEntity
  8
VLB
100
AcDbCircle
 10
10395.79901144966
 20
90.99744597782365
 30
0.0
 40
8.569548190628291
100
AcDbArc
 50
132.4125664948269
 51
167.588474042785
  0
LINE
  5
F1BA
330
2
100
AcDbEntity
  8
VLB
100
AcDbLine
 10
10389.77446971525
 20
88.10161093609394
 30
0.0
 11
10395.29446862829
 21
97.66273000964474
 31
0.0
  0
LINE
  5
F1BB
330
2
100
AcDbEntity
  8
VLB
100
AcDbLine
 10
10393.82917803592
 20
95.12471903325467
 30
0.0
 11
10390.01915683363
 21
97.32440708162949
 31
0.0
  0
LINE
  5
F1BC
330
2
100
AcDbEntity
  8
VLB
100
AcDbLine
 10
11108.41284648501
 20
-524.0834451228302
 30
0.0
 11
11133.17213826285
 21
-807.0834451228302
 31
0.0
  0
LINE
  5
F1BD
330
2
100
AcDbEntity
  8
SPS
100
AcDbLine
 10
10830.91284648502
 20
-504.0834451228302
 30
0.0
 11
10830.91284648502
 21
-827.0834451228301
 31
0.0
  0
LINE
  5
F1BE
330
2
100
AcDbEntity
  8
VLB
100
AcDbLine
 10
10553.41284648501
 20
-524.0834451228302
 30
0.0
 11
10528.65355470718
 21
-807.0834451228302
 31
0.0
  0
LINE
  5
F1BF
330
2
100
AcDbEntity
  8
VLB
100
AcDbLine
 10
11317.91284648502
 20
-2222.727886542693
 30
0.0
 11
11317.91284648502
 21
-1248.727886542686
 31
0.0
  0
LINE
  5
F1C0
330
2
100
AcDbEntity
  8
SPS
100
AcDbLine
 10
10830.91284648501
 20
-1735.72788654269
 30
0.0
 11
10830.91284648501
 21
-2228.727886542692
 31
0.0
  0
LINE
  5
F1C1
330
2
100
AcDbEntity
  8
VLB
100
AcDbLine
 10
10546.11941529758
 20
-1450.934455355255
 30
0.0
 11
10546.11941529758
 21
-2020.521317730124
 31
0.0
  0
LINE
  5
F1C2
330
2
100
AcDbEntity
  8
VLB
100
AcDbLine
 10
10545.25338989382
 20
-1450.068429951497
 30
0.0
 11
10545.25338989382
 21
-2021.387343133881
 31
0.0
  0
LINE
  5
F1C3
330
2
100
AcDbEntity
  8
SPS
100
AcDbLine
 10
10482.04682108123
 20
-2003.727886542697
 30
0.0
 11
10482.04682108123
 21
-1987.727886542696
 31
0.0
  0
ELLIPSE
  5
F1C4
330
2
100
AcDbEntity
  8
VLB
100
AcDbEllipse
 10
10481.04682108126
 20
-1995.727886542697
 30
0.0
 11
-0.0000000000000073
 21
-5.0
 31
0.0
210
0.0
220
0.0
230
1.0
 40
0.8660254037843287
 41
0.0
 42
6.283185307179586
  0
ELLIPSE
  5
F1C5
330
2
100
AcDbEntity
  8
VLB
100
AcDbEllipse
 10
10482.04682108123
 20
-1995.727886542697
 30
0.0
 11
0.0000000000000073
 21
5.0
 31
0.0
210
0.0
220
0.0
230
1.0
 40
0.7660254037896266
 41
3.141592653589793
 42
6.283185307179586
  0
LINE
  5
F1C6
330
2
100
AcDbEntity
  8
VLB
100
AcDbLine
 10
10826.91284648501
 20
-1983.861861138898
 30
0.0
 11
10826.91284648501
 21
-2013.450318407015
 31
0.0
  0
LINE
  5
F1C7
330
2
100
AcDbEntity
  8
VLB
100
AcDbLine
 10
10834.91284648501
 20
-1983.861861138896
 30
0.0
 11
10834.91284648501
 21
-2013.450318407017
 31
0.0
  0
LINE
  5
F1C8
330
2
100
AcDbEntity
  8
SPS
100
AcDbLine
 10
10830.91284648501
 20
-1968.497759220015
 30
0.0
 11
10830.91284648501
 21
-2023.450318407017
 31
0.0
  0
LINE
  5
F1C9
330
2
100
AcDbEntity
  8
VLB
100
AcDbLine
 10
11116.5723030762
 20
-2021.387343133881
 30
0.0
 11
11116.57230307621
 21
-1450.068429951496
 31
0.0
  0
LINE
  5
F1CA
330
2
100
AcDbEntity
  8
VLB
100
AcDbLine
 10
11115.70627767245
 20
-2020.521317730124
 30
0.0
 11
11115.70627767245
 21
-1450.934455355254
 31
0.0
  0
LINE
  5
F1CB
330
2
100
AcDbEntity
  8
SPS
100
AcDbLine
 10
11179.77887188879
 20
-1987.727886542682
 30
0.0
 11
11179.77887188879
 21
-2003.727886542682
 31
0.0
  0
ELLIPSE
  5
F1CC
330
2
100
AcDbEntity
  8
VLB
100
AcDbEllipse
 10
11180.77887188876
 20
-1995.727886542682
 30
0.0
 11
0.0000000000000113
 21
5.0
 31
0.0
210
0.0
220
0.0
230
1.0
 40
0.8660254037843287
 41
0.0
 42
6.283185307179586
  0
ELLIPSE
  5
F1CD
330
2
100
AcDbEntity
  8
VLB
100
AcDbEllipse
 10
11179.77887188879
 20
-1995.727886542682
 30
0.0
 11
-0.0000000000000113
 21
-5.0
 31
0.0
210
0.0
220
0.0
230
1.0
 40
0.7660254037896266
 41
3.141592653589793
 42
6.283185307179586
  0
LINE
  5
F1CE
330
2
100
AcDbEntity
  8
VLB
100
AcDbLine
 10
10545.25338989382
 20
-2021.387343133882
 30
0.0
 11
11116.5723030762
 21
-2021.387343133882
 31
0.0
  0
LINE
  5
F1CF
330
2
100
AcDbEntity
  8
VLB
100
AcDbLine
 10
10546.11941529758
 20
-2020.521317730124
 30
0.0
 11
11115.70627767245
 21
-2020.521317730125
 31
0.0
  0
ELLIPSE
  5
F1D0
330
2
100
AcDbEntity
  8
VLB
100
AcDbEllipse
 10
10570.91284648502
 20
-2085.593911946438
 30
0.0
 11
5.0
 21
-0.0000000000000087
 31
0.0
210
0.0
220
0.0
230
1.0
 40
0.8660254037843287
 41
0.0
 42
6.283185307179586
  0
LINE
  5
F1D1
330
2
100
AcDbEntity
  8
SPS
100
AcDbLine
 10
10578.91284648502
 20
-2084.593911946467
 30
0.0
 11
10562.91284648502
 21
-2084.593911946467
 31
0.0
  0
ELLIPSE
  5
F1D2
330
2
100
AcDbEntity
  8
VLB
100
AcDbEllipse
 10
10570.91284648502
 20
-2084.593911946467
 30
0.0
 11
-5.0
 21
0.0000000000000087
 31
0.0
210
0.0
220
0.0
230
1.0
 40
0.7660254037896266
 41
3.141592653589793
 42
6.283185307179586
  0
LINE
  5
F1D3
330
2
100
AcDbEntity
  8
SPS
100
AcDbLine
 10
10445.52189872173
 20
-2118.446119088382
 30
0.0
 11
10445.52189872173
 21
-2102.446119088382
 31
0.0
  0
LINE
  5
F1D4
330
2
100
AcDbEntity
  8
VLB
100
AcDbLine
 10
10444.52189872175
 20
-2115.446119088382
 30
0.0
 11
10445.52189872173
 21
-2115.446119088382
 31
0.0
  0
LINE
  5
F1D5
330
2
100
AcDbEntity
  8
VLB
100
AcDbLine
 10
10445.52189872173
 20
-2105.446119088381
 30
0.0
 11
10444.52189872175
 21
-2105.446119088381
 31
0.0
  0
ELLIPSE
  5
F1D6
330
2
100
AcDbEntity
  8
VLB
100
AcDbEllipse
 10
10444.52189872175
 20
-2110.446119088382
 30
0.0
 11
-0.0000000000000084
 21
-5.0
 31
0.0
210
0.0
220
0.0
230
1.0
 40
0.8660254037843287
 41
0.0
 42
6.283185307179586
  0
ELLIPSE
  5
F1D7
330
2
100
AcDbEntity
  8
VLB
100
AcDbEllipse
 10
10445.52189872173
 20
-2110.446119088382
 30
0.0
 11
0.0000000000000084
 21
5.0
 31
0.0
210
0.0
220
0.0
230
1.0
 40
0.7660254037896266
 41
3.141592653589793
 42
6.283185307179586
  0
ELLIPSE
  5
F1D8
330
2
100
AcDbEntity
  8
VLB
100
AcDbEllipse
 10
10444.02189872176
 20
-2110.446119088382
 30
0.0
 11
-0.0000000000000025
 21
-1.5
 31
0.0
210
0.0
220
0.0
230
1.0
 40
0.837082593832747
 41
0.0
 42
6.283185307179586
  0
HATCH
  5
F1D9
330
2
100
AcDbEntity
  8
VLB
100
AcDbHatch
 10
0.0
 20
0.0
 30
0.0
210
0.0
220
0.0
230
1.0
  2
SOLID
 70
     1
 71
     0
 91
        2
 92
        5
 93
        2
 72
     3
 10
10444.02189872176
 20
-2110.446119088382
 11
-0.0000000000000025
 21
-1.5
 40
0.837082593832747
 50
90.0
 51
270.0
 73
     1
 72
     1
 10
10442.76627483101
 20
-2110.446119088382
 11
10445.27752261251
 21
-2110.446119088382
 97
        0
 92
        5
 93
        2
 72
     3
 10
10444.02189872176
 20
-2110.446119088382
 11
-0.0000000000000025
 21
-1.5
 40
0.837082593832747
 50
270.0
 51
450.0
 73
     1
 72
     1
 10
10445.27752261251
 20
-2110.446119088382
 11
10442.76627483101
 21
-2110.446119088382
 97
        0
 75
     0
 76
     1
 47
0.0516579537025894
 98
        2
 10
10444.263848647
 20
-2109.614913999624
 10
10444.31550665263
 20
-2110.907428284364
  0
LINE
  5
F1DA
330
2
100
AcDbEntity
  8
SPS
100
AcDbLine
 10
10452.35204559974
 20
-2110.446119088382
 30
0.0
 11
10438.69175184371
 21
-2110.446119088382
 31
0.0
  0
LINE
  5
F1DB
330
2
100
AcDbEntity
  8
VLB
100
AcDbLine
 10
10481.04682108126
 20
-2000.727886542696
 30
0.0
 11
10482.04682108123
 21
-2000.727886542696
 31
0.0
  0
LINE
  5
F1DC
330
2
100
AcDbEntity
  8
VLB
100
AcDbLine
 10
10565.91284648502
 20
-2084.593911946467
 30
0.0
 11
10565.91284648502
 21
-2085.593911946438
 31
0.0
  0
LINE
  5
F1DD
330
2
100
AcDbEntity
  8
VLB
100
AcDbLine
 10
10534.52189872176
 20
-2025.446119088382
 30
0.0
 11
10535.52189872173
 21
-2025.446119088382
 31
0.0
  0
LINE
  5
F1DE
330
2
100
AcDbEntity
  8
SPS
100
AcDbLine
 10
10542.35204559974
 20
-2020.446119088382
 30
0.0
 11
10528.69175184371
 21
-2020.446119088382
 31
0.0
  0
LINE
  5
F1DF
330
2
100
AcDbEntity
  8
VLB
100
AcDbLine
 10
10535.52189872173
 20
-2015.446119088382
 30
0.0
 11
10534.52189872176
 21
-2015.446119088382
 31
0.0
  0
LINE
  5
F1E0
330
2
100
AcDbEntity
  8
SPS
100
AcDbLine
 10
10535.52189872173
 20
-2028.446119088382
 30
0.0
 11
10535.52189872173
 21
-2012.446119088382
 31
0.0
  0
ELLIPSE
  5
F1E1
330
2
100
AcDbEntity
  8
VLB
100
AcDbEllipse
 10
10534.52189872176
 20
-2020.446119088382
 30
0.0
 11
-0.0000000000000084
 21
-5.0
 31
0.0
210
0.0
220
0.0
230
1.0
 40
0.8660254037843287
 41
0.0
 42
6.283185307179586
  0
ELLIPSE
  5
F1E2
330
2
100
AcDbEntity
  8
VLB
100
AcDbEllipse
 10
10535.52189872173
 20
-2020.446119088382
 30
0.0
 11
0.0000000000000084
 21
5.0
 31
0.0
210
0.0
220
0.0
230
1.0
 40
0.7660254037896266
 41
3.141592653589793
 42
6.283185307179586
  0
ELLIPSE
  5
F1E3
330
2
100
AcDbEntity
  8
VLB
100
AcDbEllipse
 10
10534.02189872176
 20
-2020.446119088382
 30
0.0
 11
-0.0000000000000025
 21
-1.5
 31
0.0
210
0.0
220
0.0
230
1.0
 40
0.837082593832747
 41
0.0
 42
6.283185307179586
  0
HATCH
  5
F1E4
330
2
100
AcDbEntity
  8
VLB
100
AcDbHatch
 10
0.0
 20
0.0
 30
0.0
210
0.0
220
0.0
230
1.0
  2
SOLID
 70
     1
 71
     0
 91
        2
 92
        5
 93
        2
 72
     3
 10
10534.02189872176
 20
-2020.446119088382
 11
-0.0000000000000025
 21
-1.5
 40
0.837082593832747
 50
90.0
 51
270.0
 73
     1
 72
     1
 10
10532.76627483101
 20
-2020.446119088382
 11
10535.27752261251
 21
-2020.446119088382
 97
        0
 92
        5
 93
        2
 72
     3
 10
10534.02189872176
 20
-2020.446119088382
 11
-0.0000000000000025
 21
-1.5
 40
0.837082593832747
 50
270.0
 51
450.0
 73
     1
 72
     1
 10
10535.27752261251
 20
-2020.446119088382
 11
10532.76627483101
 21
-2020.446119088382
 97
        0
 75
     0
 76
     1
 47
0.0516579537025894
 98
        2
 10
10534.263848647
 20
-2019.614913999624
 10
10534.31550665263
 20
-2020.907428284364
  0
LINE
  5
F1E5
330
2
100
AcDbEntity
  8
SPS
100
AcDbLine
 10
10633.41284648501
 20
-2180.410299413957
 30
0.0
 11
10633.41284648501
 21
-2165.859836341524
 31
0.0
  0
LINE
  5
F1E6
330
2
100
AcDbEntity
  8
SPS
100
AcDbLine
 10
10624.86337299977
 20
-2173.135217887936
 30
0.0
 11
10641.96284648501
 21
-2173.135217887936
 31
0.0
  0
ELLIPSE
  5
F1E7
330
2
100
AcDbEntity
  8
VLB
100
AcDbEllipse
 10
10633.41284648501
 20
-2173.135217887936
 30
0.0
 11
2.549999999999272
 21
-0.0000000000000027
 31
0.0
210
0.0
220
0.0
230
1.0
 40
0.5
 41
0.0
 42
6.283185307179586
  0
LINE
  5
F1E8
330
2
100
AcDbEntity
  8
SPS
100
AcDbLine
 10
10570.91284648502
 20
-2077.763765068453
 30
0.0
 11
10570.91284648502
 21
-2091.424058824483
 31
0.0
  0
LINE
  5
F1E9
330
2
100
AcDbEntity
  8
VLB
100
AcDbLine
 10
10575.91284648502
 20
-2085.593911946438
 30
0.0
 11
10575.91284648502
 21
-2084.593911946467
 31
0.0
  0
ELLIPSE
  5
F1EA
330
2
100
AcDbEntity
  8
VLB
100
AcDbEllipse
 10
10570.91284648502
 20
-2086.093911946438
 30
0.0
 11
1.5
 21
-0.0000000000000026
 31
0.0
210
0.0
220
0.0
230
1.0
 40
0.837082593832747
 41
0.0
 42
6.283185307179586
  0
HATCH
  5
F1EB
330
2
100
AcDbEntity
  8
VLB
100
AcDbHatch
 10
0.0
 20
0.0
 30
0.0
210
0.0
220
0.0
230
1.0
  2
SOLID
 70
     1
 71
     0
 91
        2
 92
        5
 93
        2
 72
     3
 10
10570.91284648502
 20
-2086.093911946438
 11
1.5
 21
-0.0000000000000026
 40
0.837082593832747
 50
90.0
 51
270.0
 73
     1
 72
     1
 10
10570.91284648502
 20
-2087.349535837187
 11
10570.91284648502
 21
-2084.838288055689
 97
        0
 92
        5
 93
        2
 72
     3
 10
10570.91284648502
 20
-2086.093911946438
 11
1.5
 21
-0.0000000000000026
 40
0.837082593832747
 50
270.0
 51
450.0
 73
     1
 72
     1
 10
10570.91284648502
 20
-2084.838288055689
 11
10570.91284648502
 21
-2087.349535837187
 97
        0
 75
     0
 76
     1
 47
0.0516579537025894
 98
        2
 10
10570.08164139626
 20
-2085.851962021191
 10
10571.374155681
 20
-2085.800304015565
  0
LINE
  5
F1EC
330
2
100
AcDbEntity
  8
VLB
100
AcDbLine
 10
10835.91284648501
 20
-2085.593911946438
 30
0.0
 11
10835.91284648501
 21
-2084.593911946467
 31
0.0
  0
LINE
  5
F1ED
330
2
100
AcDbEntity
  8
SPS
100
AcDbLine
 10
10830.91284648501
 20
-2077.763765068453
 30
0.0
 11
10830.91284648501
 21
-2091.424058824483
 31
0.0
  0
LINE
  5
F1EE
330
2
100
AcDbEntity
  8
VLB
100
AcDbLine
 10
10830.91284648501
 20
-2017.450318407017
 30
0.0
 11
10830.91284648501
 21
-2017.450318407015
 31
0.0
  0
ARC
  5
F1EF
330
2
100
AcDbEntity
  8
VLB
100
AcDbCircle
 10
10830.91284648501
 20
-2013.450318407014
 30
0.0
 40
4.0
100
AcDbArc
 50
180.0
 51
270.0
  0
LINE
  5
F1F0
330
2
100
AcDbEntity
  8
VLB
100
AcDbLine
 10
10825.91284648501
 20
-2084.593911946467
 30
0.0
 11
10825.91284648501
 21
-2085.593911946438
 31
0.0
  0
ELLIPSE
  5
F1F1
330
2
100
AcDbEntity
  8
VLB
100
AcDbEllipse
 10
10830.91284648501
 20
-2086.093911946438
 30
0.0
 11
1.5
 21
-0.0000000000000026
 31
0.0
210
0.0
220
0.0
230
1.0
 40
0.837082593832747
 41
0.0
 42
6.283185307179586
  0
HATCH
  5
F1F2
330
2
100
AcDbEntity
  8
VLB
100
AcDbHatch
 10
0.0
 20
0.0
 30
0.0
210
0.0
220
0.0
230
1.0
  2
SOLID
 70
     1
 71
     0
 91
        2
 92
        5
 93
        2
 72
     3
 10
10830.91284648501
 20
-2086.093911946438
 11
1.5
 21
-0.0000000000000026
 40
0.837082593832747
 50
90.0
 51
270.0
 73
     1
 72
     1
 10
10830.91284648501
 20
-2087.349535837187
 11
10830.91284648501
 21
-2084.838288055689
 97
        0
 92
        5
 93
        2
 72
     3
 10
10830.91284648501
 20
-2086.093911946438
 11
1.5
 21
-0.0000000000000026
 40
0.837082593832747
 50
270.0
 51
450.0
 73
     1
 72
     1
 10
10830.91284648501
 20
-2084.838288055689
 11
10830.91284648501
 21
-2087.349535837187
 97
        0
 75
     0
 76
     1
 47
0.0516579537025894
 98
        2
 10
10830.08164139626
 20
-2085.851962021191
 10
10831.37415568099
 20
-2085.800304015565
  0
ELLIPSE
  5
F1F3
330
2
100
AcDbEntity
  8
VLB
100
AcDbEllipse
 10
10830.91284648501
 20
-2085.593911946438
 30
0.0
 11
5.0
 21
-0.0000000000000087
 31
0.0
210
0.0
220
0.0
230
1.0
 40
0.8660254037843287
 41
0.0
 42
6.283185307179586
  0
ARC
  5
F1F4
330
2
100
AcDbEntity
  8
VLB
100
AcDbCircle
 10
10830.91284648501
 20
-2013.450318407016
 30
0.0
 40
4.0
100
AcDbArc
 50
270.0
 51
0.0
  0
LINE
  5
F1F5
330
2
100
AcDbEntity
  8
SPS
100
AcDbLine
 10
10838.91284648501
 20
-2084.593911946467
 30
0.0
 11
10822.91284648501
 21
-2084.593911946467
 31
0.0
  0
ELLIPSE
  5
F1F6
330
2
100
AcDbEntity
  8
VLB
100
AcDbEllipse
 10
10830.91284648501
 20
-2084.593911946467
 30
0.0
 11
-5.0
 21
0.0000000000000087
 31
0.0
210
0.0
220
0.0
230
1.0
 40
0.7660254037896266
 41
3.141592653589793
 42
6.283185307179586
  0
ELLIPSE
  5
F1F7
330
2
100
AcDbEntity
  8
VLB
100
AcDbEllipse
 10
11115.63107903071
 20
-2031.118834305974
 30
0.0
 11
-5.0
 21
0.0000000000000031
 31
0.0
210
0.0
220
0.0
230
1.0
 40
0.7660254037896266
 41
3.141592653589793
 42
6.283185307179586
  0
ELLIPSE
  5
F1F8
330
2
100
AcDbEntity
  8
VLB
100
AcDbEllipse
 10
11115.63107903071
 20
-2032.118834305945
 30
0.0
 11
5.0
 21
-0.0000000000000031
 31
0.0
210
0.0
220
0.0
230
1.0
 40
0.8660254037843287
 41
0.0
 42
6.283185307179586
  0
LINE
  5
F1F9
330
2
100
AcDbEntity
  8
SPS
100
AcDbLine
 10
11123.6310790307
 20
-2031.118834305974
 30
0.0
 11
11107.6310790307
 21
-2031.118834305974
 31
0.0
  0
LINE
  5
F1FA
330
2
100
AcDbEntity
  8
SPS
100
AcDbLine
 10
11028.41284648501
 20
-2180.410299413957
 30
0.0
 11
11028.41284648501
 21
-2165.859836341524
 31
0.0
  0
ELLIPSE
  5
F1FB
330
2
100
AcDbEntity
  8
VLB
100
AcDbEllipse
 10
11028.41284648501
 20
-2173.135217887936
 30
0.0
 11
2.549999999999272
 21
-0.0000000000000027
 31
0.0
210
0.0
220
0.0
230
1.0
 40
0.5
 41
0.0
 42
6.283185307179586
  0
LINE
  5
F1FC
330
2
100
AcDbEntity
  8
SPS
100
AcDbLine
 10
11019.86337299978
 20
-2173.135217887936
 30
0.0
 11
11036.96284648501
 21
-2173.135217887936
 31
0.0
  0
LINE
  5
F1FD
330
2
100
AcDbEntity
  8
SPS
100
AcDbLine
 10
11115.63107903071
 20
-2024.288687427959
 30
0.0
 11
11115.63107903071
 21
-2037.948981183988
 31
0.0
  0
HATCH
  5
F1FE
330
2
100
AcDbEntity
  8
VLB
100
AcDbHatch
 10
0.0
 20
0.0
 30
0.0
210
0.0
220
0.0
230
1.0
  2
SOLID
 70
     1
 71
     0
 91
        2
 92
        5
 93
        2
 72
     3
 10
11115.63107903071
 20
-2032.618834305944
 11
1.5
 21
-0.0000000000000009
 40
0.837082593832747
 50
90.0
 51
270.0
 73
     1
 72
     1
 10
11115.63107903071
 20
-2033.874458196693
 11
11115.63107903071
 21
-2031.363210415194
 97
        0
 92
        5
 93
        2
 72
     3
 10
11115.63107903071
 20
-2032.618834305944
 11
1.5
 21
-0.0000000000000009
 40
0.837082593832747
 50
270.0
 51
450.0
 73
     1
 72
     1
 10
11115.63107903071
 20
-2031.363210415194
 11
11115.63107903071
 21
-2033.874458196692
 97
        0
 75
     0
 76
     1
 47
0.0516579537025894
 98
        2
 10
11114.79987394195
 20
-2032.376884380697
 10
11116.09238822669
 20
-2032.325226375071
  0
ELLIPSE
  5
F1FF
330
2
100
AcDbEntity
  8
VLB
100
AcDbEllipse
 10
11115.63107903071
 20
-2032.618834305944
 30
0.0
 11
1.5
 21
-0.0000000000000009
 31
0.0
210
0.0
220
0.0
230
1.0
 40
0.837082593832747
 41
0.0
 42
6.283185307179586
  0
ELLIPSE
  5
F200
330
2
100
AcDbEntity
  8
VLB
100
AcDbEllipse
 10
11090.91284648502
 20
-2085.593911946438
 30
0.0
 11
5.0
 21
-0.0000000000000087
 31
0.0
210
0.0
220
0.0
230
1.0
 40
0.8660254037843287
 41
0.0
 42
6.283185307179586
  0
LINE
  5
F201
330
2
100
AcDbEntity
  8
SPS
100
AcDbLine
 10
11090.91284648502
 20
-2077.763765068453
 30
0.0
 11
11090.91284648502
 21
-2091.424058824483
 31
0.0
  0
LINE
  5
F202
330
2
100
AcDbEntity
  8
VLB
100
AcDbLine
 10
11110.6310790307
 20
-2031.118834305974
 30
0.0
 11
11110.6310790307
 21
-2032.118834305945
 31
0.0
  0
LINE
  5
F203
330
2
100
AcDbEntity
  8
VLB
100
AcDbLine
 10
11085.91284648502
 20
-2084.593911946467
 30
0.0
 11
11085.91284648502
 21
-2085.593911946438
 31
0.0
  0
LINE
  5
F204
330
2
100
AcDbEntity
  8
VLB
100
AcDbLine
 10
11095.91284648502
 20
-2085.593911946438
 30
0.0
 11
11095.91284648502
 21
-2084.593911946467
 31
0.0
  0
ELLIPSE
  5
F205
330
2
100
AcDbEntity
  8
VLB
100
AcDbEllipse
 10
11090.91284648502
 20
-2086.093911946438
 30
0.0
 11
1.5
 21
-0.0000000000000026
 31
0.0
210
0.0
220
0.0
230
1.0
 40
0.837082593832747
 41
0.0
 42
6.283185307179586
  0
HATCH
  5
F206
330
2
100
AcDbEntity
  8
VLB
100
AcDbHatch
 10
0.0
 20
0.0
 30
0.0
210
0.0
220
0.0
230
1.0
  2
SOLID
 70
     1
 71
     0
 91
        2
 92
        5
 93
        2
 72
     3
 10
11090.91284648502
 20
-2086.093911946438
 11
1.5
 21
-0.0000000000000026
 40
0.837082593832747
 50
90.0
 51
270.0
 73
     1
 72
     1
 10
11090.91284648502
 20
-2087.349535837187
 11
11090.91284648502
 21
-2084.838288055688
 97
        0
 92
        5
 93
        2
 72
     3
 10
11090.91284648502
 20
-2086.093911946438
 11
1.5
 21
-0.0000000000000026
 40
0.837082593832747
 50
270.0
 51
450.0
 73
     1
 72
     1
 10
11090.91284648502
 20
-2084.838288055689
 11
11090.91284648502
 21
-2087.349535837187
 97
        0
 75
     0
 76
     1
 47
0.0516579537025894
 98
        2
 10
11090.08164139626
 20
-2085.851962021191
 10
11091.374155681
 20
-2085.800304015565
  0
LINE
  5
F207
330
2
100
AcDbEntity
  8
SPS
100
AcDbLine
 10
11098.91284648502
 20
-2084.593911946467
 30
0.0
 11
11082.91284648502
 21
-2084.593911946467
 31
0.0
  0
ELLIPSE
  5
F208
330
2
100
AcDbEntity
  8
VLB
100
AcDbEllipse
 10
11090.91284648502
 20
-2084.593911946467
 30
0.0
 11
-5.0
 21
0.0000000000000087
 31
0.0
210
0.0
220
0.0
230
1.0
 40
0.7660254037896266
 41
3.141592653589793
 42
6.283185307179586
  0
LINE
  5
F209
330
2
100
AcDbEntity
  8
VLB
100
AcDbLine
 10
11120.6310790307
 20
-2032.118834305945
 30
0.0
 11
11120.6310790307
 21
-2031.118834305974
 31
0.0
  0
LINE
  5
F20A
330
2
100
AcDbEntity
  8
VLB
100
AcDbLine
 10
11179.77887188879
 20
-2000.727886542682
 30
0.0
 11
11180.77887188876
 21
-2000.727886542682
 31
0.0
  0
LINE
  5
F20B
330
2
100
AcDbEntity
  8
SPS
100
AcDbLine
 10
11205.6310790307
 20
-2114.288687427959
 30
0.0
 11
11205.6310790307
 21
-2127.948981183988
 31
0.0
  0
HATCH
  5
F20C
330
2
100
AcDbEntity
  8
VLB
100
AcDbHatch
 10
0.0
 20
0.0
 30
0.0
210
0.0
220
0.0
230
1.0
  2
SOLID
 70
     1
 71
     0
 91
        2
 92
        5
 93
        2
 72
     3
 10
11205.6310790307
 20
-2122.618834305944
 11
1.5
 21
-0.0000000000000009
 40
0.837082593832747
 50
90.0
 51
270.0
 73
     1
 72
     1
 10
11205.6310790307
 20
-2123.874458196693
 11
11205.6310790307
 21
-2121.363210415194
 97
        0
 92
        5
 93
        2
 72
     3
 10
11205.6310790307
 20
-2122.618834305944
 11
1.5
 21
-0.0000000000000009
 40
0.837082593832747
 50
270.0
 51
450.0
 73
     1
 72
     1
 10
11205.6310790307
 20
-2121.363210415194
 11
11205.6310790307
 21
-2123.874458196692
 97
        0
 75
     0
 76
     1
 47
0.0516579537025894
 98
        2
 10
11204.79987394195
 20
-2122.376884380697
 10
11206.09238822669
 20
-2122.325226375071
  0
ELLIPSE
  5
F20D
330
2
100
AcDbEntity
  8
VLB
100
AcDbEllipse
 10
11205.6310790307
 20
-2122.618834305944
 30
0.0
 11
1.5
 21
-0.0000000000000009
 31
0.0
210
0.0
220
0.0
230
1.0
 40
0.837082593832747
 41
0.0
 42
6.283185307179586
  0
ELLIPSE
  5
F20E
330
2
100
AcDbEntity
  8
VLB
100
AcDbEllipse
 10
11205.6310790307
 20
-2121.118834305975
 30
0.0
 11
-5.0
 21
0.0000000000000031
 31
0.0
210
0.0
220
0.0
230
1.0
 40
0.7660254037896266
 41
3.141592653589793
 42
6.283185307179586
  0
ELLIPSE
  5
F20F
330
2
100
AcDbEntity
  8
VLB
100
AcDbEllipse
 10
11205.6310790307
 20
-2122.118834305945
 30
0.0
 11
5.0
 21
-0.0000000000000031
 31
0.0
210
0.0
220
0.0
230
1.0
 40
0.8660254037843287
 41
0.0
 42
6.283185307179586
  0
LINE
  5
F210
330
2
100
AcDbEntity
  8
VLB
100
AcDbLine
 10
11200.6310790307
 20
-2121.118834305975
 30
0.0
 11
11200.6310790307
 21
-2122.118834305945
 31
0.0
  0
LINE
  5
F211
330
2
100
AcDbEntity
  8
VLB
100
AcDbLine
 10
11210.6310790307
 20
-2122.118834305945
 30
0.0
 11
11210.6310790307
 21
-2121.118834305975
 31
0.0
  0
LINE
  5
F212
330
2
100
AcDbEntity
  8
SPS
100
AcDbLine
 10
11213.63107903071
 20
-2121.118834305975
 30
0.0
 11
11197.6310790307
 21
-2121.118834305975
 31
0.0
  0
LINE
  5
F213
330
2
100
AcDbEntity
  8
SPS
100
AcDbLine
 10
11295.63107903071
 20
-2204.288687427965
 30
0.0
 11
11295.63107903071
 21
-2217.948981183995
 31
0.0
  0
HATCH
  5
F214
330
2
100
AcDbEntity
  8
VLB
100
AcDbHatch
 10
0.0
 20
0.0
 30
0.0
210
0.0
220
0.0
230
1.0
  2
SOLID
 70
     1
 71
     0
 91
        2
 92
        5
 93
        2
 72
     3
 10
11295.63107903071
 20
-2212.61883430595
 11
1.5
 21
-0.0000000000000009
 40
0.837082593832747
 50
90.0
 51
270.0
 73
     1
 72
     1
 10
11295.63107903071
 20
-2213.874458196699
 11
11295.63107903071
 21
-2211.363210415201
 97
        0
 92
        5
 93
        2
 72
     3
 10
11295.63107903071
 20
-2212.61883430595
 11
1.5
 21
-0.0000000000000009
 40
0.837082593832747
 50
270.0
 51
450.0
 73
     1
 72
     1
 10
11295.63107903071
 20
-2211.363210415201
 11
11295.63107903071
 21
-2213.874458196699
 97
        0
 75
     0
 76
     1
 47
0.0516579537025894
 98
        2
 10
11294.79987394195
 20
-2212.376884380704
 10
11296.09238822669
 20
-2212.325226375077
  0
ELLIPSE
  5
F215
330
2
100
AcDbEntity
  8
VLB
100
AcDbEllipse
 10
11295.63107903071
 20
-2212.61883430595
 30
0.0
 11
1.5
 21
-0.0000000000000009
 31
0.0
210
0.0
220
0.0
230
1.0
 40
0.837082593832747
 41
0.0
 42
6.283185307179586
  0
ELLIPSE
  5
F216
330
2
100
AcDbEntity
  8
VLB
100
AcDbEllipse
 10
11295.63107903071
 20
-2211.118834305981
 30
0.0
 11
-5.0
 21
0.0000000000000031
 31
0.0
210
0.0
220
0.0
230
1.0
 40
0.7660254037896266
 41
3.141592653589793
 42
6.283185307179586
  0
ELLIPSE
  5
F217
330
2
100
AcDbEntity
  8
VLB
100
AcDbEllipse
 10
11295.63107903071
 20
-2212.118834305952
 30
0.0
 11
5.0
 21
-0.0000000000000031
 31
0.0
210
0.0
220
0.0
230
1.0
 40
0.8660254037843287
 41
0.0
 42
6.283185307179586
  0
LINE
  5
F218
330
2
100
AcDbEntity
  8
VLB
100
AcDbLine
 10
11290.6310790307
 20
-2211.118834305981
 30
0.0
 11
11290.6310790307
 21
-2212.118834305952
 31
0.0
  0
LINE
  5
F219
330
2
100
AcDbEntity
  8
VLB
100
AcDbLine
 10
11300.6310790307
 20
-2212.118834305952
 30
0.0
 11
11300.6310790307
 21
-2211.118834305981
 31
0.0
  0
LINE
  5
F21A
330
2
100
AcDbEntity
  8
SPS
100
AcDbLine
 10
11303.6310790307
 20
-2211.118834305981
 30
0.0
 11
11287.6310790307
 21
-2211.118834305981
 31
0.0
  0
ELLIPSE
  5
F21B
330
2
100
AcDbEntity
  8
VLB
100
AcDbEllipse
 10
10984.94645923656
 20
-1592.952604040344
 30
0.0
 11
-0.0000000000000045
 21
-5.0
 31
0.0
210
0.0
220
0.0
230
1.0
 40
0.7660254037896266
 41
3.141592653589793
 42
6.283185307179586
  0
ELLIPSE
  5
F21C
330
2
100
AcDbEntity
  8
VLB
100
AcDbEllipse
 10
10985.94645923653
 20
-1592.952604040344
 30
0.0
 11
0.0000000000000045
 21
5.0
 31
0.0
210
0.0
220
0.0
230
1.0
 40
0.8660254037843287
 41
0.0
 42
6.283185307179586
  0
LINE
  5
F21D
330
2
100
AcDbEntity
  8
SPS
100
AcDbLine
 10
10978.11631235855
 20
-1592.952604040344
 30
0.0
 11
10991.77660611458
 21
-1592.952604040344
 31
0.0
  0
LINE
  5
F21E
330
2
100
AcDbEntity
  8
SPS
100
AcDbLine
 10
10830.91284648501
 20
-1735.727886542687
 30
0.0
 11
11323.91284648502
 21
-1735.727886542687
 31
0.0
  0
LINE
  5
F21F
330
2
100
AcDbEntity
  8
VLB
100
AcDbLine
 10
11116.5723030762
 20
-1450.068429951496
 30
0.0
 11
10545.25338989382
 21
-1450.068429951496
 31
0.0
  0
LINE
  5
F220
330
2
100
AcDbEntity
  8
VLB
100
AcDbLine
 10
11115.70627767245
 20
-1450.934455355255
 30
0.0
 11
10546.11941529758
 21
-1450.934455355253
 31
0.0
  0
LINE
  5
F221
330
2
100
AcDbEntity
  8
SPS
100
AcDbLine
 10
10830.91284648501
 20
-1735.727886542687
 30
0.0
 11
10830.91284648501
 21
-1242.727886542686
 31
0.0
  0
LINE
  5
F222
330
2
100
AcDbEntity
  8
VLB
100
AcDbLine
 10
10582.7788718888
 20
-1731.727886542689
 30
0.0
 11
10553.19041462069
 21
-1731.727886542689
 31
0.0
  0
LINE
  5
F223
330
2
100
AcDbEntity
  8
VLB
100
AcDbLine
 10
10582.77887188881
 20
-1739.727886542689
 30
0.0
 11
10553.19041462069
 21
-1739.727886542689
 31
0.0
  0
LINE
  5
F224
330
2
100
AcDbEntity
  8
SPS
100
AcDbLine
 10
10598.14297380769
 20
-1735.727886542689
 30
0.0
 11
10543.19041462069
 21
-1735.727886542689
 31
0.0
  0
LINE
  5
F225
330
2
100
AcDbEntity
  8
VLB
100
AcDbLine
 10
10482.04682108123
 20
-1990.727886542697
 30
0.0
 11
10481.04682108126
 21
-1990.727886542697
 31
0.0
  0
ELLIPSE
  5
F226
330
2
100
AcDbEntity
  8
VLB
100
AcDbEllipse
 10
10480.54682108126
 20
-1995.727886542697
 30
0.0
 11
-0.0000000000000022
 21
-1.5
 31
0.0
210
0.0
220
0.0
230
1.0
 40
0.837082593832747
 41
0.0
 42
6.283185307179586
  0
HATCH
  5
F227
330
2
100
AcDbEntity
  8
VLB
100
AcDbHatch
 10
0.0
 20
0.0
 30
0.0
210
0.0
220
0.0
230
1.0
  2
SOLID
 70
     1
 71
     0
 91
        2
 92
        5
 93
        2
 72
     3
 10
10480.54682108126
 20
-1995.727886542697
 11
-0.0000000000000022
 21
-1.5
 40
0.837082593832747
 50
90.0
 51
270.0
 73
     1
 72
     1
 10
10479.29119719051
 20
-1995.727886542697
 11
10481.80244497201
 21
-1995.727886542697
 97
        0
 92
        5
 93
        2
 72
     3
 10
10480.54682108126
 20
-1995.727886542697
 11
-0.0000000000000022
 21
-1.5
 40
0.837082593832747
 50
270.0
 51
450.0
 73
     1
 72
     1
 10
10481.80244497201
 20
-1995.727886542697
 11
10479.29119719051
 21
-1995.727886542697
 97
        0
 75
     0
 76
     1
 47
0.0516579537025894
 98
        2
 10
10480.78877100651
 20
-1994.896681453939
 10
10480.84042901213
 20
-1996.189195738678
  0
LINE
  5
F228
330
2
100
AcDbEntity
  8
SPS
100
AcDbLine
 10
10488.87696795925
 20
-1995.727886542697
 30
0.0
 11
10475.21667420322
 21
-1995.727886542697
 31
0.0
  0
LINE
  5
F229
330
2
100
AcDbEntity
  8
VLB
100
AcDbLine
 10
10482.04682108123
 20
-1730.727886542691
 30
0.0
 11
10481.04682108126
 21
-1730.727886542691
 31
0.0
  0
LINE
  5
F22A
330
2
100
AcDbEntity
  8
VLB
100
AcDbLine
 10
10481.04682108126
 20
-1740.727886542691
 30
0.0
 11
10482.04682108123
 21
-1740.727886542691
 31
0.0
  0
ELLIPSE
  5
F22B
330
2
100
AcDbEntity
  8
VLB
100
AcDbEllipse
 10
10480.54682108126
 20
-1735.727886542691
 30
0.0
 11
-0.0000000000000022
 21
-1.5
 31
0.0
210
0.0
220
0.0
230
1.0
 40
0.837082593832747
 41
0.0
 42
6.283185307179586
  0
HATCH
  5
F22C
330
2
100
AcDbEntity
  8
VLB
100
AcDbHatch
 10
0.0
 20
0.0
 30
0.0
210
0.0
220
0.0
230
1.0
  2
SOLID
 70
     1
 71
     0
 91
        2
 92
        5
 93
        2
 72
     3
 10
10480.54682108126
 20
-1735.727886542691
 11
-0.0000000000000022
 21
-1.5
 40
0.837082593832747
 50
90.0
 51
270.0
 73
     1
 72
     1
 10
10479.29119719051
 20
-1735.727886542691
 11
10481.80244497201
 21
-1735.727886542691
 97
        0
 92
        5
 93
        2
 72
     3
 10
10480.54682108126
 20
-1735.727886542691
 11
-0.0000000000000022
 21
-1.5
 40
0.837082593832747
 50
270.0
 51
450.0
 73
     1
 72
     1
 10
10481.80244497201
 20
-1735.727886542691
 11
10479.29119719051
 21
-1735.727886542691
 97
        0
 75
     0
 76
     1
 47
0.0516579537025894
 98
        2
 10
10480.78877100651
 20
-1734.896681453933
 10
10480.84042901213
 20
-1736.189195738673
  0
LINE
  5
F22D
330
2
100
AcDbEntity
  8
SPS
100
AcDbLine
 10
10482.04682108123
 20
-1743.727886542691
 30
0.0
 11
10482.04682108123
 21
-1727.727886542691
 31
0.0
  0
ELLIPSE
  5
F22E
330
2
100
AcDbEntity
  8
VLB
100
AcDbEllipse
 10
10481.04682108126
 20
-1735.727886542691
 30
0.0
 11
-0.0000000000000073
 21
-5.0
 31
0.0
210
0.0
220
0.0
230
1.0
 40
0.8660254037843287
 41
0.0
 42
6.283185307179586
  0
ELLIPSE
  5
F22F
330
2
100
AcDbEntity
  8
VLB
100
AcDbEllipse
 10
10482.04682108123
 20
-1735.727886542691
 30
0.0
 11
0.0000000000000073
 21
5.0
 31
0.0
210
0.0
220
0.0
230
1.0
 40
0.7660254037896266
 41
3.141592653589793
 42
6.283185307179586
  0
LINE
  5
F230
330
2
100
AcDbEntity
  8
SPS
100
AcDbLine
 10
10488.87696795925
 20
-1735.727886542691
 30
0.0
 11
10475.21667420322
 21
-1735.727886542691
 31
0.0
  0
LINE
  5
F231
330
2
100
AcDbEntity
  8
SPS
100
AcDbLine
 10
10567.19041462069
 20
-1743.727886542689
 30
0.0
 11
10567.19041462069
 21
-1727.727886542689
 31
0.0
  0
LINE
  5
F232
330
2
100
AcDbEntity
  8
VLB
100
AcDbLine
 10
10549.19041462069
 20
-1735.727886542689
 30
0.0
 11
10549.19041462069
 21
-1735.727886542689
 31
0.0
  0
ARC
  5
F233
330
2
100
AcDbEntity
  8
VLB
100
AcDbCircle
 10
10553.19041462069
 20
-1735.727886542688
 30
0.0
 40
4.0
100
AcDbArc
 50
180.0
 51
270.0
  0
ARC
  5
F234
330
2
100
AcDbEntity
  8
VLB
100
AcDbCircle
 10
10553.19041462069
 20
-1735.727886542689
 30
0.0
 40
4.0
100
AcDbArc
 50
90.0
 51
180.0
  0
HATCH
  5
F235
330
2
100
AcDbEntity
  8
VLB
100
AcDbHatch
 10
0.0
 20
0.0
 30
0.0
210
0.0
220
0.0
230
1.0
  2
SOLID
 70
     1
 71
     0
 91
        2
 92
        5
 93
        2
 72
     3
 10
10675.37923373349
 20
-1878.503169045035
 11
-0.0000000000000025
 21
-1.5
 40
0.837082593832747
 50
90.0
 51
270.0
 73
     1
 72
     1
 10
10674.12360984274
 20
-1878.503169045035
 11
10676.63485762424
 21
-1878.503169045035
 97
        0
 92
        5
 93
        2
 72
     3
 10
10675.37923373349
 20
-1878.503169045035
 11
-0.0000000000000025
 21
-1.5
 40
0.837082593832747
 50
270.0
 51
450.0
 73
     1
 72
     1
 10
10676.63485762424
 20
-1878.503169045035
 11
10674.12360984274
 21
-1878.503169045035
 97
        0
 75
     0
 76
     1
 47
0.0516579537025894
 98
        2
 10
10675.62118365874
 20
-1877.671963956277
 10
10675.67284166436
 20
-1878.964478241016
  0
ELLIPSE
  5
F236
330
2
100
AcDbEntity
  8
VLB
100
AcDbEllipse
 10
10675.37923373349
 20
-1878.503169045035
 30
0.0
 11
-0.0000000000000025
 21
-1.5
 31
0.0
210
0.0
220
0.0
230
1.0
 40
0.837082593832747
 41
0.0
 42
6.283185307179586
  0
ELLIPSE
  5
F237
330
2
100
AcDbEntity
  8
VLB
100
AcDbEllipse
 10
10676.87923373346
 20
-1878.503169045035
 30
0.0
 11
0.0000000000000084
 21
5.0
 31
0.0
210
0.0
220
0.0
230
1.0
 40
0.7660254037896266
 41
3.141592653589793
 42
6.283185307179586
  0
ELLIPSE
  5
F238
330
2
100
AcDbEntity
  8
VLB
100
AcDbEllipse
 10
10675.87923373349
 20
-1878.503169045035
 30
0.0
 11
-0.0000000000000084
 21
-5.0
 31
0.0
210
0.0
220
0.0
230
1.0
 40
0.8660254037843287
 41
0.0
 42
6.283185307179586
  0
LINE
  5
F239
330
2
100
AcDbEntity
  8
SPS
100
AcDbLine
 10
10676.87923373346
 20
-1886.503169045035
 30
0.0
 11
10676.87923373346
 21
-1870.503169045035
 31
0.0
  0
LINE
  5
F23A
330
2
100
AcDbEntity
  8
VLB
100
AcDbLine
 10
10676.87923373346
 20
-1873.503169045035
 30
0.0
 11
10675.87923373349
 21
-1873.503169045035
 31
0.0
  0
LINE
  5
F23B
330
2
100
AcDbEntity
  8
SPS
100
AcDbLine
 10
10683.70938061148
 20
-1878.503169045035
 30
0.0
 11
10670.04908685545
 21
-1878.503169045035
 31
0.0
  0
LINE
  5
F23C
330
2
100
AcDbEntity
  8
VLB
100
AcDbLine
 10
10675.87923373349
 20
-1883.503169045035
 30
0.0
 11
10676.87923373346
 21
-1883.503169045035
 31
0.0
  0
LINE
  5
F23D
330
2
100
AcDbEntity
  8
SPS
100
AcDbLine
 10
10582.77887188881
 20
-1751.09198846157
 30
0.0
 11
10582.77887188881
 21
-1720.363784623807
 31
0.0
  0
LINE
  5
F23E
330
2
100
AcDbEntity
  8
VLB
100
AcDbLine
 10
10582.77887188881
 20
-1745.727886542689
 30
0.0
 11
10576.54348898156
 21
-1745.727886542689
 31
0.0
  0
LINE
  5
F23F
330
2
100
AcDbEntity
  8
VLB
100
AcDbLine
 10
10582.77887188881
 20
-1725.727886542689
 30
0.0
 11
10576.54348898156
 21
-1725.727886542689
 31
0.0
  0
ELLIPSE
  5
F240
330
2
100
AcDbEntity
  8
VLB
100
AcDbEllipse
 10
10582.77887188881
 20
-1735.727886542689
 30
0.0
 11
-0.0000000000000057
 21
-10.0
 31
0.0
210
0.0
220
0.0
230
1.0
 40
0.5
 41
0.0
 42
3.141592653589793
  0
ARC
  5
F241
330
2
100
AcDbEntity
  8
VLB
100
AcDbCircle
 10
10580.5941582234
 20
-1735.727886542689
 30
0.0
 40
4.557737794105547
100
AcDbArc
 50
298.6424145528137
 51
61.35758544718621
  0
ELLIPSE
  5
F242
330
2
100
AcDbEntity
  8
VLB
100
AcDbEllipse
 10
10576.54348898156
 20
-1735.727886542689
 30
0.0
 11
0.0000000000000057
 21
10.0
 31
0.0
210
0.0
220
0.0
230
1.0
 40
0.5
 41
5.123905826452122
 42
7.44246478790705
  0
ELLIPSE
  5
F243
330
2
100
AcDbEntity
  8
VLB
100
AcDbEllipse
 10
10576.54348898156
 20
-1735.727886542689
 30
0.0
 11
0.0000000000000057
 21
10.0
 31
0.0
210
0.0
220
0.0
230
1.0
 40
0.5
 41
8.265498480041987
 42
10.58405744149677
  0
ELLIPSE
  5
F244
330
2
100
AcDbEntity
  8
VLB
100
AcDbEllipse
 10
10570.912846485
 20
-1386.861861138911
 30
0.0
 11
5.0
 21
-0.0000000000000059
 31
0.0
210
0.0
220
0.0
230
1.0
 40
0.7660254037896266
 41
3.141592653589793
 42
6.283185307179586
  0
ELLIPSE
  5
F245
330
2
100
AcDbEntity
  8
VLB
100
AcDbEllipse
 10
10570.912846485
 20
-1385.86186113894
 30
0.0
 11
-5.0
 21
0.0000000000000059
 31
0.0
210
0.0
220
0.0
230
1.0
 40
0.8660254037843287
 41
0.0
 42
6.283185307179586
  0
LINE
  5
F246
330
2
100
AcDbEntity
  8
SPS
100
AcDbLine
 10
10562.912846485
 20
-1386.861861138911
 30
0.0
 11
10578.912846485
 21
-1386.861861138911
 31
0.0
  0
LINE
  5
F247
330
2
100
AcDbEntity
  8
VLB
100
AcDbLine
 10
10482.04682108123
 20
-1470.727886542697
 30
0.0
 11
10481.04682108126
 21
-1470.727886542697
 31
0.0
  0
LINE
  5
F248
330
2
100
AcDbEntity
  8
VLB
100
AcDbLine
 10
10481.04682108126
 20
-1480.727886542696
 30
0.0
 11
10482.04682108123
 21
-1480.727886542696
 31
0.0
  0
ELLIPSE
  5
F249
330
2
100
AcDbEntity
  8
VLB
100
AcDbEllipse
 10
10480.54682108126
 20
-1475.727886542697
 30
0.0
 11
-0.0000000000000022
 21
-1.5
 31
0.0
210
0.0
220
0.0
230
1.0
 40
0.837082593832747
 41
0.0
 42
6.283185307179586
  0
HATCH
  5
F24A
330
2
100
AcDbEntity
  8
VLB
100
AcDbHatch
 10
0.0
 20
0.0
 30
0.0
210
0.0
220
0.0
230
1.0
  2
SOLID
 70
     1
 71
     0
 91
        2
 92
        5
 93
        2
 72
     3
 10
10480.54682108126
 20
-1475.727886542697
 11
-0.0000000000000022
 21
-1.5
 40
0.837082593832747
 50
90.0
 51
270.0
 73
     1
 72
     1
 10
10479.29119719051
 20
-1475.727886542697
 11
10481.80244497201
 21
-1475.727886542697
 97
        0
 92
        5
 93
        2
 72
     3
 10
10480.54682108126
 20
-1475.727886542697
 11
-0.0000000000000022
 21
-1.5
 40
0.837082593832747
 50
270.0
 51
450.0
 73
     1
 72
     1
 10
10481.80244497201
 20
-1475.727886542697
 11
10479.29119719051
 21
-1475.727886542697
 97
        0
 75
     0
 76
     1
 47
0.0516579537025894
 98
        2
 10
10480.78877100651
 20
-1474.896681453938
 10
10480.84042901213
 20
-1476.189195738679
  0
LINE
  5
F24B
330
2
100
AcDbEntity
  8
SPS
100
AcDbLine
 10
10482.04682108123
 20
-1483.727886542697
 30
0.0
 11
10482.04682108123
 21
-1467.727886542697
 31
0.0
  0
ELLIPSE
  5
F24C
330
2
100
AcDbEntity
  8
VLB
100
AcDbEllipse
 10
10481.04682108126
 20
-1475.727886542697
 30
0.0
 11
-0.0000000000000073
 21
-5.0
 31
0.0
210
0.0
220
0.0
230
1.0
 40
0.8660254037843287
 41
0.0
 42
6.283185307179586
  0
ELLIPSE
  5
F24D
330
2
100
AcDbEntity
  8
VLB
100
AcDbEllipse
 10
10482.04682108123
 20
-1475.727886542697
 30
0.0
 11
0.0000000000000073
 21
5.0
 31
0.0
210
0.0
220
0.0
230
1.0
 40
0.7660254037896266
 41
3.141592653589793
 42
6.283185307179586
  0
LINE
  5
F24E
330
2
100
AcDbEntity
  8
SPS
100
AcDbLine
 10
10448.19461393932
 20
-1350.336938779403
 30
0.0
 11
10464.19461393932
 21
-1350.336938779403
 31
0.0
  0
LINE
  5
F24F
330
2
100
AcDbEntity
  8
VLB
100
AcDbLine
 10
10451.19461393932
 20
-1349.336938779432
 30
0.0
 11
10451.19461393932
 21
-1350.336938779403
 31
0.0
  0
LINE
  5
F250
330
2
100
AcDbEntity
  8
VLB
100
AcDbLine
 10
10461.19461393932
 20
-1350.336938779403
 30
0.0
 11
10461.19461393932
 21
-1349.336938779432
 31
0.0
  0
ELLIPSE
  5
F251
330
2
100
AcDbEntity
  8
VLB
100
AcDbEllipse
 10
10456.19461393932
 20
-1349.336938779432
 30
0.0
 11
-5.0
 21
0.0000000000000059
 31
0.0
210
0.0
220
0.0
230
1.0
 40
0.8660254037843287
 41
0.0
 42
6.283185307179586
  0
ELLIPSE
  5
F252
330
2
100
AcDbEntity
  8
VLB
100
AcDbEllipse
 10
10456.19461393932
 20
-1350.336938779403
 30
0.0
 11
5.0
 21
-0.0000000000000059
 31
0.0
210
0.0
220
0.0
230
1.0
 40
0.7660254037896266
 41
3.141592653589793
 42
6.283185307179586
  0
ELLIPSE
  5
F253
330
2
100
AcDbEntity
  8
VLB
100
AcDbEllipse
 10
10456.19461393932
 20
-1348.836938779434
 30
0.0
 11
-1.5
 21
0.0000000000000018
 31
0.0
210
0.0
220
0.0
230
1.0
 40
0.837082593832747
 41
0.0
 42
6.283185307179586
  0
HATCH
  5
F254
330
2
100
AcDbEntity
  8
VLB
100
AcDbHatch
 10
0.0
 20
0.0
 30
0.0
210
0.0
220
0.0
230
1.0
  2
SOLID
 70
     1
 71
     0
 91
        2
 92
        5
 93
        2
 72
     3
 10
10456.19461393932
 20
-1348.836938779434
 11
-1.5
 21
0.0000000000000018
 40
0.837082593832747
 50
90.0
 51
270.0
 73
     1
 72
     1
 10
10456.19461393932
 20
-1347.581314888685
 11
10456.19461393932
 21
-1350.092562670184
 97
        0
 92
        5
 93
        2
 72
     3
 10
10456.19461393932
 20
-1348.836938779434
 11
-1.5
 21
0.0000000000000018
 40
0.837082593832747
 50
270.0
 51
450.0
 73
     1
 72
     1
 10
10456.19461393932
 20
-1350.092562670183
 11
10456.19461393932
 21
-1347.581314888685
 97
        0
 75
     0
 76
     1
 47
0.0516579537025894
 98
        2
 10
10457.02581902808
 20
-1349.078888704681
 10
10455.73330474334
 20
-1349.130546710307
  0
LINE
  5
F255
330
2
100
AcDbEntity
  8
SPS
100
AcDbLine
 10
10456.19461393932
 20
-1357.167085657419
 30
0.0
 11
10456.19461393932
 21
-1343.50679190139
 31
0.0
  0
LINE
  5
F256
330
2
100
AcDbEntity
  8
SPS
100
AcDbLine
 10
10488.87696795925
 20
-1475.727886542697
 30
0.0
 11
10475.21667420322
 21
-1475.727886542697
 31
0.0
  0
LINE
  5
F257
330
2
100
AcDbEntity
  8
VLB
100
AcDbLine
 10
10565.91284648501
 20
-1385.86186113894
 30
0.0
 11
10565.91284648501
 21
-1386.861861138911
 31
0.0
  0
LINE
  5
F258
330
2
100
AcDbEntity
  8
VLB
100
AcDbLine
 10
10541.19461393932
 20
-1439.336938779432
 30
0.0
 11
10541.19461393932
 21
-1440.336938779403
 31
0.0
  0
LINE
  5
F259
330
2
100
AcDbEntity
  8
SPS
100
AcDbLine
 10
10546.19461393932
 20
-1447.167085657419
 30
0.0
 11
10546.19461393932
 21
-1433.50679190139
 31
0.0
  0
LINE
  5
F25A
330
2
100
AcDbEntity
  8
VLB
100
AcDbLine
 10
10551.19461393932
 20
-1440.336938779403
 30
0.0
 11
10551.19461393932
 21
-1439.336938779432
 31
0.0
  0
LINE
  5
F25B
330
2
100
AcDbEntity
  8
SPS
100
AcDbLine
 10
10538.19461393932
 20
-1440.336938779403
 30
0.0
 11
10554.19461393932
 21
-1440.336938779403
 31
0.0
  0
ELLIPSE
  5
F25C
330
2
100
AcDbEntity
  8
VLB
100
AcDbEllipse
 10
10546.19461393932
 20
-1439.336938779432
 30
0.0
 11
-5.0
 21
0.0000000000000059
 31
0.0
210
0.0
220
0.0
230
1.0
 40
0.8660254037843287
 41
0.0
 42
6.283185307179586
  0
ELLIPSE
  5
F25D
330
2
100
AcDbEntity
  8
VLB
100
AcDbEllipse
 10
10546.19461393932
 20
-1440.336938779403
 30
0.0
 11
5.0
 21
-0.0000000000000059
 31
0.0
210
0.0
220
0.0
230
1.0
 40
0.7660254037896266
 41
3.141592653589793
 42
6.283185307179586
  0
ELLIPSE
  5
F25E
330
2
100
AcDbEntity
  8
VLB
100
AcDbEllipse
 10
10546.19461393932
 20
-1438.836938779434
 30
0.0
 11
-1.5
 21
0.0000000000000018
 31
0.0
210
0.0
220
0.0
230
1.0
 40
0.837082593832747
 41
0.0
 42
6.283185307179586
  0
HATCH
  5
F25F
330
2
100
AcDbEntity
  8
VLB
100
AcDbHatch
 10
0.0
 20
0.0
 30
0.0
210
0.0
220
0.0
230
1.0
  2
SOLID
 70
     1
 71
     0
 91
        2
 92
        5
 93
        2
 72
     3
 10
10546.19461393932
 20
-1438.836938779434
 11
-1.5
 21
0.0000000000000018
 40
0.837082593832747
 50
90.0
 51
270.0
 73
     1
 72
     1
 10
10546.19461393932
 20
-1437.581314888685
 11
10546.19461393932
 21
-1440.092562670184
 97
        0
 92
        5
 93
        2
 72
     3
 10
10546.19461393932
 20
-1438.836938779434
 11
-1.5
 21
0.0000000000000018
 40
0.837082593832747
 50
270.0
 51
450.0
 73
     1
 72
     1
 10
10546.19461393932
 20
-1440.092562670183
 11
10546.19461393932
 21
-1437.581314888686
 97
        0
 75
     0
 76
     1
 47
0.0516579537025894
 98
        2
 10
10547.02581902808
 20
-1439.07888870468
 10
10545.73330474334
 20
-1439.130546710307
  0
LINE
  5
F260
330
2
100
AcDbEntity
  8
SPS
100
AcDbLine
 10
10688.13756398267
 20
-1588.524420669154
 30
0.0
 11
10688.13756398267
 21
-1574.864126913125
 31
0.0
  0
HATCH
  5
F261
330
2
100
AcDbEntity
  8
VLB
100
AcDbHatch
 10
0.0
 20
0.0
 30
0.0
210
0.0
220
0.0
230
1.0
  2
SOLID
 70
     1
 71
     0
 91
        2
 92
        5
 93
        2
 72
     3
 10
10688.13756398267
 20
-1580.194273791169
 11
-1.5
 21
0.0000000000000018
 40
0.837082593832747
 50
90.0
 51
270.0
 73
     1
 72
     1
 10
10688.13756398267
 20
-1578.93864990042
 11
10688.13756398267
 21
-1581.449897681919
 97
        0
 92
        5
 93
        2
 72
     3
 10
10688.13756398267
 20
-1580.194273791169
 11
-1.5
 21
0.0000000000000018
 40
0.837082593832747
 50
270.0
 51
450.0
 73
     1
 72
     1
 10
10688.13756398267
 20
-1581.449897681918
 11
10688.13756398267
 21
-1578.93864990042
 97
        0
 75
     0
 76
     1
 47
0.0516579537025894
 98
        2
 10
10688.96876907143
 20
-1580.436223716415
 10
10687.67625478669
 20
-1580.487881722042
  0
ELLIPSE
  5
F262
330
2
100
AcDbEntity
  8
VLB
100
AcDbEllipse
 10
10688.13756398267
 20
-1580.194273791169
 30
0.0
 11
-1.5
 21
0.0000000000000018
 31
0.0
210
0.0
220
0.0
230
1.0
 40
0.837082593832747
 41
0.0
 42
6.283185307179586
  0
ELLIPSE
  5
F263
330
2
100
AcDbEntity
  8
VLB
100
AcDbEllipse
 10
10688.13756398267
 20
-1581.694273791138
 30
0.0
 11
5.0
 21
-0.0000000000000059
 31
0.0
210
0.0
220
0.0
230
1.0
 40
0.7660254037896266
 41
3.141592653589793
 42
6.283185307179586
  0
ELLIPSE
  5
F264
330
2
100
AcDbEntity
  8
VLB
100
AcDbEllipse
 10
10688.13756398267
 20
-1580.694273791167
 30
0.0
 11
-5.0
 21
0.0000000000000059
 31
0.0
210
0.0
220
0.0
230
1.0
 40
0.8660254037843287
 41
0.0
 42
6.283185307179586
  0
LINE
  5
F265
330
2
100
AcDbEntity
  8
VLB
100
AcDbLine
 10
10693.13756398267
 20
-1581.694273791138
 30
0.0
 11
10693.13756398267
 21
-1580.694273791167
 31
0.0
  0
LINE
  5
F266
330
2
100
AcDbEntity
  8
VLB
100
AcDbLine
 10
10683.13756398267
 20
-1580.694273791167
 30
0.0
 11
10683.13756398267
 21
-1581.694273791138
 31
0.0
  0
LINE
  5
F267
330
2
100
AcDbEntity
  8
SPS
100
AcDbLine
 10
10680.13756398267
 20
-1581.694273791138
 30
0.0
 11
10696.13756398267
 21
-1581.694273791138
 31
0.0
  0
LINE
  5
F268
330
2
100
AcDbEntity
  8
SPS
100
AcDbLine
 10
10570.912846485
 20
-1393.692008016924
 30
0.0
 11
10570.912846485
 21
-1380.031714260895
 31
0.0
  0
HATCH
  5
F269
330
2
100
AcDbEntity
  8
VLB
100
AcDbHatch
 10
0.0
 20
0.0
 30
0.0
210
0.0
220
0.0
230
1.0
  2
SOLID
 70
     1
 71
     0
 91
        2
 92
        5
 93
        2
 72
     3
 10
10570.912846485
 20
-1385.36186113894
 11
-1.5
 21
0.0000000000000018
 40
0.837082593832747
 50
90.0
 51
270.0
 73
     1
 72
     1
 10
10570.912846485
 20
-1384.106237248191
 11
10570.912846485
 21
-1386.617485029689
 97
        0
 92
        5
 93
        2
 72
     3
 10
10570.912846485
 20
-1385.36186113894
 11
-1.5
 21
0.0000000000000018
 40
0.837082593832747
 50
270.0
 51
450.0
 73
     1
 72
     1
 10
10570.912846485
 20
-1386.617485029689
 11
10570.912846485
 21
-1384.106237248191
 97
        0
 75
     0
 76
     1
 47
0.0516579537025894
 98
        2
 10
10571.74405157376
 20
-1385.603811064186
 10
10570.45153728902
 20
-1385.655469069813
  0
ELLIPSE
  5
F26A
330
2
100
AcDbEntity
  8
VLB
100
AcDbEllipse
 10
10570.912846485
 20
-1385.36186113894
 30
0.0
 11
-1.5
 21
0.0000000000000018
 31
0.0
210
0.0
220
0.0
230
1.0
 40
0.837082593832747
 41
0.0
 42
6.283185307179586
  0
LINE
  5
F26B
330
2
100
AcDbEntity
  8
VLB
100
AcDbLine
 10
10575.912846485
 20
-1386.861861138911
 30
0.0
 11
10575.912846485
 21
-1385.86186113894
 31
0.0
  0
LINE
  5
F26C
330
2
100
AcDbEntity
  8
SPS
100
AcDbLine
 10
10856.46832224737
 20
-1764.541692554248
 30
0.0
 11
10840.46832224737
 21
-1764.541692554248
 31
0.0
  0
ELLIPSE
  5
F26D
330
2
100
AcDbEntity
  8
VLB
100
AcDbEllipse
 10
10848.46832224737
 20
-1765.541692554219
 30
0.0
 11
5.0
 21
-0.0000000000000031
 31
0.0
210
0.0
220
0.0
230
1.0
 40
0.8660254037843287
 41
0.0
 42
6.283185307179586
  0
ELLIPSE
  5
F26E
330
2
100
AcDbEntity
  8
VLB
100
AcDbEllipse
 10
10848.46832224737
 20
-1764.541692554248
 30
0.0
 11
-5.0
 21
0.0000000000000031
 31
0.0
210
0.0
220
0.0
230
1.0
 40
0.7660254037896266
 41
3.141592653589793
 42
6.283185307179586
  0
LINE
  5
F26F
330
2
100
AcDbEntity
  8
SPS
100
AcDbLine
 10
10846.27694840389
 20
-1983.861861138896
 30
0.0
 11
10815.54874456613
 21
-1983.861861138896
 31
0.0
  0
LINE
  5
F270
330
2
100
AcDbEntity
  8
VLB
100
AcDbLine
 10
10840.91284648501
 20
-1983.861861138896
 30
0.0
 11
10840.91284648501
 21
-1990.097244046141
 31
0.0
  0
ELLIPSE
  5
F271
330
2
100
AcDbEntity
  8
VLB
100
AcDbEllipse
 10
10830.91284648501
 20
-1990.097244046141
 30
0.0
 11
-10.0
 21
0.0000000000000107
 31
0.0
210
0.0
220
0.0
230
1.0
 40
0.5
 41
8.265498480041987
 42
10.58405744149677
  0
LINE
  5
F272
330
2
100
AcDbEntity
  8
VLB
100
AcDbLine
 10
10820.91284648501
 20
-1983.861861138896
 30
0.0
 11
10820.91284648501
 21
-1990.097244046141
 31
0.0
  0
ELLIPSE
  5
F273
330
2
100
AcDbEntity
  8
VLB
100
AcDbEllipse
 10
10830.91284648501
 20
-1990.097244046141
 30
0.0
 11
-10.0
 21
0.0000000000000107
 31
0.0
210
0.0
220
0.0
230
1.0
 40
0.5
 41
5.123905826452122
 42
7.44246478790705
  0
ELLIPSE
  5
F274
330
2
100
AcDbEntity
  8
VLB
100
AcDbEllipse
 10
10830.91284648501
 20
-1983.861861138896
 30
0.0
 11
10.0
 21
-0.0000000000000107
 31
0.0
210
0.0
220
0.0
230
1.0
 40
0.5
 41
0.0
 42
3.141592653589793
  0
ARC
  5
F275
330
2
100
AcDbEntity
  8
VLB
100
AcDbCircle
 10
10830.91284648501
 20
-1986.046574804304
 30
0.0
 40
4.557737794105547
100
AcDbArc
 50
28.64241455295521
 51
151.3575854471061
  0
LINE
  5
F276
330
2
100
AcDbEntity
  8
SPS
100
AcDbLine
 10
10838.91284648501
 20
-1999.450318407012
 30
0.0
 11
10822.91284648501
 21
-1999.450318407012
 31
0.0
  0
LINE
  5
F277
330
2
100
AcDbEntity
  8
VLB
100
AcDbLine
 10
10843.46832224737
 20
-1764.541692554248
 30
0.0
 11
10843.46832224737
 21
-1765.541692554219
 31
0.0
  0
LINE
  5
F278
330
2
100
AcDbEntity
  8
SPS
100
AcDbLine
 10
10802.09904047345
 20
-1761.283362305043
 30
0.0
 11
10802.09904047345
 21
-1745.283362305043
 31
0.0
  0
HATCH
  5
F279
330
2
100
AcDbEntity
  8
VLB
100
AcDbHatch
 10
0.0
 20
0.0
 30
0.0
210
0.0
220
0.0
230
1.0
  2
SOLID
 70
     1
 71
     0
 91
        2
 92
        5
 93
        2
 72
     3
 10
10800.59904047349
 20
-1753.283362305043
 11
-0.0000000000000025
 21
-1.5
 40
0.837082593832747
 50
90.0
 51
270.0
 73
     1
 72
     1
 10
10799.34341658274
 20
-1753.283362305043
 11
10801.85466436423
 21
-1753.283362305043
 97
        0
 92
        5
 93
        2
 72
     3
 10
10800.59904047349
 20
-1753.283362305043
 11
-0.0000000000000025
 21
-1.5
 40
0.837082593832747
 50
270.0
 51
450.0
 73
     1
 72
     1
 10
10801.85466436423
 20
-1753.283362305043
 11
10799.34341658274
 21
-1753.283362305043
 97
        0
 75
     0
 76
     1
 47
0.0516579537025894
 98
        2
 10
10800.84099039873
 20
-1752.452157216285
 10
10800.89264840436
 20
-1753.744671501025
  0
ELLIPSE
  5
F27A
330
2
100
AcDbEntity
  8
VLB
100
AcDbEllipse
 10
10800.59904047349
 20
-1753.283362305043
 30
0.0
 11
-0.0000000000000025
 21
-1.5
 31
0.0
210
0.0
220
0.0
230
1.0
 40
0.837082593832747
 41
0.0
 42
6.283185307179586
  0
ELLIPSE
  5
F27B
330
2
100
AcDbEntity
  8
VLB
100
AcDbEllipse
 10
10802.09904047345
 20
-1753.283362305043
 30
0.0
 11
0.0000000000000084
 21
5.0
 31
0.0
210
0.0
220
0.0
230
1.0
 40
0.7660254037896266
 41
3.141592653589793
 42
6.283185307179586
  0
ELLIPSE
  5
F27C
330
2
100
AcDbEntity
  8
VLB
100
AcDbEllipse
 10
10801.09904047348
 20
-1753.283362305043
 30
0.0
 11
-0.0000000000000084
 21
-5.0
 31
0.0
210
0.0
220
0.0
230
1.0
 40
0.8660254037843287
 41
0.0
 42
6.283185307179586
  0
LINE
  5
F27D
330
2
100
AcDbEntity
  8
VLB
100
AcDbLine
 10
10802.09904047345
 20
-1748.283362305043
 30
0.0
 11
10801.09904047348
 21
-1748.283362305043
 31
0.0
  0
LINE
  5
F27E
330
2
100
AcDbEntity
  8
SPS
100
AcDbLine
 10
10808.92918735147
 20
-1753.283362305043
 30
0.0
 11
10795.26889359544
 21
-1753.283362305043
 31
0.0
  0
LINE
  5
F27F
330
2
100
AcDbEntity
  8
VLB
100
AcDbLine
 10
10801.09904047348
 20
-1758.283362305043
 30
0.0
 11
10802.09904047345
 21
-1758.283362305043
 31
0.0
  0
HATCH
  5
F280
330
2
100
AcDbEntity
  8
VLB
100
AcDbHatch
 10
0.0
 20
0.0
 30
0.0
210
0.0
220
0.0
230
1.0
  2
SOLID
 70
     1
 71
     0
 91
        2
 92
        5
 93
        2
 72
     3
 10
10813.35737072266
 20
-1705.414080531161
 11
-1.5
 21
0.0000000000000018
 40
0.837082593832747
 50
90.0
 51
270.0
 73
     1
 72
     1
 10
10813.35737072266
 20
-1704.158456640412
 11
10813.35737072266
 21
-1706.66970442191
 97
        0
 92
        5
 93
        2
 72
     3
 10
10813.35737072266
 20
-1705.414080531161
 11
-1.5
 21
0.0000000000000018
 40
0.837082593832747
 50
270.0
 51
450.0
 73
     1
 72
     1
 10
10813.35737072266
 20
-1706.66970442191
 11
10813.35737072266
 21
-1704.158456640412
 97
        0
 75
     0
 76
     1
 47
0.0516579537025894
 98
        2
 10
10814.18857581142
 20
-1705.656030456407
 10
10812.89606152668
 20
-1705.707688462034
  0
ELLIPSE
  5
F281
330
2
100
AcDbEntity
  8
VLB
100
AcDbEllipse
 10
10813.35737072266
 20
-1705.414080531161
 30
0.0
 11
-1.5
 21
0.0000000000000018
 31
0.0
210
0.0
220
0.0
230
1.0
 40
0.837082593832747
 41
0.0
 42
6.283185307179586
  0
ELLIPSE
  5
F282
330
2
100
AcDbEntity
  8
VLB
100
AcDbEllipse
 10
10813.35737072266
 20
-1706.91408053113
 30
0.0
 11
5.0
 21
-0.0000000000000059
 31
0.0
210
0.0
220
0.0
230
1.0
 40
0.7660254037896266
 41
3.141592653589793
 42
6.283185307179586
  0
ELLIPSE
  5
F283
330
2
100
AcDbEntity
  8
VLB
100
AcDbEllipse
 10
10813.35737072266
 20
-1705.914080531159
 30
0.0
 11
-5.0
 21
0.0000000000000059
 31
0.0
210
0.0
220
0.0
230
1.0
 40
0.8660254037843287
 41
0.0
 42
6.283185307179586
  0
LINE
  5
F284
330
2
100
AcDbEntity
  8
SPS
100
AcDbLine
 10
10805.35737072266
 20
-1706.91408053113
 30
0.0
 11
10821.35737072266
 21
-1706.91408053113
 31
0.0
  0
LINE
  5
F285
330
2
100
AcDbEntity
  8
VLB
100
AcDbLine
 10
10818.35737072266
 20
-1706.91408053113
 30
0.0
 11
10818.35737072266
 21
-1705.914080531159
 31
0.0
  0
LINE
  5
F286
330
2
100
AcDbEntity
  8
SPS
100
AcDbLine
 10
10813.35737072266
 20
-1713.744227409145
 30
0.0
 11
10813.35737072266
 21
-1700.083933653116
 31
0.0
  0
LINE
  5
F287
330
2
100
AcDbEntity
  8
VLB
100
AcDbLine
 10
10808.35737072266
 20
-1705.914080531159
 30
0.0
 11
10808.35737072266
 21
-1706.91408053113
 31
0.0
  0
LINE
  5
F288
330
2
100
AcDbEntity
  8
VLB
100
AcDbLine
 10
10978.68812898736
 20
-1890.761499294211
 30
0.0
 11
10978.68812898736
 21
-1889.76149929424
 31
0.0
  0
LINE
  5
F289
330
2
100
AcDbEntity
  8
SPS
100
AcDbLine
 10
10973.68812898736
 20
-1882.931352416225
 30
0.0
 11
10973.68812898736
 21
-1896.591646172254
 31
0.0
  0
LINE
  5
F28A
330
2
100
AcDbEntity
  8
VLB
100
AcDbLine
 10
10968.68812898736
 20
-1889.76149929424
 30
0.0
 11
10968.68812898736
 21
-1890.761499294211
 31
0.0
  0
LINE
  5
F28B
330
2
100
AcDbEntity
  8
SPS
100
AcDbLine
 10
10981.68812898736
 20
-1889.76149929424
 30
0.0
 11
10965.68812898736
 21
-1889.76149929424
 31
0.0
  0
ELLIPSE
  5
F28C
330
2
100
AcDbEntity
  8
VLB
100
AcDbEllipse
 10
10973.68812898736
 20
-1890.761499294211
 30
0.0
 11
5.0
 21
-0.0000000000000031
 31
0.0
210
0.0
220
0.0
230
1.0
 40
0.8660254037843287
 41
0.0
 42
6.283185307179586
  0
ELLIPSE
  5
F28D
330
2
100
AcDbEntity
  8
VLB
100
AcDbEllipse
 10
10973.68812898736
 20
-1889.76149929424
 30
0.0
 11
-5.0
 21
0.0000000000000031
 31
0.0
210
0.0
220
0.0
230
1.0
 40
0.7660254037896266
 41
3.141592653589793
 42
6.283185307179586
  0
ELLIPSE
  5
F28E
330
2
100
AcDbEntity
  8
VLB
100
AcDbEllipse
 10
10973.68812898736
 20
-1891.261499294209
 30
0.0
 11
1.5
 21
-0.0000000000000009
 31
0.0
210
0.0
220
0.0
230
1.0
 40
0.837082593832747
 41
0.0
 42
6.283185307179586
  0
HATCH
  5
F28F
330
2
100
AcDbEntity
  8
VLB
100
AcDbHatch
 10
0.0
 20
0.0
 30
0.0
210
0.0
220
0.0
230
1.0
  2
SOLID
 70
     1
 71
     0
 91
        2
 92
        5
 93
        2
 72
     3
 10
10973.68812898736
 20
-1891.261499294209
 11
1.5
 21
-0.0000000000000009
 40
0.837082593832747
 50
90.0
 51
270.0
 73
     1
 72
     1
 10
10973.68812898736
 20
-1892.517123184958
 11
10973.68812898736
 21
-1890.00587540346
 97
        0
 92
        5
 93
        2
 72
     3
 10
10973.68812898736
 20
-1891.261499294209
 11
1.5
 21
-0.0000000000000009
 40
0.837082593832747
 50
270.0
 51
450.0
 73
     1
 72
     1
 10
10973.68812898736
 20
-1890.00587540346
 11
10973.68812898736
 21
-1892.517123184958
 97
        0
 75
     0
 76
     1
 47
0.0516579537025894
 98
        2
 10
10972.8569238986
 20
-1891.019549368963
 10
10974.14943818334
 20
-1890.967891363336
  0
LINE
  5
F290
330
2
100
AcDbEntity
  8
VLB
100
AcDbLine
 10
10853.46832224737
 20
-1765.541692554219
 30
0.0
 11
10853.46832224737
 21
-1764.541692554248
 31
0.0
  0
LINE
  5
F291
330
2
100
AcDbEntity
  8
SPS
100
AcDbLine
 10
10848.46832224737
 20
-1757.711545676233
 30
0.0
 11
10848.46832224737
 21
-1771.371839432262
 31
0.0
  0
ELLIPSE
  5
F292
330
2
100
AcDbEntity
  8
VLB
100
AcDbEllipse
 10
10848.46832224737
 20
-1766.041692554217
 30
0.0
 11
1.5
 21
-0.0000000000000009
 31
0.0
210
0.0
220
0.0
230
1.0
 40
0.837082593832747
 41
0.0
 42
6.283185307179586
  0
HATCH
  5
F293
330
2
100
AcDbEntity
  8
VLB
100
AcDbHatch
 10
0.0
 20
0.0
 30
0.0
210
0.0
220
0.0
230
1.0
  2
SOLID
 70
     1
 71
     0
 91
        2
 92
        5
 93
        2
 72
     3
 10
10848.46832224737
 20
-1766.041692554217
 11
1.5
 21
-0.0000000000000009
 40
0.837082593832747
 50
90.0
 51
270.0
 73
     1
 72
     1
 10
10848.46832224737
 20
-1767.297316444967
 11
10848.46832224737
 21
-1764.786068663468
 97
        0
 92
        5
 93
        2
 72
     3
 10
10848.46832224737
 20
-1766.041692554217
 11
1.5
 21
-0.0000000000000009
 40
0.837082593832747
 50
270.0
 51
450.0
 73
     1
 72
     1
 10
10848.46832224737
 20
-1764.786068663468
 11
10848.46832224737
 21
-1767.297316444966
 97
        0
 75
     0
 76
     1
 47
0.0516579537025894
 98
        2
 10
10847.63711715861
 20
-1765.799742628971
 10
10848.92963144335
 20
-1765.748084623344
  0
HATCH
  5
F294
330
2
100
AcDbEntity
  8
VLB
100
AcDbHatch
 10
0.0
 20
0.0
 30
0.0
210
0.0
220
0.0
230
1.0
  2
SOLID
 70
     1
 71
     0
 91
        2
 92
        5
 93
        2
 72
     3
 10
10861.22665249654
 20
-1718.172410780336
 11
0.0000000000000013
 21
1.5
 40
0.837082593832747
 50
90.0
 51
270.0
 73
     1
 72
     1
 10
10862.48227638729
 20
-1718.172410780336
 11
10859.97102860579
 21
-1718.172410780336
 97
        0
 92
        5
 93
        2
 72
     3
 10
10861.22665249654
 20
-1718.172410780336
 11
0.0000000000000013
 21
1.5
 40
0.837082593832747
 50
270.0
 51
450.0
 73
     1
 72
     1
 10
10859.97102860579
 20
-1718.172410780336
 11
10862.48227638729
 21
-1718.172410780336
 97
        0
 75
     0
 76
     1
 47
0.0516579537025894
 98
        2
 10
10860.98470257129
 20
-1719.003615869093
 10
10860.93304456567
 20
-1717.711101584353
  0
ELLIPSE
  5
F295
330
2
100
AcDbEntity
  8
VLB
100
AcDbEllipse
 10
10861.22665249654
 20
-1718.172410780336
 30
0.0
 11
0.0000000000000013
 21
1.5
 31
0.0
210
0.0
220
0.0
230
1.0
 40
0.837082593832747
 41
0.0
 42
6.283185307179586
  0
ELLIPSE
  5
F296
330
2
100
AcDbEntity
  8
VLB
100
AcDbEllipse
 10
10859.72665249657
 20
-1718.172410780336
 30
0.0
 11
-0.0000000000000045
 21
-5.0
 31
0.0
210
0.0
220
0.0
230
1.0
 40
0.7660254037896266
 41
3.141592653589793
 42
6.283185307179586
  0
ELLIPSE
  5
F297
330
2
100
AcDbEntity
  8
VLB
100
AcDbEllipse
 10
10860.72665249654
 20
-1718.172410780336
 30
0.0
 11
0.0000000000000045
 21
5.0
 31
0.0
210
0.0
220
0.0
230
1.0
 40
0.8660254037843287
 41
0.0
 42
6.283185307179586
  0
LINE
  5
F298
330
2
100
AcDbEntity
  8
SPS
100
AcDbLine
 10
10859.72665249657
 20
-1710.172410780335
 30
0.0
 11
10859.72665249657
 21
-1726.172410780335
 31
0.0
  0
LINE
  5
F299
330
2
100
AcDbEntity
  8
VLB
100
AcDbLine
 10
10859.72665249657
 20
-1723.172410780335
 30
0.0
 11
10860.72665249654
 21
-1723.172410780335
 31
0.0
  0
LINE
  5
F29A
330
2
100
AcDbEntity
  8
SPS
100
AcDbLine
 10
10852.89650561856
 20
-1718.172410780336
 30
0.0
 11
10866.55679937458
 21
-1718.172410780336
 31
0.0
  0
LINE
  5
F29B
330
2
100
AcDbEntity
  8
VLB
100
AcDbLine
 10
10860.72665249654
 20
-1713.172410780335
 30
0.0
 11
10859.72665249657
 21
-1713.172410780335
 31
0.0
  0
LINE
  5
F29C
330
2
100
AcDbEntity
  8
SPS
100
AcDbLine
 10
10815.54874456613
 20
-1487.593911946483
 30
0.0
 11
10846.27694840389
 21
-1487.593911946483
 31
0.0
  0
LINE
  5
F29D
330
2
100
AcDbEntity
  8
SPS
100
AcDbLine
 10
10830.91284648501
 20
-1502.958013865364
 30
0.0
 11
10830.91284648501
 21
-1448.005454678362
 31
0.0
  0
ELLIPSE
  5
F29E
330
2
100
AcDbEntity
  8
VLB
100
AcDbEllipse
 10
10830.91284648501
 20
-1487.593911946483
 30
0.0
 11
-10.0
 21
0.0000000000000028
 31
0.0
210
0.0
220
0.0
230
1.0
 40
0.5
 41
0.0
 42
3.141592653589793
  0
ARC
  5
F29F
330
2
100
AcDbEntity
  8
VLB
100
AcDbCircle
 10
10830.91284648501
 20
-1485.409198281074
 30
0.0
 40
4.557737794105547
100
AcDbArc
 50
208.6424145529552
 51
331.3575854471062
  0
LINE
  5
F2A0
330
2
100
AcDbEntity
  8
VLB
100
AcDbLine
 10
10840.91284648501
 20
-1487.593911946483
 30
0.0
 11
10840.91284648501
 21
-1481.358529039237
 31
0.0
  0
LINE
  5
F2A1
330
2
100
AcDbEntity
  8
VLB
100
AcDbLine
 10
10834.91284648501
 20
-1487.593911946481
 30
0.0
 11
10834.91284648501
 21
-1458.005454678364
 31
0.0
  0
ELLIPSE
  5
F2A2
330
2
100
AcDbEntity
  8
VLB
100
AcDbEllipse
 10
10830.91284648501
 20
-1481.358529039237
 30
0.0
 11
10.0
 21
-0.0000000000000028
 31
0.0
210
0.0
220
0.0
230
1.0
 40
0.5
 41
5.123905826452122
 42
7.44246478790705
  0
LINE
  5
F2A3
330
2
100
AcDbEntity
  8
VLB
100
AcDbLine
 10
10835.91284648501
 20
-1386.861861138911
 30
0.0
 11
10835.91284648501
 21
-1385.86186113894
 31
0.0
  0
LINE
  5
F2A4
330
2
100
AcDbEntity
  8
VLB
100
AcDbLine
 10
10830.91284648501
 20
-1454.005454678362
 30
0.0
 11
10830.91284648501
 21
-1454.005454678364
 31
0.0
  0
LINE
  5
F2A5
330
2
100
AcDbEntity
  8
VLB
100
AcDbLine
 10
10820.91284648501
 20
-1487.593911946483
 30
0.0
 11
10820.91284648501
 21
-1481.358529039237
 31
0.0
  0
LINE
  5
F2A6
330
2
100
AcDbEntity
  8
VLB
100
AcDbLine
 10
10826.91284648501
 20
-1487.593911946483
 30
0.0
 11
10826.91284648501
 21
-1458.005454678362
 31
0.0
  0
ELLIPSE
  5
F2A7
330
2
100
AcDbEntity
  8
VLB
100
AcDbEllipse
 10
10830.91284648501
 20
-1481.358529039237
 30
0.0
 11
10.0
 21
-0.0000000000000028
 31
0.0
210
0.0
220
0.0
230
1.0
 40
0.5
 41
8.265498480041987
 42
10.58405744149677
  0
ARC
  5
F2A8
330
2
100
AcDbEntity
  8
VLB
100
AcDbCircle
 10
10830.91284648501
 20
-1458.005454678362
 30
0.0
 40
4.0
100
AcDbArc
 50
90.0
 51
180.0
  0
LINE
  5
F2A9
330
2
100
AcDbEntity
  8
SPS
100
AcDbLine
 10
10830.91284648501
 20
-1393.692008016924
 30
0.0
 11
10830.91284648501
 21
-1380.031714260895
 31
0.0
  0
HATCH
  5
F2AA
330
2
100
AcDbEntity
  8
VLB
100
AcDbHatch
 10
0.0
 20
0.0
 30
0.0
210
0.0
220
0.0
230
1.0
  2
SOLID
 70
     1
 71
     0
 91
        2
 92
        5
 93
        2
 72
     3
 10
10830.91284648501
 20
-1385.36186113894
 11
-1.5
 21
0.0000000000000018
 40
0.837082593832747
 50
90.0
 51
270.0
 73
     1
 72
     1
 10
10830.91284648501
 20
-1384.106237248191
 11
10830.91284648501
 21
-1386.617485029689
 97
        0
 92
        5
 93
        2
 72
     3
 10
10830.91284648501
 20
-1385.36186113894
 11
-1.5
 21
0.0000000000000018
 40
0.837082593832747
 50
270.0
 51
450.0
 73
     1
 72
     1
 10
10830.91284648501
 20
-1386.617485029689
 11
10830.91284648501
 21
-1384.106237248191
 97
        0
 75
     0
 76
     1
 47
0.0516579537025894
 98
        2
 10
10831.74405157377
 20
-1385.603811064186
 10
10830.45153728903
 20
-1385.655469069813
  0
ELLIPSE
  5
F2AB
330
2
100
AcDbEntity
  8
VLB
100
AcDbEllipse
 10
10830.91284648501
 20
-1385.36186113894
 30
0.0
 11
-1.5
 21
0.0000000000000018
 31
0.0
210
0.0
220
0.0
230
1.0
 40
0.837082593832747
 41
0.0
 42
6.283185307179586
  0
LINE
  5
F2AC
330
2
100
AcDbEntity
  8
VLB
100
AcDbLine
 10
10825.91284648501
 20
-1385.86186113894
 30
0.0
 11
10825.91284648501
 21
-1386.861861138911
 31
0.0
  0
LINE
  5
F2AD
330
2
100
AcDbEntity
  8
SPS
100
AcDbLine
 10
10822.91284648501
 20
-1472.005454678367
 30
0.0
 11
10838.91284648501
 21
-1472.005454678367
 31
0.0
  0
ARC
  5
F2AE
330
2
100
AcDbEntity
  8
VLB
100
AcDbCircle
 10
10830.91284648501
 20
-1458.005454678364
 30
0.0
 40
4.0
100
AcDbArc
 50
0.0
 51
90.0
  0
ELLIPSE
  5
F2AF
330
2
100
AcDbEntity
  8
VLB
100
AcDbEllipse
 10
10830.91284648501
 20
-1386.861861138911
 30
0.0
 11
5.0
 21
-0.0000000000000059
 31
0.0
210
0.0
220
0.0
230
1.0
 40
0.7660254037896266
 41
3.141592653589793
 42
6.283185307179586
  0
ELLIPSE
  5
F2B0
330
2
100
AcDbEntity
  8
VLB
100
AcDbEllipse
 10
10830.91284648501
 20
-1385.86186113894
 30
0.0
 11
-5.0
 21
0.0000000000000059
 31
0.0
210
0.0
220
0.0
230
1.0
 40
0.8660254037843287
 41
0.0
 42
6.283185307179586
  0
LINE
  5
F2B1
330
2
100
AcDbEntity
  8
SPS
100
AcDbLine
 10
10822.91284648501
 20
-1386.861861138911
 30
0.0
 11
10838.91284648501
 21
-1386.861861138911
 31
0.0
  0
LINE
  5
F2B2
330
2
100
AcDbEntity
  8
SPS
100
AcDbLine
 10
10641.96231997025
 20
-1298.320555197441
 30
0.0
 11
10624.86284648501
 21
-1298.320555197441
 31
0.0
  0
LINE
  5
F2B3
330
2
100
AcDbEntity
  8
SPS
100
AcDbLine
 10
10633.41284648501
 20
-1291.04547367142
 30
0.0
 11
10633.41284648501
 21
-1305.595936743854
 31
0.0
  0
ELLIPSE
  5
F2B4
330
2
100
AcDbEntity
  8
VLB
100
AcDbEllipse
 10
10633.41284648501
 20
-1298.320555197441
 30
0.0
 11
-2.549999999999272
 21
0.0000000000000012
 31
0.0
210
0.0
220
0.0
230
1.0
 40
0.5
 41
0.0
 42
6.283185307179586
  0
LINE
  5
F2B5
330
2
100
AcDbEntity
  8
VLB
100
AcDbLine
 10
11112.63527834934
 20
-1735.727886542689
 30
0.0
 11
11112.63527834934
 21
-1735.727886542689
 31
0.0
  0
LINE
  5
F2B6
330
2
100
AcDbEntity
  8
SPS
100
AcDbLine
 10
11079.04682108122
 20
-1720.363784623808
 30
0.0
 11
11079.04682108122
 21
-1751.091988461571
 31
0.0
  0
LINE
  5
F2B7
330
2
100
AcDbEntity
  8
SPS
100
AcDbLine
 10
11094.63527834933
 20
-1727.727886542689
 30
0.0
 11
11094.63527834933
 21
-1743.727886542689
 31
0.0
  0
ELLIPSE
  5
F2B8
330
2
100
AcDbEntity
  8
VLB
100
AcDbEllipse
 10
11085.28220398846
 20
-1735.727886542689
 30
0.0
 11
0.0
 21
-10.0
 31
0.0
210
0.0
220
0.0
230
1.0
 40
0.5
 41
8.265498480041987
 42
10.58405744149677
  0
ARC
  5
F2B9
330
2
100
AcDbEntity
  8
VLB
100
AcDbCircle
 10
11081.23153474663
 20
-1735.727886542688
 30
0.0
 40
4.557737794105547
100
AcDbArc
 50
118.6424145528137
 51
241.3575854471862
  0
LINE
  5
F2BA
330
2
100
AcDbEntity
  8
VLB
100
AcDbLine
 10
11079.04682108122
 20
-1739.727886542688
 30
0.0
 11
11108.63527834934
 21
-1739.727886542689
 31
0.0
  0
LINE
  5
F2BB
330
2
100
AcDbEntity
  8
VLB
100
AcDbLine
 10
11079.04682108122
 20
-1731.727886542689
 30
0.0
 11
11108.63527834934
 21
-1731.727886542689
 31
0.0
  0
LINE
  5
F2BC
330
2
100
AcDbEntity
  8
VLB
100
AcDbLine
 10
11079.04682108122
 20
-1745.727886542689
 30
0.0
 11
11085.28220398846
 21
-1745.727886542689
 31
0.0
  0
ELLIPSE
  5
F2BD
330
2
100
AcDbEntity
  8
VLB
100
AcDbEllipse
 10
11085.28220398846
 20
-1735.727886542689
 30
0.0
 11
0.0
 21
-10.0
 31
0.0
210
0.0
220
0.0
230
1.0
 40
0.5
 41
5.123905826452122
 42
7.44246478790705
  0
ELLIPSE
  5
F2BE
330
2
100
AcDbEntity
  8
VLB
100
AcDbEllipse
 10
11079.04682108122
 20
-1735.727886542689
 30
0.0
 11
0.0
 21
10.0
 31
0.0
210
0.0
220
0.0
230
1.0
 40
0.5
 41
0.0
 42
3.141592653589793
  0
LINE
  5
F2BF
330
2
100
AcDbEntity
  8
VLB
100
AcDbLine
 10
11079.04682108122
 20
-1725.727886542689
 30
0.0
 11
11085.28220398846
 21
-1725.727886542689
 31
0.0
  0
ARC
  5
F2C0
330
2
100
AcDbEntity
  8
VLB
100
AcDbCircle
 10
11108.63527834934
 20
-1735.727886542689
 30
0.0
 40
4.0
100
AcDbArc
 50
270.0
 51
0.0
  0
ARC
  5
F2C1
330
2
100
AcDbEntity
  8
VLB
100
AcDbCircle
 10
11108.63527834934
 20
-1735.727886542689
 30
0.0
 40
4.0
100
AcDbArc
 50
0.0
 51
90.0
  0
LINE
  5
F2C2
330
2
100
AcDbEntity
  8
SPS
100
AcDbLine
 10
11063.68271916234
 20
-1735.727886542689
 30
0.0
 11
11118.63527834934
 21
-1735.727886542689
 31
0.0
  0
ELLIPSE
  5
F2C3
330
2
100
AcDbEntity
  8
VLB
100
AcDbEllipse
 10
11181.27887188876
 20
-1995.727886542682
 30
0.0
 11
0.0000000000000034
 21
1.5
 31
0.0
210
0.0
220
0.0
230
1.0
 40
0.837082593832747
 41
0.0
 42
6.283185307179586
  0
HATCH
  5
F2C4
330
2
100
AcDbEntity
  8
VLB
100
AcDbHatch
 10
0.0
 20
0.0
 30
0.0
210
0.0
220
0.0
230
1.0
  2
SOLID
 70
     1
 71
     0
 91
        2
 92
        5
 93
        2
 72
     3
 10
11181.27887188876
 20
-1995.727886542682
 11
0.0000000000000034
 21
1.5
 40
0.837082593832747
 50
90.0
 51
270.0
 73
     1
 72
     1
 10
11182.53449577951
 20
-1995.727886542682
 11
11180.02324799801
 21
-1995.727886542682
 97
        0
 92
        5
 93
        2
 72
     3
 10
11181.27887188876
 20
-1995.727886542682
 11
0.0000000000000034
 21
1.5
 40
0.837082593832747
 50
270.0
 51
450.0
 73
     1
 72
     1
 10
11180.02324799801
 20
-1995.727886542682
 11
11182.53449577951
 21
-1995.727886542682
 97
        0
 75
     0
 76
     1
 47
0.0516579537025894
 98
        2
 10
11181.03692196352
 20
-1996.55909163144
 10
11180.98526395789
 20
-1995.2665773467
  0
LINE
  5
F2C5
330
2
100
AcDbEntity
  8
VLB
100
AcDbLine
 10
11180.77887188876
 20
-1990.727886542682
 30
0.0
 11
11179.77887188879
 21
-1990.727886542682
 31
0.0
  0
LINE
  5
F2C6
330
2
100
AcDbEntity
  8
SPS
100
AcDbLine
 10
11172.94872501078
 20
-1995.727886542682
 30
0.0
 11
11186.60901876681
 21
-1995.727886542682
 31
0.0
  0
ELLIPSE
  5
F2C7
330
2
100
AcDbEntity
  8
VLB
100
AcDbEllipse
 10
11181.27887188876
 20
-1735.727886542687
 30
0.0
 11
0.0000000000000034
 21
1.5
 31
0.0
210
0.0
220
0.0
230
1.0
 40
0.837082593832747
 41
0.0
 42
6.283185307179586
  0
HATCH
  5
F2C8
330
2
100
AcDbEntity
  8
VLB
100
AcDbHatch
 10
0.0
 20
0.0
 30
0.0
210
0.0
220
0.0
230
1.0
  2
SOLID
 70
     1
 71
     0
 91
        2
 92
        5
 93
        2
 72
     3
 10
11181.27887188876
 20
-1735.727886542687
 11
0.0000000000000034
 21
1.5
 40
0.837082593832747
 50
90.0
 51
270.0
 73
     1
 72
     1
 10
11182.53449577951
 20
-1735.727886542687
 11
11180.02324799801
 21
-1735.727886542687
 97
        0
 92
        5
 93
        2
 72
     3
 10
11181.27887188876
 20
-1735.727886542687
 11
0.0000000000000034
 21
1.5
 40
0.837082593832747
 50
270.0
 51
450.0
 73
     1
 72
     1
 10
11180.02324799801
 20
-1735.727886542687
 11
11182.53449577951
 21
-1735.727886542687
 97
        0
 75
     0
 76
     1
 47
0.0516579537025894
 98
        2
 10
11181.03692196352
 20
-1736.559091631446
 10
11180.98526395789
 20
-1735.266577346706
  0
LINE
  5
F2C9
330
2
100
AcDbEntity
  8
SPS
100
AcDbLine
 10
11179.77887188879
 20
-1727.727886542687
 30
0.0
 11
11179.77887188879
 21
-1743.727886542687
 31
0.0
  0
ELLIPSE
  5
F2CA
330
2
100
AcDbEntity
  8
VLB
100
AcDbEllipse
 10
11179.77887188879
 20
-1735.727886542687
 30
0.0
 11
-0.0000000000000113
 21
-5.0
 31
0.0
210
0.0
220
0.0
230
1.0
 40
0.7660254037896266
 41
3.141592653589793
 42
6.283185307179586
  0
LINE
  5
F2CB
330
2
100
AcDbEntity
  8
VLB
100
AcDbLine
 10
11179.77887188879
 20
-1740.727886542687
 30
0.0
 11
11180.77887188876
 21
-1740.727886542687
 31
0.0
  0
LINE
  5
F2CC
330
2
100
AcDbEntity
  8
VLB
100
AcDbLine
 10
11180.77887188876
 20
-1730.727886542688
 30
0.0
 11
11179.77887188879
 21
-1730.727886542688
 31
0.0
  0
ELLIPSE
  5
F2CD
330
2
100
AcDbEntity
  8
VLB
100
AcDbEllipse
 10
11180.77887188876
 20
-1735.727886542687
 30
0.0
 11
0.0000000000000113
 21
5.0
 31
0.0
210
0.0
220
0.0
230
1.0
 40
0.8660254037843287
 41
0.0
 42
6.283185307179586
  0
LINE
  5
F2CE
330
2
100
AcDbEntity
  8
SPS
100
AcDbLine
 10
11172.94872501078
 20
-1735.727886542687
 30
0.0
 11
11186.60901876681
 21
-1735.727886542687
 31
0.0
  0
LINE
  5
F2CF
330
2
100
AcDbEntity
  8
SPS
100
AcDbLine
 10
11119.47364737028
 20
-1451.009653996997
 30
0.0
 11
11133.13394112631
 21
-1451.009653996997
 31
0.0
  0
HATCH
  5
F2D0
330
2
100
AcDbEntity
  8
VLB
100
AcDbHatch
 10
0.0
 20
0.0
 30
0.0
210
0.0
220
0.0
230
1.0
  2
SOLID
 70
     1
 71
     0
 91
        2
 92
        5
 93
        2
 72
     3
 10
10986.44645923653
 20
-1592.952604040344
 11
0.0000000000000013
 21
1.5
 40
0.837082593832747
 50
90.0
 51
270.0
 73
     1
 72
     1
 10
10987.70208312728
 20
-1592.952604040344
 11
10985.19083534578
 21
-1592.952604040344
 97
        0
 92
        5
 93
        2
 72
     3
 10
10986.44645923653
 20
-1592.952604040344
 11
0.0000000000000013
 21
1.5
 40
0.837082593832747
 50
270.0
 51
450.0
 73
     1
 72
     1
 10
10985.19083534578
 20
-1592.952604040344
 11
10987.70208312728
 21
-1592.952604040344
 97
        0
 75
     0
 76
     1
 47
0.0516579537025894
 98
        2
 10
10986.20450931129
 20
-1593.783809129102
 10
10986.15285130566
 20
-1592.491294844362
  0
ELLIPSE
  5
F2D1
330
2
100
AcDbEntity
  8
VLB
100
AcDbEllipse
 10
10986.44645923653
 20
-1592.952604040344
 30
0.0
 11
0.0000000000000013
 21
1.5
 31
0.0
210
0.0
220
0.0
230
1.0
 40
0.837082593832747
 41
0.0
 42
6.283185307179586
  0
LINE
  5
F2D2
330
2
100
AcDbEntity
  8
SPS
100
AcDbLine
 10
10984.94645923656
 20
-1584.952604040344
 30
0.0
 11
10984.94645923656
 21
-1600.952604040344
 31
0.0
  0
LINE
  5
F2D3
330
2
100
AcDbEntity
  8
VLB
100
AcDbLine
 10
10984.94645923656
 20
-1597.952604040344
 30
0.0
 11
10985.94645923653
 21
-1597.952604040344
 31
0.0
  0
LINE
  5
F2D4
330
2
100
AcDbEntity
  8
VLB
100
AcDbLine
 10
10985.94645923653
 20
-1587.952604040344
 30
0.0
 11
10984.94645923656
 21
-1587.952604040344
 31
0.0
  0
ELLIPSE
  5
F2D5
330
2
100
AcDbEntity
  8
VLB
100
AcDbEllipse
 10
11090.91284648501
 20
-1386.861861138911
 30
0.0
 11
5.0
 21
-0.0000000000000059
 31
0.0
210
0.0
220
0.0
230
1.0
 40
0.7660254037896266
 41
3.141592653589793
 42
6.283185307179586
  0
ELLIPSE
  5
F2D6
330
2
100
AcDbEntity
  8
VLB
100
AcDbEllipse
 10
11090.91284648501
 20
-1385.86186113894
 30
0.0
 11
-5.0
 21
0.0000000000000059
 31
0.0
210
0.0
220
0.0
230
1.0
 40
0.8660254037843287
 41
0.0
 42
6.283185307179586
  0
LINE
  5
F2D7
330
2
100
AcDbEntity
  8
SPS
100
AcDbLine
 10
11090.91284648501
 20
-1393.692008016924
 30
0.0
 11
11090.91284648501
 21
-1380.031714260895
 31
0.0
  0
LINE
  5
F2D8
330
2
100
AcDbEntity
  8
SPS
100
AcDbLine
 10
11082.912846485
 20
-1386.861861138911
 30
0.0
 11
11098.912846485
 21
-1386.861861138911
 31
0.0
  0
HATCH
  5
F2D9
330
2
100
AcDbEntity
  8
VLB
100
AcDbHatch
 10
0.0
 20
0.0
 30
0.0
210
0.0
220
0.0
230
1.0
  2
SOLID
 70
     1
 71
     0
 91
        2
 92
        5
 93
        2
 72
     3
 10
11090.91284648501
 20
-1385.36186113894
 11
-1.5
 21
0.0000000000000018
 40
0.837082593832747
 50
90.0
 51
270.0
 73
     1
 72
     1
 10
11090.91284648501
 20
-1384.106237248191
 11
11090.91284648501
 21
-1386.617485029689
 97
        0
 92
        5
 93
        2
 72
     3
 10
11090.91284648501
 20
-1385.36186113894
 11
-1.5
 21
0.0000000000000018
 40
0.837082593832747
 50
270.0
 51
450.0
 73
     1
 72
     1
 10
11090.91284648501
 20
-1386.617485029689
 11
11090.91284648501
 21
-1384.106237248191
 97
        0
 75
     0
 76
     1
 47
0.0516579537025894
 98
        2
 10
11091.74405157376
 20
-1385.603811064186
 10
11090.45153728902
 20
-1385.655469069813
  0
ELLIPSE
  5
F2DA
330
2
100
AcDbEntity
  8
VLB
100
AcDbEllipse
 10
11090.91284648501
 20
-1385.36186113894
 30
0.0
 11
-1.5
 21
0.0000000000000018
 31
0.0
210
0.0
220
0.0
230
1.0
 40
0.837082593832747
 41
0.0
 42
6.283185307179586
  0
LINE
  5
F2DB
330
2
100
AcDbEntity
  8
VLB
100
AcDbLine
 10
11085.912846485
 20
-1385.86186113894
 30
0.0
 11
11085.912846485
 21
-1386.861861138911
 31
0.0
  0
LINE
  5
F2DC
330
2
100
AcDbEntity
  8
VLB
100
AcDbLine
 10
11095.912846485
 20
-1386.861861138911
 30
0.0
 11
11095.912846485
 21
-1385.86186113894
 31
0.0
  0
ELLIPSE
  5
F2DD
330
2
100
AcDbEntity
  8
VLB
100
AcDbEllipse
 10
11181.27887188876
 20
-1475.727886542682
 30
0.0
 11
0.0000000000000034
 21
1.5
 31
0.0
210
0.0
220
0.0
230
1.0
 40
0.837082593832747
 41
0.0
 42
6.283185307179586
  0
HATCH
  5
F2DE
330
2
100
AcDbEntity
  8
VLB
100
AcDbHatch
 10
0.0
 20
0.0
 30
0.0
210
0.0
220
0.0
230
1.0
  2
SOLID
 70
     1
 71
     0
 91
        2
 92
        5
 93
        2
 72
     3
 10
11181.27887188876
 20
-1475.727886542682
 11
0.0000000000000034
 21
1.5
 40
0.837082593832747
 50
90.0
 51
270.0
 73
     1
 72
     1
 10
11182.53449577951
 20
-1475.727886542682
 11
11180.02324799801
 21
-1475.727886542682
 97
        0
 92
        5
 93
        2
 72
     3
 10
11181.27887188876
 20
-1475.727886542682
 11
0.0000000000000034
 21
1.5
 40
0.837082593832747
 50
270.0
 51
450.0
 73
     1
 72
     1
 10
11180.02324799801
 20
-1475.727886542682
 11
11182.53449577951
 21
-1475.727886542682
 97
        0
 75
     0
 76
     1
 47
0.0516579537025894
 98
        2
 10
11181.03692196352
 20
-1476.55909163144
 10
11180.98526395789
 20
-1475.2665773467
  0
LINE
  5
F2DF
330
2
100
AcDbEntity
  8
VLB
100
AcDbLine
 10
11127.30379424827
 20
-1446.009653996997
 30
0.0
 11
11126.3037942483
 21
-1446.009653996997
 31
0.0
  0
LINE
  5
F2E0
330
2
100
AcDbEntity
  8
VLB
100
AcDbLine
 10
11126.3037942483
 20
-1456.009653996997
 30
0.0
 11
11127.30379424827
 21
-1456.009653996997
 31
0.0
  0
LINE
  5
F2E1
330
2
100
AcDbEntity
  8
SPS
100
AcDbLine
 10
11126.3037942483
 20
-1443.009653996997
 30
0.0
 11
11126.3037942483
 21
-1459.009653996997
 31
0.0
  0
ELLIPSE
  5
F2E2
330
2
100
AcDbEntity
  8
VLB
100
AcDbEllipse
 10
11127.30379424827
 20
-1451.009653996997
 30
0.0
 11
0.0000000000000045
 21
5.0
 31
0.0
210
0.0
220
0.0
230
1.0
 40
0.8660254037843287
 41
0.0
 42
6.283185307179586
  0
ELLIPSE
  5
F2E3
330
2
100
AcDbEntity
  8
VLB
100
AcDbEllipse
 10
11126.3037942483
 20
-1451.009653996997
 30
0.0
 11
-0.0000000000000045
 21
-5.0
 31
0.0
210
0.0
220
0.0
230
1.0
 40
0.7660254037896266
 41
3.141592653589793
 42
6.283185307179586
  0
ELLIPSE
  5
F2E4
330
2
100
AcDbEntity
  8
VLB
100
AcDbEllipse
 10
11127.80379424827
 20
-1451.009653996997
 30
0.0
 11
0.0000000000000013
 21
1.5
 31
0.0
210
0.0
220
0.0
230
1.0
 40
0.837082593832747
 41
0.0
 42
6.283185307179586
  0
HATCH
  5
F2E5
330
2
100
AcDbEntity
  8
VLB
100
AcDbHatch
 10
0.0
 20
0.0
 30
0.0
210
0.0
220
0.0
230
1.0
  2
SOLID
 70
     1
 71
     0
 91
        2
 92
        5
 93
        2
 72
     3
 10
11127.80379424827
 20
-1451.009653996997
 11
0.0000000000000013
 21
1.5
 40
0.837082593832747
 50
90.0
 51
270.0
 73
     1
 72
     1
 10
11129.05941813902
 20
-1451.009653996997
 11
11126.54817035752
 21
-1451.009653996997
 97
        0
 92
        5
 93
        2
 72
     3
 10
11127.80379424827
 20
-1451.009653996997
 11
0.0000000000000013
 21
1.5
 40
0.837082593832747
 50
270.0
 51
450.0
 73
     1
 72
     1
 10
11126.54817035752
 20
-1451.009653996997
 11
11129.05941813902
 21
-1451.009653996997
 97
        0
 75
     0
 76
     1
 47
0.0516579537025894
 98
        2
 10
11127.56184432302
 20
-1451.840859085755
 10
11127.51018631739
 20
-1450.548344801015
  0
LINE
  5
F2E6
330
2
100
AcDbEntity
  8
SPS
100
AcDbLine
 10
11179.77887188879
 20
-1467.727886542682
 30
0.0
 11
11179.77887188879
 21
-1483.727886542682
 31
0.0
  0
ELLIPSE
  5
F2E7
330
2
100
AcDbEntity
  8
VLB
100
AcDbEllipse
 10
11179.77887188879
 20
-1475.727886542682
 30
0.0
 11
-0.0000000000000113
 21
-5.0
 31
0.0
210
0.0
220
0.0
230
1.0
 40
0.7660254037896266
 41
3.141592653589793
 42
6.283185307179586
  0
LINE
  5
F2E8
330
2
100
AcDbEntity
  8
VLB
100
AcDbLine
 10
11179.77887188879
 20
-1480.727886542682
 30
0.0
 11
11180.77887188876
 21
-1480.727886542682
 31
0.0
  0
LINE
  5
F2E9
330
2
100
AcDbEntity
  8
VLB
100
AcDbLine
 10
11180.77887188876
 20
-1470.727886542682
 30
0.0
 11
11179.77887188879
 21
-1470.727886542682
 31
0.0
  0
ELLIPSE
  5
F2EA
330
2
100
AcDbEntity
  8
VLB
100
AcDbEllipse
 10
11180.77887188876
 20
-1475.727886542682
 30
0.0
 11
0.0000000000000113
 21
5.0
 31
0.0
210
0.0
220
0.0
230
1.0
 40
0.8660254037843287
 41
0.0
 42
6.283185307179586
  0
LINE
  5
F2EB
330
2
100
AcDbEntity
  8
SPS
100
AcDbLine
 10
11172.94872501078
 20
-1475.727886542682
 30
0.0
 11
11186.60901876681
 21
-1475.727886542682
 31
0.0
  0
LINE
  5
F2EC
330
2
100
AcDbEntity
  8
SPS
100
AcDbLine
 10
11216.3037942483
 20
-1353.009653996997
 30
0.0
 11
11216.3037942483
 21
-1369.009653996997
 31
0.0
  0
LINE
  5
F2ED
330
2
100
AcDbEntity
  8
VLB
100
AcDbLine
 10
11217.30379424827
 20
-1356.009653996997
 30
0.0
 11
11216.3037942483
 21
-1356.009653996997
 31
0.0
  0
LINE
  5
F2EE
330
2
100
AcDbEntity
  8
VLB
100
AcDbLine
 10
11216.3037942483
 20
-1366.009653996997
 30
0.0
 11
11217.30379424827
 21
-1366.009653996997
 31
0.0
  0
ELLIPSE
  5
F2EF
330
2
100
AcDbEntity
  8
VLB
100
AcDbEllipse
 10
11217.30379424827
 20
-1361.009653996997
 30
0.0
 11
0.0000000000000045
 21
5.0
 31
0.0
210
0.0
220
0.0
230
1.0
 40
0.8660254037843287
 41
0.0
 42
6.283185307179586
  0
ELLIPSE
  5
F2F0
330
2
100
AcDbEntity
  8
VLB
100
AcDbEllipse
 10
11216.3037942483
 20
-1361.009653996997
 30
0.0
 11
-0.0000000000000045
 21
-5.0
 31
0.0
210
0.0
220
0.0
230
1.0
 40
0.7660254037896266
 41
3.141592653589793
 42
6.283185307179586
  0
ELLIPSE
  5
F2F1
330
2
100
AcDbEntity
  8
VLB
100
AcDbEllipse
 10
11217.80379424827
 20
-1361.009653996997
 30
0.0
 11
0.0000000000000013
 21
1.5
 31
0.0
210
0.0
220
0.0
230
1.0
 40
0.837082593832747
 41
0.0
 42
6.283185307179586
  0
HATCH
  5
F2F2
330
2
100
AcDbEntity
  8
VLB
100
AcDbHatch
 10
0.0
 20
0.0
 30
0.0
210
0.0
220
0.0
230
1.0
  2
SOLID
 70
     1
 71
     0
 91
        2
 92
        5
 93
        2
 72
     3
 10
11217.80379424827
 20
-1361.009653996997
 11
0.0000000000000013
 21
1.5
 40
0.837082593832747
 50
90.0
 51
270.0
 73
     1
 72
     1
 10
11219.05941813902
 20
-1361.009653996997
 11
11216.54817035752
 21
-1361.009653996997
 97
        0
 92
        5
 93
        2
 72
     3
 10
11217.80379424827
 20
-1361.009653996997
 11
0.0000000000000013
 21
1.5
 40
0.837082593832747
 50
270.0
 51
450.0
 73
     1
 72
     1
 10
11216.54817035752
 20
-1361.009653996997
 11
11219.05941813902
 21
-1361.009653996997
 97
        0
 75
     0
 76
     1
 47
0.0516579537025894
 98
        2
 10
11217.56184432302
 20
-1361.840859085755
 10
11217.51018631739
 20
-1360.548344801015
  0
LINE
  5
F2F3
330
2
100
AcDbEntity
  8
SPS
100
AcDbLine
 10
11209.47364737028
 20
-1361.009653996997
 30
0.0
 11
11223.13394112631
 21
-1361.009653996997
 31
0.0
  0
ARC
  5
F2F4
330
2
100
AcDbEntity
  8
VLB
100
AcDbCircle
 10
11266.92725657799
 20
-1924.889256736598
 30
0.0
 40
6.724905890916827
100
AcDbArc
 50
305.8356601628762
 51
337.5772853193951
  0
LINE
  5
F2F5
330
2
100
AcDbEntity
  8
SPS
100
AcDbLine
 10
11268.32017783026
 20
-1941.77736002792
 30
0.0
 11
11268.32017783026
 21
-1924.677886542684
 31
0.0
  0
ELLIPSE
  5
F2F6
330
2
100
AcDbEntity
  8
VLB
100
AcDbEllipse
 10
11273.44815387582
 20
-1933.227886542684
 30
0.0
 11
-0.0000000000000661
 21
4.999999999999545
 31
0.0
210
0.0
220
0.0
230
-1.0
 40
0.4484972699691251
 41
0.0
 42
6.283185307179586
  0
LINE
  5
F2F7
330
2
100
AcDbEntity
  8
VLB
100
AcDbLine
 10
11269.3664376707
 20
-1927.454383850787
 30
0.0
 11
11267.08714830506
 21
-1930.341135196737
 31
0.0
  0
ELLIPSE
  5
F2F8
330
2
100
AcDbEntity
  8
VLB
100
AcDbEllipse
 10
11269.29122379826
 20
-1933.227886542684
 30
0.0
 11
-0.0000000000000727
 21
5.5
 31
0.0
210
0.0
220
0.0
230
-1.0
 40
0.4708029923769408
 41
3.198708688530862
 42
6.226069272239205
  0
ELLIPSE
  5
F2F9
330
2
100
AcDbEntity
  8
VLB
100
AcDbEllipse
 10
11268.32017783026
 20
-1933.227886542684
 30
0.0
 11
-0.0000000000000727
 21
5.5
 31
0.0
210
0.0
220
0.0
230
-1.0
 40
0.5018190223973679
 41
3.141592653589793
 42
6.283185307179586
  0
LINE
  5
F2FA
330
2
100
AcDbEntity
  8
VLB
100
AcDbLine
 10
11274.93467482197
 20
-1929.484300899278
 30
0.0
 11
11275.69064022566
 21
-1930.341135196735
 31
0.0
  0
LINE
  5
F2FB
330
2
100
AcDbEntity
  8
VLB
100
AcDbLine
 10
11274.93467482197
 20
-1936.971472186091
 30
0.0
 11
11275.69064022566
 21
-1936.114637888632
 31
0.0
  0
LINE
  5
F2FC
330
2
100
AcDbEntity
  8
VLB
100
AcDbLine
 10
11268.32017783026
 20
-1938.727886542683
 30
0.0
 11
11269.15048842451
 21
-1938.727886542683
 31
0.0
  0
LINE
  5
F2FD
330
2
100
AcDbEntity
  8
VLB
100
AcDbLine
 10
11269.3664376707
 20
-1939.001389234583
 30
0.0
 11
11273.14372520011
 21
-1939.001389234583
 31
0.0
  0
LINE
  5
F2FE
330
2
100
AcDbEntity
  8
VLB
100
AcDbLine
 10
11273.14372520011
 20
-1939.001389234583
 30
0.0
 11
11273.92860635459
 21
-1938.111780941265
 31
0.0
  0
ARC
  5
F2FF
330
2
100
AcDbEntity
  8
VLB
100
AcDbCircle
 10
11266.92725657799
 20
-1941.566516348768
 30
0.0
 40
6.724905890916827
100
AcDbArc
 50
22.42271468060488
 51
54.1643398371238
  0
LINE
  5
F300
330
2
100
AcDbEntity
  8
VLB
100
AcDbLine
 10
11275.69064022566
 20
-1936.114637888632
 30
0.0
 11
11275.69064022566
 21
-1930.341135196735
 31
0.0
  0
ARC
  5
F301
330
2
100
AcDbEntity
  8
VLB
100
AcDbCircle
 10
11258.82438435265
 20
-1933.227886542681
 30
0.0
 40
12.3812831733212
100
AcDbArc
 50
346.5171407809547
 51
13.48285921905789
  0
LINE
  5
F302
330
2
100
AcDbEntity
  8
VLB
100
AcDbLine
 10
11267.08714830506
 20
-1930.341135196735
 30
0.0
 11
11267.08714830506
 21
-1936.114637888632
 31
0.0
  0
LINE
  5
F303
330
2
100
AcDbEntity
  8
VLB
100
AcDbLine
 10
11267.08714830506
 20
-1930.341135196735
 30
0.0
 11
11270.86443583446
 21
-1930.341135196735
 31
0.0
  0
LINE
  5
F304
330
2
100
AcDbEntity
  8
VLB
100
AcDbLine
 10
11267.08714830506
 20
-1936.114637888632
 30
0.0
 11
11270.86443583446
 21
-1936.114637888632
 31
0.0
  0
LINE
  5
F305
330
2
100
AcDbEntity
  8
VLB
100
AcDbLine
 10
11269.3664376707
 20
-1939.001389234583
 30
0.0
 11
11267.08714830506
 21
-1936.114637888635
 31
0.0
  0
LINE
  5
F306
330
2
100
AcDbEntity
  8
VLB
100
AcDbLine
 10
11273.14372520011
 20
-1927.454383850787
 30
0.0
 11
11273.92860635459
 21
-1928.343992144102
 31
0.0
  0
LINE
  5
F307
330
2
100
AcDbEntity
  8
VLB
100
AcDbLine
 10
11269.15048842451
 20
-1927.727886542683
 30
0.0
 11
11268.32017783026
 21
-1927.727886542683
 31
0.0
  0
LINE
  5
F308
330
2
100
AcDbEntity
  8
VLB
100
AcDbLine
 10
11269.3664376707
 20
-1927.454383850787
 30
0.0
 11
11273.14372520011
 21
-1927.454383850787
 31
0.0
  0
LINE
  5
F309
330
2
100
AcDbEntity
  8
SPS
100
AcDbLine
 10
11282.44396184785
 20
-1933.227886542683
 30
0.0
 11
11261.04479628385
 21
-1933.227886542684
 31
0.0
  0
ARC
  5
F30A
330
2
100
AcDbEntity
  8
VLB
100
AcDbCircle
 10
11266.92725657799
 20
-1529.889256736598
 30
0.0
 40
6.724905890916827
100
AcDbArc
 50
305.8356601628762
 51
337.5772853193951
  0
LINE
  5
F30B
330
2
100
AcDbEntity
  8
SPS
100
AcDbLine
 10
11268.32017783026
 20
-1546.77736002792
 30
0.0
 11
11268.32017783026
 21
-1529.677886542684
 31
0.0
  0
ELLIPSE
  5
F30C
330
2
100
AcDbEntity
  8
VLB
100
AcDbEllipse
 10
11273.44815387581
 20
-1538.227886542683
 30
0.0
 11
-0.0000000000000661
 21
4.999999999999545
 31
0.0
210
0.0
220
0.0
230
-1.0
 40
0.4484972699691251
 41
0.0
 42
6.283185307179586
  0
LINE
  5
F30D
330
2
100
AcDbEntity
  8
VLB
100
AcDbLine
 10
11269.3664376707
 20
-1532.454383850787
 30
0.0
 11
11267.08714830505
 21
-1535.341135196737
 31
0.0
  0
ELLIPSE
  5
F30E
330
2
100
AcDbEntity
  8
VLB
100
AcDbEllipse
 10
11269.29122379826
 20
-1538.227886542683
 30
0.0
 11
-0.0000000000000727
 21
5.5
 31
0.0
210
0.0
220
0.0
230
-1.0
 40
0.4708029923769408
 41
3.198708688530862
 42
6.226069272239205
  0
ELLIPSE
  5
F30F
330
2
100
AcDbEntity
  8
VLB
100
AcDbEllipse
 10
11268.32017783026
 20
-1538.227886542683
 30
0.0
 11
-0.0000000000000727
 21
5.5
 31
0.0
210
0.0
220
0.0
230
-1.0
 40
0.5018190223973679
 41
3.141592653589793
 42
6.283185307179586
  0
LINE
  5
F310
330
2
100
AcDbEntity
  8
VLB
100
AcDbLine
 10
11274.93467482196
 20
-1534.484300899278
 30
0.0
 11
11275.69064022566
 21
-1535.341135196735
 31
0.0
  0
LINE
  5
F311
330
2
100
AcDbEntity
  8
VLB
100
AcDbLine
 10
11274.93467482196
 20
-1541.971472186091
 30
0.0
 11
11275.69064022566
 21
-1541.114637888632
 31
0.0
  0
LINE
  5
F312
330
2
100
AcDbEntity
  8
VLB
100
AcDbLine
 10
11268.32017783026
 20
-1543.727886542684
 30
0.0
 11
11269.1504884245
 21
-1543.727886542684
 31
0.0
  0
LINE
  5
F313
330
2
100
AcDbEntity
  8
VLB
100
AcDbLine
 10
11269.3664376707
 20
-1544.001389234583
 30
0.0
 11
11273.1437252001
 21
-1544.001389234583
 31
0.0
  0
LINE
  5
F314
330
2
100
AcDbEntity
  8
VLB
100
AcDbLine
 10
11273.1437252001
 20
-1544.001389234583
 30
0.0
 11
11273.92860635459
 21
-1543.111780941265
 31
0.0
  0
ARC
  5
F315
330
2
100
AcDbEntity
  8
VLB
100
AcDbCircle
 10
11266.92725657799
 20
-1546.566516348768
 30
0.0
 40
6.724905890916827
100
AcDbArc
 50
22.42271468060488
 51
54.1643398371238
  0
LINE
  5
F316
330
2
100
AcDbEntity
  8
VLB
100
AcDbLine
 10
11275.69064022566
 20
-1541.114637888632
 30
0.0
 11
11275.69064022566
 21
-1535.341135196735
 31
0.0
  0
ARC
  5
F317
330
2
100
AcDbEntity
  8
VLB
100
AcDbCircle
 10
11258.82438435265
 20
-1538.227886542681
 30
0.0
 40
12.3812831733212
100
AcDbArc
 50
346.5171407809547
 51
13.48285921905789
  0
LINE
  5
F318
330
2
100
AcDbEntity
  8
VLB
100
AcDbLine
 10
11267.08714830505
 20
-1535.341135196735
 30
0.0
 11
11267.08714830505
 21
-1541.114637888632
 31
0.0
  0
LINE
  5
F319
330
2
100
AcDbEntity
  8
VLB
100
AcDbLine
 10
11267.08714830505
 20
-1535.341135196735
 30
0.0
 11
11270.86443583446
 21
-1535.341135196735
 31
0.0
  0
LINE
  5
F31A
330
2
100
AcDbEntity
  8
VLB
100
AcDbLine
 10
11267.08714830505
 20
-1541.114637888632
 30
0.0
 11
11270.86443583446
 21
-1541.114637888632
 31
0.0
  0
LINE
  5
F31B
330
2
100
AcDbEntity
  8
VLB
100
AcDbLine
 10
11269.3664376707
 20
-1544.001389234583
 30
0.0
 11
11267.08714830505
 21
-1541.114637888635
 31
0.0
  0
LINE
  5
F31C
330
2
100
AcDbEntity
  8
VLB
100
AcDbLine
 10
11273.1437252001
 20
-1532.454383850787
 30
0.0
 11
11273.92860635458
 21
-1533.343992144102
 31
0.0
  0
LINE
  5
F31D
330
2
100
AcDbEntity
  8
VLB
100
AcDbLine
 10
11269.1504884245
 20
-1532.727886542683
 30
0.0
 11
11268.32017783026
 21
-1532.727886542683
 31
0.0
  0
LINE
  5
F31E
330
2
100
AcDbEntity
  8
VLB
100
AcDbLine
 10
11269.3664376707
 20
-1532.454383850787
 30
0.0
 11
11273.1437252001
 21
-1532.454383850787
 31
0.0
  0
LINE
  5
F31F
330
2
100
AcDbEntity
  8
SPS
100
AcDbLine
 10
11282.44396184784
 20
-1538.227886542683
 30
0.0
 11
11261.04479628384
 21
-1538.227886542684
 31
0.0
  0
LINE
  5
F320
330
2
100
AcDbEntity
  8
SPS
100
AcDbLine
 10
11028.41284648501
 20
-1291.04547367142
 30
0.0
 11
11028.41284648501
 21
-1305.595936743854
 31
0.0
  0
ELLIPSE
  5
F321
330
2
100
AcDbEntity
  8
VLB
100
AcDbEllipse
 10
11028.41284648501
 20
-1298.320555197441
 30
0.0
 11
-2.549999999999272
 21
0.0000000000000012
 31
0.0
210
0.0
220
0.0
230
1.0
 40
0.5
 41
0.0
 42
6.283185307179586
  0
LINE
  5
F322
330
2
100
AcDbEntity
  8
SPS
100
AcDbLine
 10
11036.96231997025
 20
-1298.320555197441
 30
0.0
 11
11019.86284648501
 21
-1298.320555197441
 31
0.0
  0
LINE
  5
F323
330
2
100
AcDbEntity
  8
SPS
100
AcDbLine
 10
11306.3037942483
 20
-1263.009653996997
 30
0.0
 11
11306.3037942483
 21
-1279.009653996997
 31
0.0
  0
LINE
  5
F324
330
2
100
AcDbEntity
  8
VLB
100
AcDbLine
 10
11307.30379424828
 20
-1266.009653996997
 30
0.0
 11
11306.3037942483
 21
-1266.009653996997
 31
0.0
  0
LINE
  5
F325
330
2
100
AcDbEntity
  8
VLB
100
AcDbLine
 10
11306.3037942483
 20
-1276.009653996997
 30
0.0
 11
11307.30379424828
 21
-1276.009653996997
 31
0.0
  0
ELLIPSE
  5
F326
330
2
100
AcDbEntity
  8
VLB
100
AcDbEllipse
 10
11307.30379424828
 20
-1271.009653996997
 30
0.0
 11
0.0000000000000045
 21
5.0
 31
0.0
210
0.0
220
0.0
230
1.0
 40
0.8660254037843287
 41
0.0
 42
6.283185307179586
  0
ELLIPSE
  5
F327
330
2
100
AcDbEntity
  8
VLB
100
AcDbEllipse
 10
11306.3037942483
 20
-1271.009653996997
 30
0.0
 11
-0.0000000000000045
 21
-5.0
 31
0.0
210
0.0
220
0.0
230
1.0
 40
0.7660254037896266
 41
3.141592653589793
 42
6.283185307179586
  0
ELLIPSE
  5
F328
330
2
100
AcDbEntity
  8
VLB
100
AcDbEllipse
 10
11307.80379424827
 20
-1271.009653996997
 30
0.0
 11
0.0000000000000013
 21
1.5
 31
0.0
210
0.0
220
0.0
230
1.0
 40
0.837082593832747
 41
0.0
 42
6.283185307179586
  0
HATCH
  5
F329
330
2
100
AcDbEntity
  8
VLB
100
AcDbHatch
 10
0.0
 20
0.0
 30
0.0
210
0.0
220
0.0
230
1.0
  2
SOLID
 70
     1
 71
     0
 91
        2
 92
        5
 93
        2
 72
     3
 10
11307.80379424827
 20
-1271.009653996997
 11
0.0000000000000013
 21
1.5
 40
0.837082593832747
 50
90.0
 51
270.0
 73
     1
 72
     1
 10
11309.05941813902
 20
-1271.009653996997
 11
11306.54817035752
 21
-1271.009653996997
 97
        0
 92
        5
 93
        2
 72
     3
 10
11307.80379424827
 20
-1271.009653996997
 11
0.0000000000000013
 21
1.5
 40
0.837082593832747
 50
270.0
 51
450.0
 73
     1
 72
     1
 10
11306.54817035752
 20
-1271.009653996997
 11
11309.05941813902
 21
-1271.009653996997
 97
        0
 75
     0
 76
     1
 47
0.0516579537025894
 98
        2
 10
11307.56184432303
 20
-1271.840859085755
 10
11307.5101863174
 20
-1270.548344801015
  0
LINE
  5
F32A
330
2
100
AcDbEntity
  8
SPS
100
AcDbLine
 10
11299.47364737029
 20
-1271.009653996997
 30
0.0
 11
11313.13394112632
 21
-1271.009653996997
 31
0.0
  0
LINE
  5
F32B
330
2
100
AcDbEntity
  8
VLB
100
AcDbLine
 10
11060.80710809153
 20
355.1565658364647
 30
0.0
 11
10830.91284648502
 21
753.3451073074552
 31
0.0
  0
LINE
  5
F32C
330
2
100
AcDbEntity
  8
VLB
100
AcDbLine
 10
11059.65240755316
 20
355.1565658364647
 30
0.0
 11
10830.33549621583
 21
752.3451073074711
 31
0.0
  0
LINE
  5
F32D
330
2
100
AcDbEntity
  8
SPS
100
AcDbLine
 10
10830.91284648502
 20
-14.78194694609192
 30
0.0
 11
10830.91284648503
 21
777.4306974109472
 31
0.0
  0
LINE
  5
F32E
330
2
100
AcDbEntity
  8
VLB
100
AcDbLine
 10
10601.01858487849
 20
355.1565658364652
 30
0.0
 11
10830.91284648503
 21
753.3451073074866
 31
0.0
  0
LINE
  5
F32F
330
2
100
AcDbEntity
  8
VLB
100
AcDbLine
 10
10553.41284648501
 20
-524.0834451228302
 30
0.0
 11
11108.41284648501
 21
-524.0834451228302
 31
0.0
  0
LINE
  5
F330
330
2
100
AcDbEntity
  8
VLS
100
AcDbLine
 10
10935.02173233058
 20
-59.28194694609169
 30
0.0
 11
11046.63251043414
 21
5.156565836466143
 31
0.0
  0
LINE
  5
F331
330
2
100
AcDbEntity
  8
VLS
100
AcDbLine
 10
10875.02173233058
 20
-59.28194694609169
 30
0.0
 11
10986.63251043415
 21
5.156565836466143
 31
0.0
  0
LINE
  5
F332
330
2
100
AcDbEntity
  8
VLS
100
AcDbLine
 10
10975.19318253591
 20
5.156565836466143
 30
0.0
 11
11086.80396063947
 21
-59.2819469460901
 31
0.0
  0
LINE
  5
F333
330
2
100
AcDbEntity
  8
VLS
100
AcDbLine
 10
10915.19318253591
 20
5.156565836466143
 30
0.0
 11
11028.41284648502
 21
-60.21083762211333
 31
0.0
  0
LINE
  5
F334
330
2
100
AcDbEntity
  8
VLB
100
AcDbLine
 10
11116.57230307621
 20
355.1565658364647
 30
0.0
 11
10545.25338989383
 21
355.1565658364652
 31
0.0
  0
LINE
  5
F335
330
2
100
AcDbEntity
  8
VLB
100
AcDbLine
 10
10981.18775611292
 20
-54.7819469460901
 30
0.0
 11
10985.68775611292
 21
-59.2819469460901
 31
0.0
  0
LINE
  5
F336
330
2
100
AcDbEntity
  8
VLB
100
AcDbLine
 10
11028.41284648502
 20
-59.28194694609192
 30
0.0
 11
10528.6702057979
 21
-59.28194694609192
 31
0.0
  0
LINE
  5
F337
330
2
100
AcDbEntity
  8
VLB
100
AcDbLine
 10
10529.41284648502
 20
-90.7819469460901
 30
0.0
 11
11132.41284648502
 21
-90.78194694609193
 31
0.0
  0
LINE
  5
F338
330
2
100
AcDbEntity
  8
VLS
100
AcDbLine
 10
10695.02173233058
 20
-59.28194694609192
 30
0.0
 11
10806.63251043414
 21
5.156565836466143
 31
0.0
  0
LINE
  5
F339
330
2
100
AcDbEntity
  8
VLS
100
AcDbLine
 10
10633.41284648502
 20
-60.21083762211856
 30
0.0
 11
10746.63251043414
 21
5.156565836466143
 31
0.0
  0
LINE
  5
F33A
330
2
100
AcDbEntity
  8
VLS
100
AcDbLine
 10
10675.19318253591
 20
5.156565836466143
 30
0.0
 11
10786.80396063947
 21
-59.28194694609192
 31
0.0
  0
LINE
  5
F33B
330
2
100
AcDbEntity
  8
VLS
100
AcDbLine
 10
10615.19318253591
 20
5.156565836466143
 30
0.0
 11
10726.80396063947
 21
-59.28194694609192
 31
0.0
  0
ARC
  5
F33C
330
2
100
AcDbEntity
  8
VLB
100
AcDbCircle
 10
10635.66284648502
 20
-8.03194694609192
 30
0.0
 40
79.5
100
AcDbArc
 50
330.0000000000235
 51
355.0856073079713
  0
LINE
  5
F33D
330
2
100
AcDbEntity
  8
VLB
100
AcDbLine
 10
10701.88057754424
 20
-54.78194694609192
 30
0.0
 11
10706.38057754424
 21
-59.28194694609192
 31
0.0
  0
LINE
  5
F33E
330
2
100
AcDbEntity
  8
SPS
100
AcDbLine
 10
10605.91284648501
 20
-504.0834451228302
 30
0.0
 11
10605.91284648501
 21
-544.0834451228302
 31
0.0
  0
LINE
  5
F33F
330
2
100
AcDbEntity
  8
VLS
100
AcDbLine
 10
10561.91284648502
 20
-33.36405010479734
 30
0.0
 11
10598.41284648503
 21
-54.43733493022205
 31
0.0
  0
LINE
  5
F340
330
2
100
AcDbEntity
  8
VLS
100
AcDbLine
 10
10561.78710413494
 20
-32.28194694609101
 30
0.0
 11
10626.63251043414
 21
5.156565836466143
 31
0.0
  0
LINE
  5
F341
330
2
100
AcDbEntity
  8
VLS
100
AcDbLine
 10
10561.91284648503
 20
1.276966046581037
 30
0.0
 11
10609.64628398971
 21
-26.28194694609374
 31
0.0
  0
LINE
  5
F342
330
2
100
AcDbEntity
  8
SPS
100
AcDbLine
 10
10551.91284648502
 20
-32.28194694609192
 30
0.0
 11
10573.78118986427
 21
-32.28194694609192
 31
0.0
  0
ARC
  5
F343
330
2
100
AcDbEntity
  8
VLB
100
AcDbCircle
 10
10565.62292534495
 20
-32.36771067900008
 30
0.0
 40
2.923824388260154
100
AcDbArc
 50
220.8971250870409
 51
319.102874912959
  0
ARC
  5
F344
330
2
100
AcDbEntity
  8
VLB
100
AcDbCircle
 10
10565.62292534495
 20
-32.19618321318375
 30
0.0
 40
2.923824388261122
100
AcDbArc
 50
40.89712508704095
 51
139.102874912959
  0
LINE
  5
F345
330
2
100
AcDbEntity
  8
VLB
100
AcDbLine
 10
10589.91284648503
 20
-56.2819469460901
 30
0.0
 11
10562.91284648502
 21
-56.28194694609056
 31
0.0
  0
LINE
  5
F346
330
2
100
AcDbEntity
  8
VLB
100
AcDbLine
 10
10528.6702057979
 20
-59.28194694609101
 30
0.0
 11
10464.23169301535
 21
5.156565836466143
 31
0.0
  0
LINE
  5
F347
330
2
100
AcDbEntity
  8
VLB
100
AcDbLine
 10
10530.64076854637
 20
-48.52458763320374
 30
0.0
 11
10476.9596150767
 21
5.156565836466143
 31
0.0
  0
LINE
  5
F348
330
2
100
AcDbEntity
  8
VLS
100
AcDbLine
 10
10561.91284648502
 20
2.431666584954882
 30
0.0
 11
10566.63251043415
 21
5.156565836466143
 31
0.0
  0
LINE
  5
F349
330
2
100
AcDbEntity
  8
VLB
100
AcDbLine
 10
10563.41284648502
 20
-17.78194694609192
 30
0.0
 11
10563.41284648502
 21
-46.78194694609191
 31
0.0
  0
LINE
  5
F34A
330
2
100
AcDbEntity
  8
SPS
100
AcDbLine
 10
10565.91284648502
 20
-32.28194694609101
 30
0.0
 11
10551.91284648502
 21
-32.28194694609101
 31
0.0
  0
LINE
  5
F34B
330
2
100
AcDbEntity
  8
VLB
100
AcDbLine
 10
10563.41284648502
 20
-46.78194694609191
 30
0.0
 11
10561.91284648502
 21
-46.78194694609191
 31
0.0
  0
LINE
  5
F34C
330
2
100
AcDbEntity
  8
VLB
100
AcDbLine
 10
10559.91284648502
 20
-50.28194694608874
 30
0.0
 11
10562.91284648502
 21
-50.28194694608919
 31
0.0
  0
LINE
  5
F34D
330
2
100
AcDbEntity
  8
VLB
100
AcDbLine
 10
10563.41284648502
 20
-17.78194694609192
 30
0.0
 11
10561.91284648502
 21
-17.78194694609192
 31
0.0
  0
LINE
  5
F34E
330
2
100
AcDbEntity
  8
VLB
100
AcDbLine
 10
10561.91284648502
 20
5.156565836466143
 30
0.0
 11
10561.91284648502
 21
-50.28194694608896
 31
0.0
  0
LINE
  5
F34F
330
2
100
AcDbEntity
  8
VLB
100
AcDbLine
 10
10534.8834092335
 20
-50.28194694608465
 30
0.0
 11
10544.91284648502
 21
-50.28194694608692
 31
0.0
  0
LINE
  5
F350
330
2
100
AcDbEntity
  8
VLB
100
AcDbLine
 10
10532.91284648502
 20
-57.2819469460901
 30
0.0
 11
10544.91284648502
 21
-57.2819469460901
 31
0.0
  0
ARC
  5
F351
330
2
100
AcDbEntity
  8
VLB
100
AcDbCircle
 10
10533.41284648502
 20
-63.28194694609192
 30
0.0
 40
4.0
100
AcDbArc
 50
90.0
 51
180.0
  0
LINE
  5
F352
330
2
100
AcDbEntity
  8
VLB
100
AcDbLine
 10
10529.41284648502
 20
-90.78194694609193
 30
0.0
 11
10529.41284648502
 21
-63.28194694609192
 31
0.0
  0
LINE
  5
F353
330
2
100
AcDbEntity
  8
VLB
100
AcDbLine
 10
10532.91284648502
 20
-57.2819469460901
 30
0.0
 11
10532.91284648502
 21
-59.28194694608828
 31
0.0
  0
LINE
  5
F354
330
2
100
AcDbEntity
  8
VLB
100
AcDbLine
 10
10536.21484366755
 20
-55.81528042625723
 30
0.0
 11
10536.21484366755
 21
-51.74405681757708
 31
0.0
  0
LINE
  5
F355
330
2
100
AcDbEntity
  8
VLB
100
AcDbLine
 10
10540.06384507628
 20
-55.81528042625723
 30
0.0
 11
10540.06384507628
 21
-51.74405681757708
 31
0.0
  0
LINE
  5
F356
330
2
100
AcDbEntity
  8
VLB
100
AcDbLine
 10
10540.06384507628
 20
-55.81529232626144
 30
0.0
 11
10540.06384507628
 21
-51.74406871758129
 31
0.0
  0
LINE
  5
F357
330
2
100
AcDbEntity
  8
VLB
100
AcDbLine
 10
10536.21484366755
 20
-55.81529232626144
 30
0.0
 11
10536.21484366755
 21
-51.74406871758129
 31
0.0
  0
LINE
  5
F358
330
2
100
AcDbEntity
  8
VLB
100
AcDbLine
 10
10544.91284648502
 20
-57.2819469460901
 30
0.0
 11
10543.91284648502
 21
-57.2819469460901
 31
0.0
  0
LINE
  5
F359
330
2
100
AcDbEntity
  8
VLB
100
AcDbLine
 10
10544.91284648502
 20
-56.48194702608816
 30
0.0
 11
10543.91284648502
 21
-56.48194702608998
 31
0.0
  0
LINE
  5
F35A
330
2
100
AcDbEntity
  8
VLB
100
AcDbLine
 10
10536.41284723502
 20
-56.48194702608998
 30
0.0
 11
10536.41284723502
 21
-57.2819469460901
 31
0.0
  0
LINE
  5
F35B
330
2
100
AcDbEntity
  8
VLB
100
AcDbLine
 10
10536.41284723502
 20
-57.2819469460901
 30
0.0
 11
10536.41284723502
 21
-56.48194702608998
 31
0.0
1001
ACAD
1000
ASC_BOUNDS
1002
{
1070
    16
1002
}
  0
LINE
  5
F35C
330
2
100
AcDbEntity
  8
VLB
100
AcDbLine
 10
10537.9795137465
 20
-56.48194702608998
 30
0.0
 11
10537.9795137465
 21
-55.81528042625723
 31
0.0
  0
LINE
  5
F35D
330
2
100
AcDbEntity
  8
VLB
100
AcDbLine
 10
10537.9795137465
 20
-56.48194702608998
 30
0.0
 11
10544.91284648502
 21
-56.48194702608998
 31
0.0
  0
LINE
  5
F35E
330
2
100
AcDbEntity
  8
VLB
100
AcDbLine
 10
10536.21484366755
 20
-55.81528042625723
 30
0.0
 11
10544.91284648502
 21
-55.81528042625723
 31
0.0
  0
LINE
  5
F35F
330
2
100
AcDbEntity
  8
VLB
100
AcDbLine
 10
10543.91284648502
 20
-56.48194702608998
 30
0.0
 11
10536.41284723502
 21
-56.48194702608998
 31
0.0
  0
LINE
  5
F360
330
2
100
AcDbEntity
  8
VLB
100
AcDbLine
 10
10543.91284648502
 20
-57.2819469460901
 30
0.0
 11
10536.41284723502
 21
-57.2819469460901
 31
0.0
  0
LINE
  5
F361
330
2
100
AcDbEntity
  8
VLB
100
AcDbLine
 10
10544.91284648502
 20
-56.48195892609237
 30
0.0
 11
10543.91284648502
 21
-56.48195892609419
 31
0.0
  0
LINE
  5
F362
330
2
100
AcDbEntity
  8
VLB
100
AcDbLine
 10
10544.91284648502
 20
-57.28195884609431
 30
0.0
 11
10543.91284648502
 21
-57.28195884609431
 31
0.0
  0
LINE
  5
F363
330
2
100
AcDbEntity
  8
VLB
100
AcDbLine
 10
10537.9795137465
 20
-56.48195892609419
 30
0.0
 11
10537.9795137465
 21
-55.81529232626144
 31
0.0
  0
LINE
  5
F364
330
2
100
AcDbEntity
  8
VLB
100
AcDbLine
 10
10536.41284723502
 20
-57.28195884609431
 30
0.0
 11
10536.41284723502
 21
-56.48195892609419
 31
0.0
1001
ACAD
1000
ASC_BOUNDS
1002
{
1070
    16
1002
}
  0
LINE
  5
F365
330
2
100
AcDbEntity
  8
VLB
100
AcDbLine
 10
10536.41284723502
 20
-56.48195892609419
 30
0.0
 11
10536.41284723502
 21
-57.28195884609431
 31
0.0
  0
LINE
  5
F366
330
2
100
AcDbEntity
  8
VLB
100
AcDbLine
 10
10543.91284648502
 20
-57.28195884609431
 30
0.0
 11
10536.41284723502
 21
-57.28195884609431
 31
0.0
  0
LINE
  5
F367
330
2
100
AcDbEntity
  8
VLB
100
AcDbLine
 10
10543.91284648502
 20
-56.48195892609419
 30
0.0
 11
10536.41284723502
 21
-56.48195892609419
 31
0.0
  0
LINE
  5
F368
330
2
100
AcDbEntity
  8
VLB
100
AcDbLine
 10
10536.21484366755
 20
-55.81529232626144
 30
0.0
 11
10544.91284648502
 21
-55.81529232626144
 31
0.0
  0
LINE
  5
F369
330
2
100
AcDbEntity
  8
VLB
100
AcDbLine
 10
10537.9795137465
 20
-56.48195892609419
 30
0.0
 11
10544.91284648502
 21
-56.48195892609419
 31
0.0
  0
LINE
  5
F36A
330
2
100
AcDbEntity
  8
VLB
100
AcDbLine
 10
10537.24618048669
 20
-51.14861422742433
 30
0.0
 11
10536.21484366755
 21
-51.74405681757708
 31
0.0
  0
ARC
  5
F36B
330
2
100
AcDbEntity
  8
VLB
100
AcDbCircle
 10
10538.15004589435
 20
-54.52188585204749
 30
0.0
 40
3.373271624627153
100
AcDbArc
 50
55.43490690551589
 51
119.9999999999973
  0
ARC
  5
F36C
330
2
100
AcDbEntity
  8
VLB
100
AcDbCircle
 10
10543.91284648502
 20
-63.88650363393754
 30
0.0
 40
12.73788940651524
100
AcDbArc
 50
85.4973076328744
 51
107.5879537739636
  0
LINE
  5
F36D
330
2
100
AcDbEntity
  8
VLB
100
AcDbLine
 10
10537.24618048669
 20
-51.14861422742433
 30
0.0
 11
10544.91284648502
 21
-51.14861422742433
 31
0.0
  0
ARC
  5
F36E
330
2
100
AcDbEntity
  8
VLB
100
AcDbCircle
 10
10538.15004589435
 20
-54.52189775205352
 30
0.0
 40
3.373271624627153
100
AcDbArc
 50
55.43490690551589
 51
119.9999999999973
  0
LINE
  5
F36F
330
2
100
AcDbEntity
  8
VLB
100
AcDbLine
 10
10537.24618048669
 20
-51.14862612742854
 30
0.0
 11
10536.21484366755
 21
-51.74406871758129
 31
0.0
  0
LINE
  5
F370
330
2
100
AcDbEntity
  8
VLB
100
AcDbLine
 10
10537.24618048669
 20
-51.14862612742854
 30
0.0
 11
10544.91284648502
 21
-51.14862612742854
 31
0.0
  0
ARC
  5
F371
330
2
100
AcDbEntity
  8
VLB
100
AcDbCircle
 10
10543.91284648502
 20
-63.88651553394175
 30
0.0
 40
12.73788940651524
100
AcDbArc
 50
85.49730763308321
 51
107.5879537739636
  0
ARC
  5
F372
330
2
100
AcDbEntity
  8
VLB
100
AcDbCircle
 10
10534.8834092335
 20
-44.28194694608464
 30
0.0
 40
6.0
100
AcDbArc
 50
225.0000000001013
 51
270.0
  0
LINE
  5
F373
330
2
100
AcDbEntity
  8
SPS
100
AcDbLine
 10
10543.91284648502
 20
-65.2819469460901
 30
0.0
 11
10543.91284648502
 21
-46.58370630914396
 31
0.0
  0
LINE
  5
F374
330
2
100
AcDbEntity
  8
VLB
100
AcDbLine
 10
10544.91284648502
 20
5.156565836466143
 30
0.0
 11
10544.91284648502
 21
-59.2819350460868
 31
0.0
  0
LINE
  5
F375
330
2
100
AcDbEntity
  8
VLB
100
AcDbLine
 10
10562.91284648502
 20
-59.2819469460901
 30
0.0
 11
10562.91284648502
 21
-50.28194694608874
 31
0.0
  0
LINE
  5
F376
330
2
100
AcDbEntity
  8
VLB
100
AcDbLine
 10
10559.91284648502
 20
5.156565836466143
 30
0.0
 11
10559.91284648502
 21
-59.2819469460901
 31
0.0
  0
LINE
  5
F377
330
2
100
AcDbEntity
  8
VLS
100
AcDbLine
 10
10630.41284648503
 20
-38.27152739290841
 30
0.0
 11
10666.80396063948
 21
-59.28194694609169
 31
0.0
  0
LINE
  5
F378
330
2
100
AcDbEntity
  8
VLS
100
AcDbLine
 10
10629.27370853967
 20
-27.95955387770163
 30
0.0
 11
10686.63251043414
 21
5.156565836466143
 31
0.0
  0
LINE
  5
F379
330
2
100
AcDbEntity
  8
VLB
100
AcDbLine
 10
10644.03416682858
 20
-54.78194694609374
 30
0.0
 11
10630.41284648502
 21
-54.78194694609192
 31
0.0
  0
LINE
  5
F37A
330
2
100
AcDbEntity
  8
VLB
100
AcDbLine
 10
10633.41284648502
 20
-54.78194694609192
 30
0.0
 11
10640.91284573502
 21
-54.78194694609192
 31
0.0
  0
LINE
  5
F37B
330
2
100
AcDbEntity
  8
VLB
100
AcDbLine
 10
10633.41284648502
 20
-53.9819470260918
 30
0.0
 11
10640.91284573502
 21
-53.9819470260918
 31
0.0
  0
LINE
  5
F37C
330
2
100
AcDbEntity
  8
VLB
100
AcDbLine
 10
10639.34617922354
 20
-53.9819470260918
 30
0.0
 11
10630.41284648502
 21
-53.9819470260918
 31
0.0
  0
LINE
  5
F37D
330
2
100
AcDbEntity
  8
VLB
100
AcDbLine
 10
10641.11084930249
 20
-53.31528042625905
 30
0.0
 11
10630.41284648502
 21
-53.31528042625905
 31
0.0
  0
LINE
  5
F37E
330
2
100
AcDbEntity
  8
VLB
100
AcDbLine
 10
10640.07951248336
 20
-48.64861422742615
 30
0.0
 11
10630.41284648502
 21
-48.64861422742615
 31
0.0
  0
ARC
  5
F37F
330
2
100
AcDbEntity
  8
VLB
100
AcDbCircle
 10
10633.41284648502
 20
-61.38650363394117
 30
0.0
 40
12.73788940651524
100
AcDbArc
 50
72.41204622603634
 51
103.6221487042402
  0
LINE
  5
F380
330
2
100
AcDbEntity
  8
VLS
100
AcDbLine
 10
10614.41284648503
 20
-29.0339230858749
 30
0.0
 11
10614.84243641241
 21
-29.28194694609192
 31
0.0
  0
LINE
  5
F381
330
2
100
AcDbEntity
  8
VLS
100
AcDbLine
 10
10575.02173233058
 20
-59.28194694609192
 30
0.0
 11
10598.41284648503
 21
-45.77708089237581
 31
0.0
  0
LINE
  5
F382
330
2
100
AcDbEntity
  8
VLB
100
AcDbLine
 10
10629.41284648503
 20
-28.78194694609374
 30
0.0
 11
10629.41284648503
 21
-29.28194694609373
 31
0.0
  0
LINE
  5
F383
330
2
100
AcDbEntity
  8
VLB
100
AcDbLine
 10
10598.41284648503
 20
-29.28194694609192
 30
0.0
 11
10630.41284648503
 21
-29.28194694609192
 31
0.0
  0
ARC
  5
F384
330
2
100
AcDbEntity
  8
VLB
100
AcDbCircle
 10
10626.91284648503
 20
-28.78194694609374
 30
0.0
 40
2.5
100
AcDbArc
 50
0.0
 51
90.0
  0
LINE
  5
F385
330
2
100
AcDbEntity
  8
VLB
100
AcDbLine
 10
10601.91284648503
 20
-26.28194694609374
 30
0.0
 11
10626.91284648503
 21
-26.28194694609374
 31
0.0
  0
ARC
  5
F386
330
2
100
AcDbEntity
  8
VLB
100
AcDbCircle
 10
10601.91284648503
 20
-28.78194694609374
 30
0.0
 40
2.5
100
AcDbArc
 50
90.0
 51
180.0
  0
LINE
  5
F387
330
2
100
AcDbEntity
  8
VLB
100
AcDbLine
 10
10599.41284648503
 20
-28.78194694609374
 30
0.0
 11
10599.41284648503
 21
-29.28194694609373
 31
0.0
  0
LINE
  5
F388
330
2
100
AcDbEntity
  8
VLB
100
AcDbLine
 10
10576.71284648502
 20
-48.2819469460901
 30
0.0
 11
10583.11284648502
 21
-48.2819469460901
 31
0.0
  0
LINE
  5
F389
330
2
100
AcDbEntity
  8
VLB
100
AcDbLine
 10
10567.83300420489
 20
-34.28194694609556
 30
0.0
 11
10567.83300420489
 21
-30.28194694608828
 31
0.0
  0
LINE
  5
F38A
330
2
100
AcDbEntity
  8
VLB
100
AcDbLine
 10
10630.41284648503
 20
-54.78194694609192
 30
0.0
 11
10633.41284648502
 21
-54.78194694609192
 31
0.0
  0
LINE
  5
F38B
330
2
100
AcDbEntity
  8
VLB
100
AcDbLine
 10
10630.41284648503
 20
-53.9819470260918
 30
0.0
 11
10633.41284648502
 21
-53.9819470260918
 31
0.0
  0
LINE
  5
F38C
330
2
100
AcDbEntity
  8
VLB
100
AcDbLine
 10
10627.91284648503
 20
-59.28194694609192
 30
0.0
 11
10630.41284648503
 21
-59.28194694609192
 31
0.0
  0
LINE
  5
F38D
330
2
100
AcDbEntity
  8
VLB
100
AcDbLine
 10
10598.41284648503
 20
-59.28194694609192
 30
0.0
 11
10600.91284648503
 21
-59.28194694609192
 31
0.0
  0
LINE
  5
F38E
330
2
100
AcDbEntity
  8
VLB
100
AcDbLine
 10
10567.91284648503
 20
-59.2819469460901
 30
0.0
 11
10567.91284648503
 21
-56.28194694609101
 31
0.0
  0
LINE
  5
F38F
330
2
100
AcDbEntity
  8
VLB
100
AcDbLine
 10
10589.91284648503
 20
-59.2819469460901
 30
0.0
 11
10589.91284648503
 21
-56.2819469460901
 31
0.0
  0
LINE
  5
F390
330
2
100
AcDbEntity
  8
VLB
100
AcDbLine
 10
10630.41284648502
 20
-29.28194694609192
 30
0.0
 11
10630.41284648503
 21
-59.28194694609192
 31
0.0
  0
LINE
  5
F391
330
2
100
AcDbEntity
  8
SPS
100
AcDbLine
 10
10633.41284648502
 20
-66.78194694609214
 30
0.0
 11
10633.41284648502
 21
-41.79861353428714
 31
0.0
  0
LINE
  5
F392
330
2
100
AcDbEntity
  8
SPS
100
AcDbLine
 10
10614.41284648502
 20
-74.78194694609192
 30
0.0
 11
10614.41284648503
 21
-20.28194694609374
 31
0.0
  0
LINE
  5
F393
330
2
100
AcDbEntity
  8
VLB
100
AcDbLine
 10
10598.41284648503
 20
-29.28194694609192
 30
0.0
 11
10598.41284648503
 21
-59.28194694609192
 31
0.0
  0
LINE
  5
F394
330
2
100
AcDbEntity
  8
SPS
100
AcDbLine
 10
10579.91284648502
 20
-69.78194694609055
 30
0.0
 11
10579.91284648502
 21
-42.2819469460901
 31
0.0
  0
ARC
  5
F395
330
2
100
AcDbEntity
  8
VLB
100
AcDbCircle
 10
10575.612846485
 20
-52.28194694609055
 30
0.0
 40
8.500000000025893
100
AcDbArc
 50
331.9275130642175
 51
28.07248693578245
  0
ARC
  5
F396
330
2
100
AcDbEntity
  8
VLB
100
AcDbCircle
 10
10584.21284648505
 20
-52.28194694609055
 30
0.0
 40
8.500000000025893
100
AcDbArc
 50
151.9275130642175
 51
208.0724869357824
  0
LINE
  5
F397
330
2
100
AcDbEntity
  8
VLB
100
AcDbLine
 10
10697.92592319901
 20
-48.64861422742615
 30
0.0
 11
10684.59259120234
 21
-48.64861422742615
 31
0.0
  0
ARC
  5
F398
330
2
100
AcDbEntity
  8
VLB
100
AcDbCircle
 10
10691.25925720068
 20
-61.38650363394117
 30
0.0
 40
12.73788940651524
100
AcDbArc
 50
72.41204622603634
 51
107.5879537739636
  0
LINE
  5
F399
330
2
100
AcDbEntity
  8
VLB
100
AcDbLine
 10
10684.59259120234
 20
-48.64861422742615
 30
0.0
 11
10683.56125438321
 21
-49.24405681757889
 31
0.0
  0
ARC
  5
F39A
330
2
100
AcDbEntity
  8
VLB
100
AcDbCircle
 10
10685.49645661002
 20
-52.02188585205113
 30
0.0
 40
3.373271624627153
100
AcDbArc
 50
55.43490690551589
 51
119.9999999999973
  0
ARC
  5
F39B
330
2
100
AcDbEntity
  8
VLB
100
AcDbCircle
 10
10697.02205779134
 20
-52.02188585205113
 30
0.0
 40
3.373271624627153
100
AcDbArc
 50
60.00000000000272
 51
124.5650930944841
  0
LINE
  5
F39C
330
2
100
AcDbEntity
  8
VLB
100
AcDbLine
 10
10697.92592319901
 20
-48.64861422742615
 30
0.0
 11
10698.95726001815
 21
-49.24405681757889
 31
0.0
  0
ARC
  5
F39D
330
2
100
AcDbEntity
  8
VLB
100
AcDbCircle
 10
10639.17564707569
 20
-52.02188585205113
 30
0.0
 40
3.373271624627153
100
AcDbArc
 50
60.00000000000272
 51
124.5650930944841
  0
LINE
  5
F39E
330
2
100
AcDbEntity
  8
VLB
100
AcDbLine
 10
10640.07951248336
 20
-48.64861422742615
 30
0.0
 11
10641.11084930249
 21
-49.24405681757889
 31
0.0
  0
LINE
  5
F39F
330
2
100
AcDbEntity
  8
VLB
100
AcDbLine
 10
10685.32592446216
 20
-53.9819470260918
 30
0.0
 11
10685.32592446216
 21
-53.31528042625905
 31
0.0
  0
LINE
  5
F3A0
330
2
100
AcDbEntity
  8
VLB
100
AcDbLine
 10
10697.1925899392
 20
-53.9819470260918
 30
0.0
 11
10697.1925899392
 21
-53.31528042625905
 31
0.0
  0
LINE
  5
F3A1
330
2
100
AcDbEntity
  8
VLB
100
AcDbLine
 10
10691.25925720068
 20
-54.78194694609192
 30
0.0
 11
10698.75925645068
 21
-54.78194694609192
 31
0.0
  0
LINE
  5
F3A2
330
2
100
AcDbEntity
  8
VLB
100
AcDbLine
 10
10691.25925720068
 20
-53.9819470260918
 30
0.0
 11
10698.75925645068
 21
-53.9819470260918
 31
0.0
  0
LINE
  5
F3A3
330
2
100
AcDbEntity
  8
VLB
100
AcDbLine
 10
10697.1925899392
 20
-53.9819470260918
 30
0.0
 11
10685.32592446216
 21
-53.9819470260918
 31
0.0
  0
LINE
  5
F3A4
330
2
100
AcDbEntity
  8
VLB
100
AcDbLine
 10
10701.88057754424
 20
-54.78194694609192
 30
0.0
 11
10680.63793685712
 21
-54.78194694609192
 31
0.0
  0
LINE
  5
F3A5
330
2
100
AcDbEntity
  8
VLB
100
AcDbLine
 10
10683.75925795068
 20
-54.78194694609192
 30
0.0
 11
10691.25925720068
 21
-54.78194694609192
 31
0.0
  0
LINE
  5
F3A6
330
2
100
AcDbEntity
  8
VLB
100
AcDbLine
 10
10683.75925795068
 20
-54.78194694609192
 30
0.0
 11
10683.75925795068
 21
-53.9819470260918
 31
0.0
1001
ACAD
1000
ASC_BOUNDS
1002
{
1070
    16
1002
}
  0
LINE
  5
F3A7
330
2
100
AcDbEntity
  8
VLB
100
AcDbLine
 10
10683.75925795068
 20
-53.9819470260918
 30
0.0
 11
10691.25925720068
 21
-53.9819470260918
 31
0.0
  0
LINE
  5
F3A8
330
2
100
AcDbEntity
  8
VLB
100
AcDbLine
 10
10698.75925645068
 20
-54.78194694609192
 30
0.0
 11
10698.75925645068
 21
-53.9819470260918
 31
0.0
1001
ACAD
1000
ASC_BOUNDS
1002
{
1070
    16
1002
}
  0
LINE
  5
F3A9
330
2
100
AcDbEntity
  8
VLB
100
AcDbLine
 10
10698.75925645068
 20
-53.9819470260918
 30
0.0
 11
10698.75925645068
 21
-54.78194694609192
 31
0.0
  0
LINE
  5
F3AA
330
2
100
AcDbEntity
  8
VLB
100
AcDbLine
 10
10698.95726001815
 20
-53.31528042625905
 30
0.0
 11
10683.56125438321
 21
-53.31528042625905
 31
0.0
  0
LINE
  5
F3AB
330
2
100
AcDbEntity
  8
VLB
100
AcDbLine
 10
10639.34617922354
 20
-53.9819470260918
 30
0.0
 11
10639.34617922354
 21
-53.31528042625905
 31
0.0
  0
LINE
  5
F3AC
330
2
100
AcDbEntity
  8
VLB
100
AcDbLine
 10
10644.03416682858
 20
-54.78194694609192
 30
0.0
 11
10648.53416682858
 21
-59.28194694609192
 31
0.0
  0
LINE
  5
F3AD
330
2
100
AcDbEntity
  8
VLB
100
AcDbLine
 10
10640.91284573502
 20
-54.78194694609192
 30
0.0
 11
10640.91284573502
 21
-53.9819470260918
 31
0.0
1001
ACAD
1000
ASC_BOUNDS
1002
{
1070
    16
1002
}
  0
LINE
  5
F3AE
330
2
100
AcDbEntity
  8
VLB
100
AcDbLine
 10
10640.91284573502
 20
-53.9819470260918
 30
0.0
 11
10640.91284573502
 21
-54.78194694609192
 31
0.0
  0
LINE
  5
F3AF
330
2
100
AcDbEntity
  8
VLB
100
AcDbLine
 10
10680.63793685712
 20
-54.78194694609192
 30
0.0
 11
10676.13793685712
 21
-59.28194694609192
 31
0.0
  0
ARC
  5
F3B0
330
2
100
AcDbEntity
  8
VLB
100
AcDbCircle
 10
10684.59328179884
 20
-36.28194694609192
 30
0.0
 40
23.0
100
AcDbArc
 50
308.0182134959763
 51
330.0000000000235
  0
LINE
  5
F3B1
330
2
100
AcDbEntity
  8
SPS
100
AcDbLine
 10
10691.25925720068
 20
-66.78194694609192
 30
0.0
 11
10691.25925720068
 21
-41.79861353428532
 31
0.0
  0
LINE
  5
F3B2
330
2
100
AcDbEntity
  8
VLB
100
AcDbLine
 10
10637.26184789376
 20
-53.31528042625905
 30
0.0
 11
10637.26184789376
 21
-49.24405681757889
 31
0.0
  0
LINE
  5
F3B3
330
2
100
AcDbEntity
  8
VLB
100
AcDbLine
 10
10641.11084930249
 20
-53.31528042625905
 30
0.0
 11
10641.11084930249
 21
-49.24405681757889
 31
0.0
  0
LINE
  5
F3B4
330
2
100
AcDbEntity
  8
VLB
100
AcDbLine
 10
10683.56125438321
 20
-53.31528042625905
 30
0.0
 11
10683.56125438321
 21
-49.24405681757889
 31
0.0
  0
LINE
  5
F3B5
330
2
100
AcDbEntity
  8
VLB
100
AcDbLine
 10
10687.41025579194
 20
-53.31528042625905
 30
0.0
 11
10687.41025579194
 21
-49.24405681757889
 31
0.0
  0
LINE
  5
F3B6
330
2
100
AcDbEntity
  8
VLB
100
AcDbLine
 10
10695.10825860941
 20
-53.31528042625905
 30
0.0
 11
10695.10825860941
 21
-49.24405681757889
 31
0.0
  0
LINE
  5
F3B7
330
2
100
AcDbEntity
  8
VLB
100
AcDbLine
 10
10698.95726001815
 20
-53.31528042625905
 30
0.0
 11
10698.95726001815
 21
-49.24405681757889
 31
0.0
  0
LINE
  5
F3B8
330
2
100
AcDbEntity
  8
VLS
100
AcDbLine
 10
10815.02173233058
 20
-59.28194694609192
 30
0.0
 11
10926.63251043415
 21
5.156565836466143
 31
0.0
  0
LINE
  5
F3B9
330
2
100
AcDbEntity
  8
VLS
100
AcDbLine
 10
10755.02173233058
 20
-59.28194694609192
 30
0.0
 11
10866.63251043415
 21
5.156565836466143
 31
0.0
  0
LINE
  5
F3BA
330
2
100
AcDbEntity
  8
VLS
100
AcDbLine
 10
10795.19318253591
 20
5.156565836466143
 30
0.0
 11
10906.80396063947
 21
-59.28194694609192
 31
0.0
  0
LINE
  5
F3BB
330
2
100
AcDbEntity
  8
VLS
100
AcDbLine
 10
10735.1931825359
 20
5.156565836466143
 30
0.0
 11
10846.80396063947
 21
-59.28194694609192
 31
0.0
  0
LINE
  5
F3BC
330
2
100
AcDbEntity
  8
VLB
100
AcDbLine
 10
10708.91284648502
 20
-12.7819469460901
 30
0.0
 11
10952.91284648503
 21
-12.7819469460901
 31
0.0
  0
LINE
  5
F3BD
330
2
100
AcDbEntity
  8
VLB
100
AcDbLine
 10
10841.53416682858
 20
-54.7819469460901
 30
0.0
 11
10846.03416682858
 21
-59.2819469460901
 31
0.0
  0
ARC
  5
F3BE
330
2
100
AcDbEntity
  8
VLB
100
AcDbCircle
 10
10712.37977970382
 20
-14.62832151877591
 30
0.0
 40
2.5
100
AcDbArc
 50
355.0856073079713
 51
3.358343303090527
  0
ARC
  5
F3BF
330
2
100
AcDbEntity
  8
VLB
100
AcDbCircle
 10
10674.94417910709
 20
-16.82509368787759
 30
0.0
 40
40.0
100
AcDbArc
 50
3.358343303090527
 51
5.801288381659474
  0
LINE
  5
F3C0
330
2
100
AcDbEntity
  8
VLB
100
AcDbLine
 10
10708.91284648502
 20
-12.78194694609192
 30
0.0
 11
10708.91284648502
 21
-7.28194694609192
 31
0.0
  0
ARC
  5
F3C1
330
2
100
AcDbEntity
  8
VLB
100
AcDbCircle
 10
10674.41284648502
 20
-7.281946946090101
 30
0.0
 40
34.5
100
AcDbArc
 50
0.0
 51
21.13315426487919
  0
LINE
  5
F3C2
330
2
100
AcDbEntity
  8
VLB
100
AcDbLine
 10
10824.24618048669
 20
-48.64861422742615
 30
0.0
 11
10830.91284648502
 21
-48.64861422742615
 31
0.0
  0
ARC
  5
F3C3
330
2
100
AcDbEntity
  8
VLB
100
AcDbCircle
 10
10830.91284648502
 20
-61.38650363393935
 30
0.0
 40
12.73788940651524
100
AcDbArc
 50
90.0
 51
107.5879537739636
  0
ARC
  5
F3C4
330
2
100
AcDbEntity
  8
VLB
100
AcDbCircle
 10
10825.15004589436
 20
-52.02188585204931
 30
0.0
 40
3.373271624627153
100
AcDbArc
 50
55.43490690551589
 51
119.9999999999973
  0
LINE
  5
F3C5
330
2
100
AcDbEntity
  8
VLB
100
AcDbLine
 10
10824.24618048669
 20
-48.64861422742615
 30
0.0
 11
10823.21484366755
 21
-49.24405681757889
 31
0.0
  0
LINE
  5
F3C6
330
2
100
AcDbEntity
  8
VLB
100
AcDbLine
 10
10824.9795137465
 20
-53.9819470260918
 30
0.0
 11
10824.9795137465
 21
-53.31528042625905
 31
0.0
  0
LINE
  5
F3C7
330
2
100
AcDbEntity
  8
VLB
100
AcDbLine
 10
10820.29152614146
 20
-54.78194694609192
 30
0.0
 11
10830.91284648502
 21
-54.78194694609101
 31
0.0
  0
LINE
  5
F3C8
330
2
100
AcDbEntity
  8
VLB
100
AcDbLine
 10
10824.9795137465
 20
-53.9819470260918
 30
0.0
 11
10830.91284648502
 21
-53.9819470260918
 31
0.0
  0
LINE
  5
F3C9
330
2
100
AcDbEntity
  8
VLB
100
AcDbLine
 10
10830.91284648502
 20
-54.78194694609192
 30
0.0
 11
10823.41284723502
 21
-54.78194694609192
 31
0.0
  0
LINE
  5
F3CA
330
2
100
AcDbEntity
  8
VLB
100
AcDbLine
 10
10830.91284648502
 20
-53.9819470260918
 30
0.0
 11
10823.41284723502
 21
-53.9819470260918
 31
0.0
  0
LINE
  5
F3CB
330
2
100
AcDbEntity
  8
VLB
100
AcDbLine
 10
10820.29152614146
 20
-54.7819469460901
 30
0.0
 11
10815.79152614146
 21
-59.2819469460901
 31
0.0
  0
LINE
  5
F3CC
330
2
100
AcDbEntity
  8
VLB
100
AcDbLine
 10
10823.41284723502
 20
-54.78194694609192
 30
0.0
 11
10823.41284723502
 21
-53.9819470260918
 31
0.0
1001
ACAD
1000
ASC_BOUNDS
1002
{
1070
    16
1002
}
  0
LINE
  5
F3CD
330
2
100
AcDbEntity
  8
VLB
100
AcDbLine
 10
10823.41284723502
 20
-53.9819470260918
 30
0.0
 11
10823.41284723502
 21
-54.78194694609192
 31
0.0
  0
LINE
  5
F3CE
330
2
100
AcDbEntity
  8
VLB
100
AcDbLine
 10
10823.21484366755
 20
-53.31528042625905
 30
0.0
 11
10830.91284648502
 21
-53.31528042625905
 31
0.0
  0
LINE
  5
F3CF
330
2
100
AcDbEntity
  8
SPS
100
AcDbLine
 10
10830.91284648502
 20
-66.78194694609192
 30
0.0
 11
10830.91284648502
 21
-48.78194694609192
 31
0.0
  0
LINE
  5
F3D0
330
2
100
AcDbEntity
  8
VLB
100
AcDbLine
 10
10827.06384507629
 20
-53.31528042625905
 30
0.0
 11
10827.06384507629
 21
-49.24405681757889
 31
0.0
  0
LINE
  5
F3D1
330
2
100
AcDbEntity
  8
VLB
100
AcDbLine
 10
10823.21484366755
 20
-53.31528042625905
 30
0.0
 11
10823.21484366755
 21
-49.24405681757889
 31
0.0
  0
LINE
  5
F3D2
330
2
100
AcDbEntity
  8
VLB
100
AcDbLine
 10
10837.57951248336
 20
-48.64861422742615
 30
0.0
 11
10830.91284648502
 21
-48.64861422742615
 31
0.0
  0
ARC
  5
F3D3
330
2
100
AcDbEntity
  8
VLB
100
AcDbCircle
 10
10830.91284648502
 20
-61.38650363393935
 30
0.0
 40
12.73788940651524
100
AcDbArc
 50
72.41204622603634
 51
90.0
  0
ARC
  5
F3D4
330
2
100
AcDbEntity
  8
VLB
100
AcDbCircle
 10
10836.67564707568
 20
-52.02188585204931
 30
0.0
 40
3.373271624627153
100
AcDbArc
 50
60.00000000000272
 51
124.5650930944841
  0
LINE
  5
F3D5
330
2
100
AcDbEntity
  8
VLB
100
AcDbLine
 10
10837.57951248336
 20
-48.64861422742615
 30
0.0
 11
10838.61084930249
 21
-49.24405681757889
 31
0.0
  0
LINE
  5
F3D6
330
2
100
AcDbEntity
  8
VLB
100
AcDbLine
 10
10836.84617922354
 20
-53.9819470260918
 30
0.0
 11
10836.84617922354
 21
-53.31528042625905
 31
0.0
  0
LINE
  5
F3D7
330
2
100
AcDbEntity
  8
VLB
100
AcDbLine
 10
10841.53416682858
 20
-54.78194694609192
 30
0.0
 11
10830.91284648502
 21
-54.78194694609101
 31
0.0
  0
LINE
  5
F3D8
330
2
100
AcDbEntity
  8
VLB
100
AcDbLine
 10
10836.84617922354
 20
-53.9819470260918
 30
0.0
 11
10830.91284648502
 21
-53.9819470260918
 31
0.0
  0
LINE
  5
F3D9
330
2
100
AcDbEntity
  8
VLB
100
AcDbLine
 10
10830.91284648502
 20
-54.78194694609192
 30
0.0
 11
10838.41284573502
 21
-54.78194694609192
 31
0.0
  0
LINE
  5
F3DA
330
2
100
AcDbEntity
  8
VLB
100
AcDbLine
 10
10830.91284648502
 20
-53.9819470260918
 30
0.0
 11
10838.41284573502
 21
-53.9819470260918
 31
0.0
  0
LINE
  5
F3DB
330
2
100
AcDbEntity
  8
VLB
100
AcDbLine
 10
10838.41284573502
 20
-54.78194694609192
 30
0.0
 11
10838.41284573502
 21
-53.9819470260918
 31
0.0
1001
ACAD
1000
ASC_BOUNDS
1002
{
1070
    16
1002
}
  0
LINE
  5
F3DC
330
2
100
AcDbEntity
  8
VLB
100
AcDbLine
 10
10838.41284573502
 20
-53.9819470260918
 30
0.0
 11
10838.41284573502
 21
-54.78194694609192
 31
0.0
  0
LINE
  5
F3DD
330
2
100
AcDbEntity
  8
VLB
100
AcDbLine
 10
10838.61084930249
 20
-53.31528042625905
 30
0.0
 11
10830.91284648502
 21
-53.31528042625905
 31
0.0
  0
LINE
  5
F3DE
330
2
100
AcDbEntity
  8
SPS
100
AcDbLine
 10
10830.91284648502
 20
-66.78194694609192
 30
0.0
 11
10830.91284648502
 21
-48.78194694609192
 31
0.0
  0
LINE
  5
F3DF
330
2
100
AcDbEntity
  8
SPS
100
AcDbLine
 10
10830.91284648502
 20
-96.78194694609011
 30
0.0
 11
10830.91284648502
 21
4.218053053908079
 31
0.0
  0
LINE
  5
F3E0
330
2
100
AcDbEntity
  8
VLB
100
AcDbLine
 10
10834.76184789376
 20
-53.31528042625905
 30
0.0
 11
10834.76184789376
 21
-49.24405681757889
 31
0.0
  0
LINE
  5
F3E1
330
2
100
AcDbEntity
  8
VLB
100
AcDbLine
 10
10838.61084930249
 20
-53.31528042625905
 30
0.0
 11
10838.61084930249
 21
-49.24405681757889
 31
0.0
  0
LINE
  5
F3E2
330
2
100
AcDbEntity
  8
VLS
100
AcDbLine
 10
10855.19318253591
 20
5.156565836466143
 30
0.0
 11
10966.80396063947
 21
-59.28194694609192
 31
0.0
  0
ARC
  5
F3E3
330
2
100
AcDbEntity
  8
VLB
100
AcDbCircle
 10
10976.32923636003
 20
-52.02188585204931
 30
0.0
 40
3.373271624627153
100
AcDbArc
 50
60.00000000000272
 51
124.5650930944841
  0
LINE
  5
F3E4
330
2
100
AcDbEntity
  8
VLB
100
AcDbLine
 10
10977.2331017677
 20
-48.64861422742433
 30
0.0
 11
10978.26443858683
 21
-49.24405681757708
 31
0.0
  0
LINE
  5
F3E5
330
2
100
AcDbEntity
  8
VLB
100
AcDbLine
 10
10976.49976850788
 20
-53.98194702608998
 30
0.0
 11
10976.49976850788
 21
-53.31528042625723
 31
0.0
  0
LINE
  5
F3E6
330
2
100
AcDbEntity
  8
VLB
100
AcDbLine
 10
10978.06643501936
 20
-54.7819469460901
 30
0.0
 11
10978.06643501936
 21
-53.98194702608998
 31
0.0
1001
ACAD
1000
ASC_BOUNDS
1002
{
1070
    16
1002
}
  0
LINE
  5
F3E7
330
2
100
AcDbEntity
  8
VLB
100
AcDbLine
 10
10978.06643501936
 20
-53.98194702608998
 30
0.0
 11
10978.06643501936
 21
-54.7819469460901
 31
0.0
  0
LINE
  5
F3E8
330
2
100
AcDbEntity
  8
VLB
100
AcDbLine
 10
10974.4154371781
 20
-53.31528042625723
 30
0.0
 11
10974.4154371781
 21
-49.24405681757708
 31
0.0
  0
LINE
  5
F3E9
330
2
100
AcDbEntity
  8
VLB
100
AcDbLine
 10
10978.26443858683
 20
-53.31528042625723
 30
0.0
 11
10978.26443858683
 21
-49.24405681757708
 31
0.0
  0
ARC
  5
F3EA
330
2
100
AcDbEntity
  8
VLB
100
AcDbCircle
 10
11026.16284648502
 20
-8.03194694609192
 30
0.0
 40
79.5
100
AcDbArc
 50
184.9143926920286
 51
209.9999999999764
  0
LINE
  5
F3EB
330
2
100
AcDbEntity
  8
VLB
100
AcDbLine
 10
10963.89976977103
 20
-48.64861422742433
 30
0.0
 11
10962.86843295189
 21
-49.24405681757708
 31
0.0
  0
ARC
  5
F3EC
330
2
100
AcDbEntity
  8
VLB
100
AcDbCircle
 10
10964.8036351787
 20
-52.02188585204931
 30
0.0
 40
3.373271624627153
100
AcDbArc
 50
55.43490690551589
 51
119.9999999999973
  0
ARC
  5
F3ED
330
2
100
AcDbEntity
  8
VLB
100
AcDbCircle
 10
10949.44591326623
 20
-14.62832151877591
 30
0.0
 40
2.5
100
AcDbArc
 50
176.6416566969094
 51
184.9143926920286
  0
LINE
  5
F3EE
330
2
100
AcDbEntity
  8
VLB
100
AcDbLine
 10
10952.91284648502
 20
-12.78194694609192
 30
0.0
 11
10952.91284648503
 21
-7.28194694609192
 31
0.0
  0
ARC
  5
F3EF
330
2
100
AcDbEntity
  8
VLB
100
AcDbCircle
 10
10986.88151386295
 20
-16.82509368787759
 30
0.0
 40
40.0
100
AcDbArc
 50
174.1987116183405
 51
176.6416566969094
  0
LINE
  5
F3F0
330
2
100
AcDbEntity
  8
VLB
100
AcDbLine
 10
10964.63310303085
 20
-53.98194702608998
 30
0.0
 11
10964.63310303085
 21
-53.31528042625723
 31
0.0
  0
LINE
  5
F3F1
330
2
100
AcDbEntity
  8
VLB
100
AcDbLine
 10
10963.06643651937
 20
-54.7819469460901
 30
0.0
 11
10970.56643576936
 21
-54.7819469460901
 31
0.0
  0
LINE
  5
F3F2
330
2
100
AcDbEntity
  8
VLB
100
AcDbLine
 10
10963.06643651937
 20
-53.98194702608998
 30
0.0
 11
10970.56643576936
 21
-53.98194702608998
 31
0.0
  0
LINE
  5
F3F3
330
2
100
AcDbEntity
  8
VLB
100
AcDbLine
 10
10959.94511542581
 20
-54.7819469460901
 30
0.0
 11
10955.44511542581
 21
-59.2819469460901
 31
0.0
  0
LINE
  5
F3F4
330
2
100
AcDbEntity
  8
VLB
100
AcDbLine
 10
10963.06643651937
 20
-54.7819469460901
 30
0.0
 11
10963.06643651937
 21
-53.98194702608998
 31
0.0
1001
ACAD
1000
ASC_BOUNDS
1002
{
1070
    16
1002
}
  0
ARC
  5
F3F5
330
2
100
AcDbEntity
  8
VLB
100
AcDbCircle
 10
10977.2324111712
 20
-36.28194694609192
 30
0.0
 40
23.0
100
AcDbArc
 50
209.9999999999764
 51
231.9817865042841
  0
LINE
  5
F3F6
330
2
100
AcDbEntity
  8
SPS
100
AcDbLine
 10
10970.56643576937
 20
-66.7819469460901
 30
0.0
 11
10970.56643576936
 21
-41.79861353428532
 31
0.0
  0
LINE
  5
F3F7
330
2
100
AcDbEntity
  8
VLB
100
AcDbLine
 10
10966.71743436063
 20
-53.31528042625723
 30
0.0
 11
10966.71743436063
 21
-49.24405681757708
 31
0.0
  0
LINE
  5
F3F8
330
2
100
AcDbEntity
  8
VLB
100
AcDbLine
 10
10962.86843295189
 20
-53.31528042625723
 30
0.0
 11
10962.86843295189
 21
-49.24405681757708
 31
0.0
  0
ARC
  5
F3F9
330
2
100
AcDbEntity
  8
VLB
100
AcDbCircle
 10
10987.41284648502
 20
-7.281946946090101
 30
0.0
 40
34.5
100
AcDbArc
 50
158.8668457351207
 51
180.0
  0
LINE
  5
F3FA
330
2
100
AcDbEntity
  8
VLB
100
AcDbLine
 10
10981.18775611292
 20
-54.78194694609192
 30
0.0
 11
10959.94511542581
 21
-54.7819469460901
 31
0.0
  0
LINE
  5
F3FB
330
2
100
AcDbEntity
  8
VLB
100
AcDbLine
 10
10976.49976850788
 20
-53.98194702608998
 30
0.0
 11
10964.63310303085
 21
-53.98194702608998
 31
0.0
  0
LINE
  5
F3FC
330
2
100
AcDbEntity
  8
VLB
100
AcDbLine
 10
10970.56643576936
 20
-54.7819469460901
 30
0.0
 11
10978.06643501936
 21
-54.7819469460901
 31
0.0
  0
LINE
  5
F3FD
330
2
100
AcDbEntity
  8
VLB
100
AcDbLine
 10
10970.56643576936
 20
-53.98194702608998
 30
0.0
 11
10978.06643501936
 21
-53.98194702608998
 31
0.0
  0
ARC
  5
F3FE
330
2
100
AcDbEntity
  8
VLB
100
AcDbCircle
 10
10970.56643576936
 20
-61.38650363393935
 30
0.0
 40
12.73788940651524
100
AcDbArc
 50
72.41204622603634
 51
107.5879537739636
  0
LINE
  5
F3FF
330
2
100
AcDbEntity
  8
VLB
100
AcDbLine
 10
10978.26443858683
 20
-53.31528042625723
 30
0.0
 11
10962.86843295189
 21
-53.31528042625723
 31
0.0
  0
LINE
  5
F400
330
2
100
AcDbEntity
  8
VLB
100
AcDbLine
 10
10977.2331017677
 20
-48.64861422742433
 30
0.0
 11
10963.89976977103
 21
-48.64861422742433
 31
0.0
  0
ELLIPSE
  5
F401
330
2
100
AcDbEntity
  8
VLB
100
AcDbEllipse
 10
10570.91284648501
 20
246.6365217318941
 30
0.0
 11
-5.0
 21
0.0000000000000024
 31
0.0
210
0.0
220
0.0
230
1.0
 40
0.8660254037843287
 41
0.0
 42
6.283185307179586
  0
ELLIPSE
  5
F402
330
2
100
AcDbEntity
  8
VLB
100
AcDbEllipse
 10
10570.91284648501
 20
245.6365217319232
 30
0.0
 11
5.0
 21
-0.0000000000000024
 31
0.0
210
0.0
220
0.0
230
1.0
 40
0.7660254037896266
 41
3.141592653589793
 42
6.283185307179586
  0
LINE
  5
F403
330
2
100
AcDbEntity
  8
SPS
100
AcDbLine
 10
10562.91284648501
 20
245.6365217319232
 30
0.0
 11
10578.91284648501
 21
245.6365217319232
 31
0.0
  0
LINE
  5
F404
330
2
100
AcDbEntity
  8
VLB
100
AcDbLine
 10
10442.15587331796
 20
178.5864289928827
 30
0.0
 11
10447.15587331795
 21
187.2466830307218
 31
0.0
  0
ARC
  5
F405
330
2
100
AcDbEntity
  8
VLB
100
AcDbCircle
 10
10455.04817816337
 20
176.9165560118067
 30
0.0
 40
12.99999999999925
100
AcDbArc
 50
127.3801350518994
 51
172.619864948082
  0
LINE
  5
F406
330
2
100
AcDbEntity
  8
SPS
100
AcDbLine
 10
10450.71805114443
 20
179.4165560118217
 30
0.0
 11
10441.19177170279
 21
184.9165560118199
 31
0.0
  0
LINE
  5
F407
330
2
100
AcDbEntity
  8
VLB
100
AcDbLine
 10
10443.02189872174
 20
178.0864289928863
 30
0.0
 11
10448.02189872174
 21
186.7466830307307
 31
0.0
  0
LINE
  5
F408
330
2
100
AcDbEntity
  8
VLB
100
AcDbLine
 10
10442.15587331796
 20
178.5864289928827
 30
0.0
 11
10443.02189872174
 21
178.0864289928863
 31
0.0
  0
LINE
  5
F409
330
2
100
AcDbEntity
  8
VLB
100
AcDbLine
 10
10447.15587331796
 20
187.2466830307271
 30
0.0
 11
10448.02189872174
 21
186.7466830307307
 31
0.0
  0
LINE
  5
F40A
330
2
100
AcDbEntity
  8
VLB
100
AcDbLine
 10
10478.68079567746
 20
241.8494502620426
 30
0.0
 11
10483.68079567746
 21
250.5097042998818
 31
0.0
  0
LINE
  5
F40B
330
2
100
AcDbEntity
  8
VLB
100
AcDbLine
 10
10483.68079567746
 20
250.509704299887
 30
0.0
 11
10484.54682108125
 21
250.0097042998906
 31
0.0
  0
ARC
  5
F40C
330
2
100
AcDbEntity
  8
VLB
100
AcDbCircle
 10
10491.57310052288
 20
240.1795772809666
 30
0.0
 40
12.99999999999925
100
AcDbArc
 50
127.3801350518994
 51
172.619864948082
  0
LINE
  5
F40D
330
2
100
AcDbEntity
  8
VLB
100
AcDbLine
 10
10478.68079567746
 20
241.8494502620426
 30
0.0
 11
10479.54682108125
 21
241.3494502620462
 31
0.0
  0
LINE
  5
F40E
330
2
100
AcDbEntity
  8
SPS
100
AcDbLine
 10
10488.10899890773
 20
242.1221698822469
 30
0.0
 11
10477.71669406231
 21
248.1221698822455
 31
0.0
  0
LINE
  5
F40F
330
2
100
AcDbEntity
  8
VLB
100
AcDbLine
 10
10565.91284648501
 20
246.6365217318941
 30
0.0
 11
10565.91284648501
 21
245.6365217319232
 31
0.0
  0
LINE
  5
F410
330
2
100
AcDbEntity
  8
VLB
100
AcDbLine
 10
10532.15587331796
 20
334.4710016740768
 30
0.0
 11
10537.15587331796
 21
343.1312557119235
 31
0.0
  0
LINE
  5
F411
330
2
100
AcDbEntity
  8
VLB
100
AcDbLine
 10
10537.15587331796
 20
343.1312557119245
 30
0.0
 11
10538.02189872174
 21
342.6312557119281
 31
0.0
  0
LINE
  5
F412
330
2
100
AcDbEntity
  8
VLB
100
AcDbLine
 10
10532.15587331796
 20
334.47100167408
 30
0.0
 11
10533.02189872174
 21
333.9710016740837
 31
0.0
  0
LINE
  5
F413
330
2
100
AcDbEntity
  8
VLB
100
AcDbLine
 10
10533.02189872174
 20
333.9710016740837
 30
0.0
 11
10538.02189872174
 21
342.6312557119281
 31
0.0
  0
ARC
  5
F414
330
2
100
AcDbEntity
  8
VLB
100
AcDbCircle
 10
10545.04817816337
 20
332.8011286930041
 30
0.0
 40
12.99999999999925
100
AcDbArc
 50
127.3801350518994
 51
172.619864948082
  0
LINE
  5
F415
330
2
100
AcDbEntity
  8
SPS
100
AcDbLine
 10
10540.71805114441
 20
335.3011286930323
 30
0.0
 11
10531.19177170278
 21
340.8011286930304
 31
0.0
  0
LINE
  5
F416
330
2
100
AcDbEntity
  8
SPS
100
AcDbLine
 10
10623.41284648502
 20
92.32153720154474
 30
0.0
 11
10643.41284648502
 21
92.32153720154474
 31
0.0
  0
ELLIPSE
  5
F417
330
2
100
AcDbEntity
  8
VLB
100
AcDbEllipse
 10
10633.41284648502
 20
92.32153720154474
 30
0.0
 11
0.0000000000000013
 21
2.708364779654402
 31
0.0
210
0.0
220
0.0
230
1.0
 40
0.9415275295097664
 41
0.0
 42
6.283185307179586
  0
LINE
  5
F418
330
2
100
AcDbEntity
  8
SPS
100
AcDbLine
 10
10633.41284648502
 20
82.32153720154474
 30
0.0
 11
10633.41284648502
 21
102.3215372015447
 31
0.0
  0
LINE
  5
F419
330
2
100
AcDbEntity
  8
SPS
100
AcDbLine
 10
10570.91284648501
 20
238.8063748539095
 30
0.0
 11
10570.91284648501
 21
252.4666686099387
 31
0.0
  0
LINE
  5
F41A
330
2
100
AcDbEntity
  8
VLB
100
AcDbLine
 10
10575.91284648501
 20
245.6365217319232
 30
0.0
 11
10575.91284648501
 21
246.6365217318941
 31
0.0
  0
ELLIPSE
  5
F41B
330
2
100
AcDbEntity
  8
VLB
100
AcDbEllipse
 10
10570.91284648501
 20
247.1365217318941
 30
0.0
 11
-1.5
 21
0.0000000000000007
 31
0.0
210
0.0
220
0.0
230
1.0
 40
0.837082593832747
 41
0.0
 42
6.283185307179586
  0
HATCH
  5
F41C
330
2
100
AcDbEntity
  8
VLB
100
AcDbHatch
 10
0.0
 20
0.0
 30
0.0
210
0.0
220
0.0
230
1.0
  2
SOLID
 70
     1
 71
     0
 91
        2
 92
        5
 93
        2
 72
     3
 10
10570.91284648501
 20
247.1365217318941
 11
-1.5
 21
0.0000000000000007
 40
0.837082593832747
 50
90.0
 51
270.0
 73
     1
 72
     1
 10
10570.91284648501
 20
248.3921456226432
 11
10570.91284648501
 21
245.8808978411448
 97
        0
 92
        5
 93
        2
 72
     3
 10
10570.91284648501
 20
247.1365217318941
 11
-1.5
 21
0.0000000000000007
 40
0.837082593832747
 50
270.0
 51
450.0
 73
     1
 72
     1
 10
10570.91284648501
 20
245.880897841145
 11
10570.91284648501
 21
248.392145622643
 97
        0
 75
     0
 76
     1
 47
0.0516579537025894
 98
        2
 10
10571.74405157377
 20
246.8945718066477
 10
10570.45153728903
 20
246.8429138010212
  0
LINE
  5
F41D
330
2
100
AcDbEntity
  8
VLB
100
AcDbLine
 10
10673.51320832968
 20
482.7209369294733
 30
0.0
 11
10678.51320832968
 21
491.381190967324
 31
0.0
  0
LINE
  5
F41E
330
2
100
AcDbEntity
  8
SPS
100
AcDbLine
 10
10672.98211941643
 20
488.8010639484077
 30
0.0
 11
10682.50839885806
 21
483.3010639484077
 31
0.0
  0
ARC
  5
F41F
330
2
100
AcDbEntity
  8
VLB
100
AcDbCircle
 10
10686.4055131751
 20
481.0510639484034
 30
0.0
 40
12.99999999999925
100
AcDbArc
 50
127.3801350518994
 51
172.619864948082
  0
LINE
  5
F420
330
2
100
AcDbEntity
  8
VLB
100
AcDbLine
 10
10673.51320832968
 20
482.7209369294794
 30
0.0
 11
10674.37923373346
 21
482.2209369294831
 31
0.0
  0
LINE
  5
F421
330
2
100
AcDbEntity
  8
VLB
100
AcDbLine
 10
10678.51320832968
 20
491.3811909673238
 30
0.0
 11
10679.37923373346
 21
490.8811909673274
 31
0.0
  0
LINE
  5
F422
330
2
100
AcDbEntity
  8
VLB
100
AcDbLine
 10
10825.91284648502
 20
246.6365217318941
 30
0.0
 11
10825.91284648502
 21
245.6365217319232
 31
0.0
  0
LINE
  5
F423
330
2
100
AcDbEntity
  8
SPS
100
AcDbLine
 10
10830.91284648502
 20
238.8063748539095
 30
0.0
 11
10830.91284648502
 21
252.4666686099387
 31
0.0
  0
LINE
  5
F424
330
2
100
AcDbEntity
  8
VLB
100
AcDbLine
 10
10835.91284648502
 20
245.6365217319232
 30
0.0
 11
10835.91284648502
 21
246.6365217318941
 31
0.0
  0
ELLIPSE
  5
F425
330
2
100
AcDbEntity
  8
VLB
100
AcDbEllipse
 10
10830.91284648502
 20
247.1365217318941
 30
0.0
 11
-1.5
 21
0.0000000000000007
 31
0.0
210
0.0
220
0.0
230
1.0
 40
0.837082593832747
 41
0.0
 42
6.283185307179586
  0
HATCH
  5
F426
330
2
100
AcDbEntity
  8
VLB
100
AcDbHatch
 10
0.0
 20
0.0
 30
0.0
210
0.0
220
0.0
230
1.0
  2
SOLID
 70
     1
 71
     0
 91
        2
 92
        5
 93
        2
 72
     3
 10
10830.91284648502
 20
247.1365217318941
 11
-1.5
 21
0.0000000000000007
 40
0.837082593832747
 50
90.0
 51
270.0
 73
     1
 72
     1
 10
10830.91284648502
 20
248.3921456226432
 11
10830.91284648502
 21
245.8808978411448
 97
        0
 92
        5
 93
        2
 72
     3
 10
10830.91284648502
 20
247.1365217318941
 11
-1.5
 21
0.0000000000000007
 40
0.837082593832747
 50
270.0
 51
450.0
 73
     1
 72
     1
 10
10830.91284648502
 20
245.880897841145
 11
10830.91284648502
 21
248.392145622643
 97
        0
 75
     0
 76
     1
 47
0.0516579537025894
 98
        2
 10
10831.74405157378
 20
246.8945718066477
 10
10830.45153728904
 20
246.8429138010212
  0
ELLIPSE
  5
F427
330
2
100
AcDbEntity
  8
VLB
100
AcDbEllipse
 10
10830.91284648502
 20
246.6365217318941
 30
0.0
 11
-5.0
 21
0.0000000000000024
 31
0.0
210
0.0
220
0.0
230
1.0
 40
0.8660254037843287
 41
0.0
 42
6.283185307179586
  0
ELLIPSE
  5
F428
330
2
100
AcDbEntity
  8
VLB
100
AcDbEllipse
 10
10830.91284648502
 20
245.6365217319232
 30
0.0
 11
5.0
 21
-0.0000000000000024
 31
0.0
210
0.0
220
0.0
230
1.0
 40
0.7660254037896266
 41
3.141592653589793
 42
6.283185307179586
  0
LINE
  5
F429
330
2
100
AcDbEntity
  8
SPS
100
AcDbLine
 10
10822.91284648502
 20
245.6365217319232
 30
0.0
 11
10838.91284648502
 21
245.6365217319232
 31
0.0
  0
ELLIPSE
  5
F42A
330
2
100
AcDbEntity
  8
VLB
100
AcDbEllipse
 10
10848.46832224737
 20
703.9381313359854
 30
0.0
 11
-5.0
 21
0.0000000000000024
 31
0.0
210
0.0
220
0.0
230
1.0
 40
0.8660254037843287
 41
0.0
 42
6.283185307179586
  0
ELLIPSE
  5
F42B
330
2
100
AcDbEntity
  8
VLB
100
AcDbEllipse
 10
10848.46832224737
 20
702.9381313360145
 30
0.0
 11
5.0
 21
-0.0000000000000024
 31
0.0
210
0.0
220
0.0
230
1.0
 40
0.7660254037896266
 41
3.141592653589793
 42
6.283185307179586
  0
LINE
  5
F42C
330
2
100
AcDbEntity
  8
SPS
100
AcDbLine
 10
10840.46832224738
 20
702.9381313360145
 30
0.0
 11
10856.46832224737
 21
702.9381313360145
 31
0.0
  0
LINE
  5
F42D
330
2
100
AcDbEntity
  8
VLB
100
AcDbLine
 10
10843.46832224738
 20
703.9381313359854
 30
0.0
 11
10843.46832224738
 21
702.9381313360145
 31
0.0
  0
LINE
  5
F42E
330
2
100
AcDbEntity
  8
VLB
100
AcDbLine
 10
10798.73301506967
 20
699.6080043170798
 30
0.0
 11
10803.73301506967
 21
708.2682583549304
 31
0.0
  0
ARC
  5
F42F
330
2
100
AcDbEntity
  8
VLB
100
AcDbCircle
 10
10811.62531991509
 20
697.9381313360099
 30
0.0
 40
12.99999999999925
100
AcDbArc
 50
127.3801350518994
 51
172.619864948082
  0
LINE
  5
F430
330
2
100
AcDbEntity
  8
VLB
100
AcDbLine
 10
10798.73301506967
 20
699.6080043170859
 30
0.0
 11
10799.59904047345
 21
699.1080043170896
 31
0.0
  0
LINE
  5
F431
330
2
100
AcDbEntity
  8
VLB
100
AcDbLine
 10
10803.73301506967
 20
708.2682583549304
 30
0.0
 11
10804.59904047345
 21
707.7682583549339
 31
0.0
  0
LINE
  5
F432
330
2
100
AcDbEntity
  8
SPS
100
AcDbLine
 10
10798.20192615642
 20
705.6881313360158
 30
0.0
 11
10807.72820559805
 21
700.1881313360159
 31
0.0
  0
ELLIPSE
  5
F433
330
2
100
AcDbEntity
  8
VLB
100
AcDbEllipse
 10
10973.68812898737
 20
487.0510639483736
 30
0.0
 11
-5.0
 21
0.0000000000000024
 31
0.0
210
0.0
220
0.0
230
1.0
 40
0.8660254037843287
 41
0.0
 42
6.283185307179586
  0
ELLIPSE
  5
F434
330
2
100
AcDbEntity
  8
VLB
100
AcDbEllipse
 10
10973.68812898737
 20
486.0510639484028
 30
0.0
 11
5.0
 21
-0.0000000000000024
 31
0.0
210
0.0
220
0.0
230
1.0
 40
0.7660254037896266
 41
3.141592653589793
 42
6.283185307179586
  0
ELLIPSE
  5
F435
330
2
100
AcDbEntity
  8
VLB
100
AcDbEllipse
 10
10973.68812898737
 20
487.5510639483736
 30
0.0
 11
-1.5
 21
0.0000000000000007
 31
0.0
210
0.0
220
0.0
230
1.0
 40
0.837082593832747
 41
0.0
 42
6.283185307179586
  0
HATCH
  5
F436
330
2
100
AcDbEntity
  8
VLB
100
AcDbHatch
 10
0.0
 20
0.0
 30
0.0
210
0.0
220
0.0
230
1.0
  2
SOLID
 70
     1
 71
     0
 91
        2
 92
        5
 93
        2
 72
     3
 10
10973.68812898737
 20
487.5510639483736
 11
-1.5
 21
0.0000000000000007
 40
0.837082593832747
 50
90.0
 51
270.0
 73
     1
 72
     1
 10
10973.68812898737
 20
488.8066878391227
 11
10973.68812898737
 21
486.2954400576243
 97
        0
 92
        5
 93
        2
 72
     3
 10
10973.68812898737
 20
487.5510639483736
 11
-1.5
 21
0.0000000000000007
 40
0.837082593832747
 50
270.0
 51
450.0
 73
     1
 72
     1
 10
10973.68812898737
 20
486.2954400576245
 11
10973.68812898737
 21
488.8066878391227
 97
        0
 75
     0
 76
     1
 47
0.0516579537025894
 98
        2
 10
10974.51933407612
 20
487.3091140231272
 10
10973.22681979139
 20
487.2574560174989
  0
LINE
  5
F437
330
2
100
AcDbEntity
  8
SPS
100
AcDbLine
 10
10965.68812898737
 20
486.0510639484028
 30
0.0
 11
10981.68812898737
 21
486.0510639484028
 31
0.0
  0
LINE
  5
F438
330
2
100
AcDbEntity
  8
VLB
100
AcDbLine
 10
10978.68812898737
 20
486.0510639484028
 30
0.0
 11
10978.68812898737
 21
487.0510639483736
 31
0.0
  0
LINE
  5
F439
330
2
100
AcDbEntity
  8
VLB
100
AcDbLine
 10
10968.68812898737
 20
487.0510639483736
 30
0.0
 11
10968.68812898737
 21
486.0510639484028
 31
0.0
  0
LINE
  5
F43A
330
2
100
AcDbEntity
  8
SPS
100
AcDbLine
 10
10973.68812898737
 20
479.2209170703872
 30
0.0
 11
10973.68812898737
 21
492.8812108264183
 31
0.0
  0
ELLIPSE
  5
F43B
330
2
100
AcDbEntity
  8
VLB
100
AcDbEllipse
 10
10848.46832224737
 20
704.4381313359854
 30
0.0
 11
-1.5
 21
0.0000000000000007
 31
0.0
210
0.0
220
0.0
230
1.0
 40
0.837082593832747
 41
0.0
 42
6.283185307179586
  0
HATCH
  5
F43C
330
2
100
AcDbEntity
  8
VLB
100
AcDbHatch
 10
0.0
 20
0.0
 30
0.0
210
0.0
220
0.0
230
1.0
  2
SOLID
 70
     1
 71
     0
 91
        2
 92
        5
 93
        2
 72
     3
 10
10848.46832224737
 20
704.4381313359854
 11
-1.5
 21
0.0000000000000007
 40
0.837082593832747
 50
90.0
 51
270.0
 73
     1
 72
     1
 10
10848.46832224737
 20
705.6937552267345
 11
10848.46832224737
 21
703.1825074452361
 97
        0
 92
        5
 93
        2
 72
     3
 10
10848.46832224737
 20
704.4381313359854
 11
-1.5
 21
0.0000000000000007
 40
0.837082593832747
 50
270.0
 51
450.0
 73
     1
 72
     1
 10
10848.46832224737
 20
703.1825074452362
 11
10848.46832224737
 21
705.6937552267345
 97
        0
 75
     0
 76
     1
 47
0.0516579537025894
 98
        2
 10
10849.29952733613
 20
704.196181410739
 10
10848.00701305139
 20
704.1445234051106
  0
LINE
  5
F43D
330
2
100
AcDbEntity
  8
VLB
100
AcDbLine
 10
10853.46832224737
 20
702.9381313360145
 30
0.0
 11
10853.46832224737
 21
703.9381313359854
 31
0.0
  0
LINE
  5
F43E
330
2
100
AcDbEntity
  8
SPS
100
AcDbLine
 10
10848.46832224737
 20
696.107984457999
 30
0.0
 11
10848.46832224737
 21
709.76827821403
 31
0.0
  0
LINE
  5
F43F
330
2
100
AcDbEntity
  8
VLB
100
AcDbLine
 10
11317.41284648502
 20
5.290540432681609
 30
0.0
 11
11115.41760253784
 21
355.1565658364649
 31
0.0
  0
LINE
  5
F440
330
2
100
AcDbEntity
  8
VLB
100
AcDbLine
 10
11317.77887188881
 20
6.656565836465233
 30
0.0
 11
11116.57230307621
 21
355.1565658364652
 31
0.0
  0
LINE
  5
F441
330
2
100
AcDbEntity
  8
SPS
100
AcDbLine
 10
11055.91284648501
 20
-504.0834451228302
 30
0.0
 11
11055.91284648501
 21
-544.0834451228302
 31
0.0
  0
LINE
  5
F442
330
2
100
AcDbEntity
  8
VLB
100
AcDbLine
 10
11126.94228373654
 20
-50.28194694608465
 30
0.0
 11
11116.91284648502
 21
-50.28194694608692
 31
0.0
  0
LINE
  5
F443
330
2
100
AcDbEntity
  8
VLB
100
AcDbLine
 10
11128.91284648502
 20
-57.2819469460901
 30
0.0
 11
11116.91284648502
 21
-57.2819469460901
 31
0.0
  0
LINE
  5
F444
330
2
100
AcDbEntity
  8
VLB
100
AcDbLine
 10
11128.91284648502
 20
-57.28195884609613
 30
0.0
 11
11116.91284648502
 21
-57.28195884609613
 31
0.0
  0
LINE
  5
F445
330
2
100
AcDbEntity
  8
VLB
100
AcDbLine
 10
11128.91284648502
 20
-59.2819469460901
 30
0.0
 11
11101.91284648502
 21
-59.2819469460901
 31
0.0
  0
LINE
  5
F446
330
2
100
AcDbEntity
  8
VLB
100
AcDbLine
 10
11117.91284648502
 20
-57.2819469460901
 30
0.0
 11
11125.41284573502
 21
-57.2819469460901
 31
0.0
  0
LINE
  5
F447
330
2
100
AcDbEntity
  8
VLB
100
AcDbLine
 10
11117.91284648502
 20
-56.48194702608816
 30
0.0
 11
11125.41284573502
 21
-56.48194702608998
 31
0.0
  0
LINE
  5
F448
330
2
100
AcDbEntity
  8
VLB
100
AcDbLine
 10
11125.61084930249
 20
-55.81528042625541
 30
0.0
 11
11116.91284648502
 21
-55.81528042625541
 31
0.0
  0
LINE
  5
F449
330
2
100
AcDbEntity
  8
VLB
100
AcDbLine
 10
11123.84617922354
 20
-56.48194702608816
 30
0.0
 11
11116.91284648502
 21
-56.48194702608816
 31
0.0
  0
LINE
  5
F44A
330
2
100
AcDbEntity
  8
VLB
100
AcDbLine
 10
11123.84617922353
 20
-56.48195892609601
 30
0.0
 11
11116.91284648502
 21
-56.48195892609601
 31
0.0
  0
LINE
  5
F44B
330
2
100
AcDbEntity
  8
VLB
100
AcDbLine
 10
11125.61084930249
 20
-55.81529232626144
 30
0.0
 11
11116.91284648502
 21
-55.81529232626144
 31
0.0
  0
LINE
  5
F44C
330
2
100
AcDbEntity
  8
VLB
100
AcDbLine
 10
11117.91284648502
 20
-56.48195892609601
 30
0.0
 11
11125.41284573502
 21
-56.48195892609601
 31
0.0
  0
LINE
  5
F44D
330
2
100
AcDbEntity
  8
VLB
100
AcDbLine
 10
11117.91284648502
 20
-57.28195884609613
 30
0.0
 11
11125.41284573502
 21
-57.28195884609613
 31
0.0
  0
LINE
  5
F44E
330
2
100
AcDbEntity
  8
VLB
100
AcDbLine
 10
11124.57951248335
 20
-51.14861422742251
 30
0.0
 11
11116.91284648502
 21
-51.14861422742251
 31
0.0
  0
ARC
  5
F44F
330
2
100
AcDbEntity
  8
VLB
100
AcDbCircle
 10
11117.91284648502
 20
-63.88650363393754
 30
0.0
 40
12.73788940651524
100
AcDbArc
 50
72.41204622603634
 51
94.50269236712561
  0
ARC
  5
F450
330
2
100
AcDbEntity
  8
VLB
100
AcDbCircle
 10
11117.91284648502
 20
-63.88651553394538
 30
0.0
 40
12.73788940651524
100
AcDbArc
 50
72.41204622603634
 51
94.50269236691678
  0
LINE
  5
F451
330
2
100
AcDbEntity
  8
VLB
100
AcDbLine
 10
11124.57951248335
 20
-51.14862612743036
 30
0.0
 11
11116.91284648502
 21
-51.14862612743036
 31
0.0
  0
LINE
  5
F452
330
2
100
AcDbEntity
  8
VLB
100
AcDbLine
 10
11071.91284648501
 20
-59.2819469460901
 30
0.0
 11
11133.15548717213
 21
-59.28194694609101
 31
0.0
  0
LINE
  5
F453
330
2
100
AcDbEntity
  8
VLB
100
AcDbLine
 10
11128.41284648502
 20
-59.28194694609192
 30
0.0
 11
11028.41284648502
 21
-59.28194694609192
 31
0.0
  0
LINE
  5
F454
330
2
100
AcDbEntity
  8
VLS
100
AcDbLine
 10
10995.02173233058
 20
-59.28194694609192
 30
0.0
 11
11101.91284648502
 21
2.431666584956474
 31
0.0
  0
LINE
  5
F455
330
2
100
AcDbEntity
  8
VLS
100
AcDbLine
 10
11035.19318253591
 20
5.156565836466143
 30
0.0
 11
11101.91284648502
 21
-33.36405010479598
 31
0.0
  0
LINE
  5
F456
330
2
100
AcDbEntity
  8
VLB
100
AcDbLine
 10
11035.07951248336
 20
-48.64861422742615
 30
0.0
 11
11036.11084930249
 21
-49.24405681757889
 31
0.0
  0
ARC
  5
F457
330
2
100
AcDbEntity
  8
VLB
100
AcDbCircle
 10
11022.65004589436
 20
-52.02188585205113
 30
0.0
 40
3.373271624627153
100
AcDbArc
 50
55.43490690551589
 51
119.9999999999973
  0
LINE
  5
F458
330
2
100
AcDbEntity
  8
VLB
100
AcDbLine
 10
11021.74618048669
 20
-48.64861422742615
 30
0.0
 11
11020.71484366755
 21
-49.24405681757889
 31
0.0
  0
ARC
  5
F459
330
2
100
AcDbEntity
  8
VLB
100
AcDbCircle
 10
11028.41284648502
 20
-61.38650363394117
 30
0.0
 40
12.73788940651524
100
AcDbArc
 50
72.41204622603634
 51
107.5879537739636
  0
LINE
  5
F45A
330
2
100
AcDbEntity
  8
VLB
100
AcDbLine
 10
11035.07951248336
 20
-48.64861422742615
 30
0.0
 11
11021.74618048669
 21
-48.64861422742615
 31
0.0
  0
ARC
  5
F45B
330
2
100
AcDbEntity
  8
VLB
100
AcDbCircle
 10
11034.17564707568
 20
-52.02188585205113
 30
0.0
 40
3.373271624627153
100
AcDbArc
 50
60.00000000000272
 51
124.5650930944841
  0
LINE
  5
F45C
330
2
100
AcDbEntity
  8
VLB
100
AcDbLine
 10
11034.34617922354
 20
-53.9819470260918
 30
0.0
 11
11034.34617922354
 21
-53.31528042625905
 31
0.0
  0
LINE
  5
F45D
330
2
100
AcDbEntity
  8
VLB
100
AcDbLine
 10
11022.4795137465
 20
-53.9819470260918
 30
0.0
 11
11022.4795137465
 21
-53.31528042625905
 31
0.0
  0
LINE
  5
F45E
330
2
100
AcDbEntity
  8
VLB
100
AcDbLine
 10
11017.79152614146
 20
-54.78194694609192
 30
0.0
 11
11039.03416682858
 21
-54.78194694609192
 31
0.0
  0
LINE
  5
F45F
330
2
100
AcDbEntity
  8
VLB
100
AcDbLine
 10
11035.91284573502
 20
-54.78194694609192
 30
0.0
 11
11035.91284573502
 21
-53.9819470260918
 31
0.0
1001
ACAD
1000
ASC_BOUNDS
1002
{
1070
    16
1002
}
  0
LINE
  5
F460
330
2
100
AcDbEntity
  8
VLB
100
AcDbLine
 10
11035.91284573502
 20
-53.9819470260918
 30
0.0
 11
11035.91284573502
 21
-54.78194694609192
 31
0.0
  0
LINE
  5
F461
330
2
100
AcDbEntity
  8
VLB
100
AcDbLine
 10
11020.91284723502
 20
-53.9819470260918
 30
0.0
 11
11028.41284648502
 21
-53.9819470260918
 31
0.0
  0
LINE
  5
F462
330
2
100
AcDbEntity
  8
VLB
100
AcDbLine
 10
11020.91284723502
 20
-54.78194694609192
 30
0.0
 11
11020.91284723502
 21
-53.9819470260918
 31
0.0
1001
ACAD
1000
ASC_BOUNDS
1002
{
1070
    16
1002
}
  0
LINE
  5
F463
330
2
100
AcDbEntity
  8
VLB
100
AcDbLine
 10
11028.41284648502
 20
-53.9819470260918
 30
0.0
 11
11035.91284573502
 21
-53.9819470260918
 31
0.0
  0
LINE
  5
F464
330
2
100
AcDbEntity
  8
VLB
100
AcDbLine
 10
11034.34617922354
 20
-53.9819470260918
 30
0.0
 11
11022.4795137465
 21
-53.9819470260918
 31
0.0
  0
LINE
  5
F465
330
2
100
AcDbEntity
  8
VLB
100
AcDbLine
 10
11039.03416682858
 20
-54.78194694609192
 30
0.0
 11
11043.53416682858
 21
-59.28194694609192
 31
0.0
  0
LINE
  5
F466
330
2
100
AcDbEntity
  8
VLB
100
AcDbLine
 10
11036.11084930249
 20
-53.31528042625905
 30
0.0
 11
11020.71484366755
 21
-53.31528042625905
 31
0.0
  0
LINE
  5
F467
330
2
100
AcDbEntity
  8
VLB
100
AcDbLine
 10
11017.79152614146
 20
-54.78194694609192
 30
0.0
 11
11013.29152614146
 21
-59.28194694609192
 31
0.0
  0
LINE
  5
F468
330
2
100
AcDbEntity
  8
SPS
100
AcDbLine
 10
11028.41284648502
 20
-66.7819469460901
 30
0.0
 11
11028.41284648502
 21
-41.79861353428532
 31
0.0
  0
LINE
  5
F469
330
2
100
AcDbEntity
  8
VLB
100
AcDbLine
 10
11036.11084930249
 20
-53.31528042625905
 30
0.0
 11
11036.11084930249
 21
-49.24405681757889
 31
0.0
  0
LINE
  5
F46A
330
2
100
AcDbEntity
  8
VLB
100
AcDbLine
 10
11020.71484366755
 20
-53.31528042625905
 30
0.0
 11
11020.71484366755
 21
-49.24405681757889
 31
0.0
  0
LINE
  5
F46B
330
2
100
AcDbEntity
  8
VLB
100
AcDbLine
 10
11024.56384507628
 20
-53.31528042625905
 30
0.0
 11
11024.56384507628
 21
-49.24405681757889
 31
0.0
  0
LINE
  5
F46C
330
2
100
AcDbEntity
  8
VLB
100
AcDbLine
 10
11032.26184789376
 20
-53.31528042625905
 30
0.0
 11
11032.26184789376
 21
-49.24405681757889
 31
0.0
  0
LINE
  5
F46D
330
2
100
AcDbEntity
  8
VLS
100
AcDbLine
 10
11055.02173233058
 20
-59.28194694609192
 30
0.0
 11
11101.91284648502
 21
-32.20934956642304
 31
0.0
  0
LINE
  5
F46E
330
2
100
AcDbEntity
  8
VLS
100
AcDbLine
 10
11095.19318253591
 20
5.156565836466143
 30
0.0
 11
11101.91284648502
 21
1.276966046578309
 31
0.0
  0
LINE
  5
F46F
330
2
100
AcDbEntity
  8
VLB
100
AcDbLine
 10
11085.11284648501
 20
-48.2819469460901
 30
0.0
 11
11078.71284648501
 21
-48.2819469460901
 31
0.0
  0
LINE
  5
F470
330
2
100
AcDbEntity
  8
VLB
100
AcDbLine
 10
11098.41284648502
 20
-17.78194694609192
 30
0.0
 11
11098.41284648502
 21
-46.78194694609191
 31
0.0
  0
LINE
  5
F471
330
2
100
AcDbEntity
  8
VLB
100
AcDbLine
 10
11093.99268876515
 20
-34.28194694609556
 30
0.0
 11
11093.99268876515
 21
-30.28194694608828
 31
0.0
  0
ARC
  5
F472
330
2
100
AcDbEntity
  8
VLB
100
AcDbCircle
 10
11096.20276762509
 20
-32.19618321318375
 30
0.0
 40
2.923824388261122
100
AcDbArc
 50
40.89712508704095
 51
139.102874912959
  0
ARC
  5
F473
330
2
100
AcDbEntity
  8
VLB
100
AcDbCircle
 10
11096.20276762509
 20
-32.36771067900008
 30
0.0
 40
2.923824388260154
100
AcDbArc
 50
220.8971250870409
 51
319.102874912959
  0
LINE
  5
F474
330
2
100
AcDbEntity
  8
VLB
100
AcDbLine
 10
11098.41284648502
 20
-46.78194694609191
 30
0.0
 11
11099.91284648502
 21
-46.78194694609191
 31
0.0
  0
LINE
  5
F475
330
2
100
AcDbEntity
  8
VLB
100
AcDbLine
 10
11098.41284648502
 20
-17.78194694609192
 30
0.0
 11
11099.91284648502
 21
-17.78194694609192
 31
0.0
  0
LINE
  5
F476
330
2
100
AcDbEntity
  8
SPS
100
AcDbLine
 10
11095.91284648502
 20
-32.28194694609465
 30
0.0
 11
11109.91284648502
 21
-32.28194694609465
 31
0.0
  0
LINE
  5
F477
330
2
100
AcDbEntity
  8
SPS
100
AcDbLine
 10
11109.91284648502
 20
-32.28194694609192
 30
0.0
 11
11088.04450310577
 21
-32.28194694609192
 31
0.0
  0
LINE
  5
F478
330
2
100
AcDbEntity
  8
VLB
100
AcDbLine
 10
11101.91284648502
 20
-50.28194694608874
 30
0.0
 11
11098.912846485
 21
-50.28194694608919
 31
0.0
  0
LINE
  5
F479
330
2
100
AcDbEntity
  8
VLB
100
AcDbLine
 10
11116.91284648502
 20
-56.48194702608816
 30
0.0
 11
11117.91284648502
 21
-56.48194702608816
 31
0.0
  0
LINE
  5
F47A
330
2
100
AcDbEntity
  8
VLB
100
AcDbLine
 10
11116.91284648502
 20
-57.2819469460901
 30
0.0
 11
11117.91284648502
 21
-57.2819469460901
 31
0.0
  0
LINE
  5
F47B
330
2
100
AcDbEntity
  8
VLB
100
AcDbLine
 10
11116.91284648502
 20
-57.28195884609613
 30
0.0
 11
11117.91284648502
 21
-57.28195884609613
 31
0.0
  0
LINE
  5
F47C
330
2
100
AcDbEntity
  8
VLB
100
AcDbLine
 10
11116.91284648502
 20
-56.48195892609601
 30
0.0
 11
11117.91284648502
 21
-56.48195892609601
 31
0.0
  0
LINE
  5
F47D
330
2
100
AcDbEntity
  8
VLB
100
AcDbLine
 10
11071.91284648501
 20
-56.2819469460901
 30
0.0
 11
11098.912846485
 21
-56.28194694609056
 31
0.0
  0
LINE
  5
F47E
330
2
100
AcDbEntity
  8
VLB
100
AcDbLine
 10
11071.91284648501
 20
-59.2819469460901
 30
0.0
 11
11071.91284648501
 21
-56.2819469460901
 31
0.0
  0
LINE
  5
F47F
330
2
100
AcDbEntity
  8
VLB
100
AcDbLine
 10
11093.91284648501
 20
-59.2819469460901
 30
0.0
 11
11093.91284648501
 21
-56.28194694609101
 31
0.0
  0
LINE
  5
F480
330
2
100
AcDbEntity
  8
SPS
100
AcDbLine
 10
11081.91284648501
 20
-69.78194694609055
 30
0.0
 11
11081.91284648501
 21
-42.2819469460901
 31
0.0
  0
ARC
  5
F481
330
2
100
AcDbEntity
  8
VLB
100
AcDbCircle
 10
11086.21284648503
 20
-52.28194694609055
 30
0.0
 40
8.500000000025893
100
AcDbArc
 50
151.9275130642175
 51
208.0724869357824
  0
LINE
  5
F482
330
2
100
AcDbEntity
  8
SPS
100
AcDbLine
 10
11117.91284648502
 20
-65.2819469460901
 30
0.0
 11
11117.91284648502
 21
-46.58370630914396
 31
0.0
  0
LINE
  5
F483
330
2
100
AcDbEntity
  8
SPS
100
AcDbLine
 10
11117.91284648502
 20
-65.28195884609613
 30
0.0
 11
11117.91284648502
 21
-46.58371820914999
 31
0.0
  0
LINE
  5
F484
330
2
100
AcDbEntity
  8
VLB
100
AcDbLine
 10
11098.91284648501
 20
-59.2819469460901
 30
0.0
 11
11098.91284648501
 21
-50.28194694608874
 31
0.0
  0
ARC
  5
F485
330
2
100
AcDbEntity
  8
VLB
100
AcDbCircle
 10
11077.61284648498
 20
-52.28194694609055
 30
0.0
 40
8.500000000025893
100
AcDbArc
 50
331.9275130642175
 51
28.07248693578245
  0
LINE
  5
F486
330
2
100
AcDbEntity
  8
VLB
100
AcDbLine
 10
11101.91284648502
 20
5.156565836466143
 30
0.0
 11
11101.91284648502
 21
-59.28194694608828
 31
0.0
  0
LINE
  5
F487
330
2
100
AcDbEntity
  8
VLB
100
AcDbLine
 10
11116.91284648502
 20
5.156565836465915
 30
0.0
 11
11116.91284648502
 21
-59.28193504608316
 31
0.0
  0
LINE
  5
F488
330
2
100
AcDbEntity
  8
VLB
100
AcDbLine
 10
11099.91284648502
 20
5.156565836466143
 30
0.0
 11
11099.91284648502
 21
-50.28194694608896
 31
0.0
  0
LINE
  5
F489
330
2
100
AcDbEntity
  8
VLB
100
AcDbLine
 10
11133.15548717213
 20
-59.28194694609101
 30
0.0
 11
11197.59399995469
 21
5.156565836465915
 31
0.0
  0
LINE
  5
F48A
330
2
100
AcDbEntity
  8
VLB
100
AcDbLine
 10
11121.76184789376
 20
-55.81528042625541
 30
0.0
 11
11121.76184789376
 21
-51.74405681757526
 31
0.0
  0
LINE
  5
F48B
330
2
100
AcDbEntity
  8
VLB
100
AcDbLine
 10
11125.61084930249
 20
-55.81528042625541
 30
0.0
 11
11125.61084930249
 21
-51.74405681757526
 31
0.0
  0
LINE
  5
F48C
330
2
100
AcDbEntity
  8
VLB
100
AcDbLine
 10
11125.61084930249
 20
-55.81529232626144
 30
0.0
 11
11125.61084930249
 21
-51.74406871758129
 31
0.0
  0
LINE
  5
F48D
330
2
100
AcDbEntity
  8
VLB
100
AcDbLine
 10
11121.76184789375
 20
-55.81529232626144
 30
0.0
 11
11121.76184789375
 21
-51.74406871758129
 31
0.0
  0
ARC
  5
F48E
330
2
100
AcDbEntity
  8
VLB
100
AcDbCircle
 10
11128.41284648502
 20
-63.28194694609192
 30
0.0
 40
4.0
100
AcDbArc
 50
0.0
 51
90.0
  0
LINE
  5
F48F
330
2
100
AcDbEntity
  8
VLB
100
AcDbLine
 10
11123.84617922354
 20
-56.48194702608816
 30
0.0
 11
11123.84617922354
 21
-55.81528042625541
 31
0.0
  0
LINE
  5
F490
330
2
100
AcDbEntity
  8
VLB
100
AcDbLine
 10
11125.41284573502
 20
-57.2819469460901
 30
0.0
 11
11125.41284573502
 21
-56.48194702608998
 31
0.0
1001
ACAD
1000
ASC_BOUNDS
1002
{
1070
    16
1002
}
  0
LINE
  5
F491
330
2
100
AcDbEntity
  8
VLB
100
AcDbLine
 10
11125.41284573502
 20
-56.48194702608998
 30
0.0
 11
11125.41284573502
 21
-57.2819469460901
 31
0.0
  0
LINE
  5
F492
330
2
100
AcDbEntity
  8
VLB
100
AcDbLine
 10
11125.41284573502
 20
-56.48195892609601
 30
0.0
 11
11125.41284573502
 21
-57.28195884609613
 31
0.0
  0
LINE
  5
F493
330
2
100
AcDbEntity
  8
VLB
100
AcDbLine
 10
11125.41284573502
 20
-57.28195884609613
 30
0.0
 11
11125.41284573502
 21
-56.48195892609601
 31
0.0
1001
ACAD
1000
ASC_BOUNDS
1002
{
1070
    16
1002
}
  0
LINE
  5
F494
330
2
100
AcDbEntity
  8
VLB
100
AcDbLine
 10
11123.84617922353
 20
-56.48195892609601
 30
0.0
 11
11123.84617922353
 21
-55.81529232626144
 31
0.0
  0
LINE
  5
F495
330
2
100
AcDbEntity
  8
VLB
100
AcDbLine
 10
11132.41284648502
 20
-90.78194694609193
 30
0.0
 11
11132.41284648502
 21
-63.28194694609192
 31
0.0
  0
LINE
  5
F496
330
2
100
AcDbEntity
  8
VLB
100
AcDbLine
 10
11128.91284648502
 20
-57.2819469460901
 30
0.0
 11
11128.91284648502
 21
-59.28194694608828
 31
0.0
  0
LINE
  5
F497
330
2
100
AcDbEntity
  8
VLB
100
AcDbLine
 10
11128.91284648502
 20
-57.28195884609613
 30
0.0
 11
11128.91284648502
 21
-59.28195884609431
 31
0.0
  0
ARC
  5
F498
330
2
100
AcDbEntity
  8
VLB
100
AcDbCircle
 10
11123.67564707569
 20
-54.52188585204749
 30
0.0
 40
3.373271624627153
100
AcDbArc
 50
60.00000000000272
 51
124.5650930944841
  0
LINE
  5
F499
330
2
100
AcDbEntity
  8
VLB
100
AcDbLine
 10
11124.57951248335
 20
-51.14861422742251
 30
0.0
 11
11125.61084930249
 21
-51.74405681757526
 31
0.0
  0
LINE
  5
F49A
330
2
100
AcDbEntity
  8
VLB
100
AcDbLine
 10
11124.57951248335
 20
-51.14862612743036
 30
0.0
 11
11125.61084930249
 21
-51.74406871758129
 31
0.0
  0
ARC
  5
F49B
330
2
100
AcDbEntity
  8
VLB
100
AcDbCircle
 10
11123.67564707568
 20
-54.52189775205352
 30
0.0
 40
3.373271624627153
100
AcDbArc
 50
60.00000000000272
 51
124.5650930944841
  0
ARC
  5
F49C
330
2
100
AcDbEntity
  8
VLB
100
AcDbCircle
 10
11126.94228373654
 20
-44.28194694608464
 30
0.0
 40
6.0
100
AcDbArc
 50
270.0
 51
314.9999999998986
  0
LINE
  5
F49D
330
2
100
AcDbEntity
  8
VLB
100
AcDbLine
 10
11131.18492442365
 20
-48.52458763320374
 30
0.0
 11
11184.86607789332
 21
5.156565836466143
 31
0.0
  0
LINE
  5
F49E
330
2
100
AcDbEntity
  8
SPS
100
AcDbLine
 10
11295.63107903071
 20
18.18752146417932
 30
0.0
 11
11295.63107903071
 21
31.84781522021035
 31
0.0
  0
HATCH
  5
F49F
330
2
100
AcDbEntity
  8
VLB
100
AcDbHatch
 10
0.0
 20
0.0
 30
0.0
210
0.0
220
0.0
230
1.0
  2
SOLID
 70
     1
 71
     0
 91
        2
 92
        5
 93
        2
 72
     3
 10
11295.63107903071
 20
26.51766834216391
 11
-1.5
 21
0.0000000000000007
 40
0.837082593832747
 50
90.0
 51
270.0
 73
     1
 72
     1
 10
11295.63107903071
 20
27.77329223291303
 11
11295.63107903071
 21
25.26204445141456
 97
        0
 92
        5
 93
        2
 72
     3
 10
11295.63107903071
 20
26.51766834216391
 11
-1.5
 21
0.0000000000000007
 40
0.837082593832747
 50
270.0
 51
450.0
 73
     1
 72
     1
 10
11295.63107903071
 20
25.26204445141661
 11
11295.63107903071
 21
27.77329223291463
 97
        0
 75
     0
 76
     1
 47
0.0516579537025894
 98
        2
 10
11296.46228411947
 20
26.27571841691747
 10
11295.16976983473
 20
26.22406041129102
  0
ELLIPSE
  5
F4A0
330
2
100
AcDbEntity
  8
VLB
100
AcDbEllipse
 10
11295.63107903071
 20
26.51766834216391
 30
0.0
 11
-1.5
 21
0.0000000000000007
 31
0.0
210
0.0
220
0.0
230
1.0
 40
0.837082593832747
 41
0.0
 42
6.283185307179586
  0
ELLIPSE
  5
F4A1
330
2
100
AcDbEntity
  8
VLB
100
AcDbEllipse
 10
11295.63107903071
 20
25.01766834219484
 30
0.0
 11
5.0
 21
-0.0000000000000024
 31
0.0
210
0.0
220
0.0
230
1.0
 40
0.7660254037896266
 41
3.141592653589793
 42
6.283185307179586
  0
ELLIPSE
  5
F4A2
330
2
100
AcDbEntity
  8
VLB
100
AcDbEllipse
 10
11295.63107903071
 20
26.01766834216573
 30
0.0
 11
-5.0
 21
0.0000000000000024
 31
0.0
210
0.0
220
0.0
230
1.0
 40
0.8660254037843287
 41
0.0
 42
6.283185307179586
  0
LINE
  5
F4A3
330
2
100
AcDbEntity
  8
VLB
100
AcDbLine
 10
11290.63107903071
 20
26.01766834216573
 30
0.0
 11
11290.63107903071
 21
25.01766834219484
 31
0.0
  0
LINE
  5
F4A4
330
2
100
AcDbEntity
  8
VLB
100
AcDbLine
 10
11300.63107903071
 20
25.01766834219484
 30
0.0
 11
11300.63107903071
 21
26.01766834216573
 31
0.0
  0
LINE
  5
F4A5
330
2
100
AcDbEntity
  8
SPS
100
AcDbLine
 10
11287.63107903071
 20
25.01766834219484
 30
0.0
 11
11303.63107903071
 21
25.01766834219484
 31
0.0
  0
ARC
  5
F4A6
330
2
100
AcDbEntity
  8
VLB
100
AcDbCircle
 10
11316.91284648502
 20
6.156565836466143
 30
0.0
 40
1.0
100
AcDbArc
 50
270.0
 51
29.99999999998774
  0
LINE
  5
F4A7
330
2
100
AcDbEntity
  8
SPS
100
AcDbLine
 10
11275.33078977022
 20
96.36911551256753
 30
0.0
 11
11255.24138585086
 21
84.77049275186482
 31
0.0
  0
ELLIPSE
  5
F4A8
330
2
100
AcDbEntity
  8
VLB
100
AcDbEllipse
 10
11115.63107903071
 20
336.7868137045825
 30
0.0
 11
5.0
 21
-0.0000000000000024
 31
0.0
210
0.0
220
0.0
230
1.0
 40
0.7660254037896266
 41
3.141592653589793
 42
6.283185307179586
  0
LINE
  5
F4A9
330
2
100
AcDbEntity
  8
SPS
100
AcDbLine
 10
11107.63107903071
 20
336.7868137045825
 30
0.0
 11
11123.63107903071
 21
336.7868137045825
 31
0.0
  0
ELLIPSE
  5
F4AA
330
2
100
AcDbEntity
  8
VLB
100
AcDbEllipse
 10
11028.41284648502
 20
92.32153720154474
 30
0.0
 11
0.0000000000000013
 21
2.708364779654402
 31
0.0
210
0.0
220
0.0
230
1.0
 40
0.9415275295097664
 41
0.0
 42
6.283185307179586
  0
LINE
  5
F4AB
330
2
100
AcDbEntity
  8
SPS
100
AcDbLine
 10
11028.41284648502
 20
82.32153720154474
 30
0.0
 11
11028.41284648502
 21
102.3215372015447
 31
0.0
  0
LINE
  5
F4AC
330
2
100
AcDbEntity
  8
SPS
100
AcDbLine
 10
11018.41284648502
 20
92.32153720154474
 30
0.0
 11
11038.41284648502
 21
92.32153720154474
 31
0.0
  0
LINE
  5
F4AD
330
2
100
AcDbEntity
  8
VLB
100
AcDbLine
 10
11085.91284648501
 20
246.6365217318941
 30
0.0
 11
11085.91284648501
 21
245.6365217319232
 31
0.0
  0
LINE
  5
F4AE
330
2
100
AcDbEntity
  8
SPS
100
AcDbLine
 10
11090.91284648501
 20
238.8063748539095
 30
0.0
 11
11090.91284648501
 21
252.4666686099387
 31
0.0
  0
LINE
  5
F4AF
330
2
100
AcDbEntity
  8
VLB
100
AcDbLine
 10
11095.91284648501
 20
245.6365217319232
 30
0.0
 11
11095.91284648501
 21
246.6365217318941
 31
0.0
  0
ELLIPSE
  5
F4B0
330
2
100
AcDbEntity
  8
VLB
100
AcDbEllipse
 10
11090.91284648501
 20
247.1365217318941
 30
0.0
 11
-1.5
 21
0.0000000000000007
 31
0.0
210
0.0
220
0.0
230
1.0
 40
0.837082593832747
 41
0.0
 42
6.283185307179586
  0
HATCH
  5
F4B1
330
2
100
AcDbEntity
  8
VLB
100
AcDbHatch
 10
0.0
 20
0.0
 30
0.0
210
0.0
220
0.0
230
1.0
  2
SOLID
 70
     1
 71
     0
 91
        2
 92
        5
 93
        2
 72
     3
 10
11090.91284648501
 20
247.1365217318941
 11
-1.5
 21
0.0000000000000007
 40
0.837082593832747
 50
90.0
 51
270.0
 73
     1
 72
     1
 10
11090.91284648501
 20
248.3921456226432
 11
11090.91284648501
 21
245.8808978411448
 97
        0
 92
        5
 93
        2
 72
     3
 10
11090.91284648501
 20
247.1365217318941
 11
-1.5
 21
0.0000000000000007
 40
0.837082593832747
 50
270.0
 51
450.0
 73
     1
 72
     1
 10
11090.91284648501
 20
245.880897841145
 11
11090.91284648501
 21
248.392145622643
 97
        0
 75
     0
 76
     1
 47
0.0516579537025894
 98
        2
 10
11091.74405157377
 20
246.8945718066477
 10
11090.45153728903
 20
246.8429138010212
  0
ELLIPSE
  5
F4B2
330
2
100
AcDbEntity
  8
VLB
100
AcDbEllipse
 10
11090.91284648501
 20
246.6365217318941
 30
0.0
 11
-5.0
 21
0.0000000000000024
 31
0.0
210
0.0
220
0.0
230
1.0
 40
0.8660254037843287
 41
0.0
 42
6.283185307179586
  0
ELLIPSE
  5
F4B3
330
2
100
AcDbEntity
  8
VLB
100
AcDbEllipse
 10
11090.91284648501
 20
245.6365217319232
 30
0.0
 11
5.0
 21
-0.0000000000000024
 31
0.0
210
0.0
220
0.0
230
1.0
 40
0.7660254037896266
 41
3.141592653589793
 42
6.283185307179586
  0
LINE
  5
F4B4
330
2
100
AcDbEntity
  8
SPS
100
AcDbLine
 10
11082.91284648501
 20
245.6365217319232
 30
0.0
 11
11098.91284648501
 21
245.6365217319232
 31
0.0
  0
LINE
  5
F4B5
330
2
100
AcDbEntity
  8
SPS
100
AcDbLine
 10
11115.63107903071
 20
329.956666826567
 30
0.0
 11
11115.63107903071
 21
343.616960582598
 31
0.0
  0
HATCH
  5
F4B6
330
2
100
AcDbEntity
  8
VLB
100
AcDbHatch
 10
0.0
 20
0.0
 30
0.0
210
0.0
220
0.0
230
1.0
  2
SOLID
 70
     1
 71
     0
 91
        2
 92
        5
 93
        2
 72
     3
 10
11115.63107903071
 20
338.2868137045516
 11
-1.5
 21
0.0000000000000007
 40
0.837082593832747
 50
90.0
 51
270.0
 73
     1
 72
     1
 10
11115.63107903071
 20
339.5424375953007
 11
11115.63107903071
 21
337.0311898138022
 97
        0
 92
        5
 93
        2
 72
     3
 10
11115.63107903071
 20
338.2868137045516
 11
-1.5
 21
0.0000000000000007
 40
0.837082593832747
 50
270.0
 51
450.0
 73
     1
 72
     1
 10
11115.63107903071
 20
337.0311898138043
 11
11115.63107903071
 21
339.5424375953025
 97
        0
 75
     0
 76
     1
 47
0.0516579537025894
 98
        2
 10
11116.46228411947
 20
338.0448637793051
 10
11115.16976983473
 20
337.9932057736787
  0
ELLIPSE
  5
F4B7
330
2
100
AcDbEntity
  8
VLB
100
AcDbEllipse
 10
11115.63107903071
 20
338.2868137045516
 30
0.0
 11
-1.5
 21
0.0000000000000007
 31
0.0
210
0.0
220
0.0
230
1.0
 40
0.837082593832747
 41
0.0
 42
6.283185307179586
  0
ELLIPSE
  5
F4B8
330
2
100
AcDbEntity
  8
VLB
100
AcDbEllipse
 10
11115.63107903071
 20
337.7868137045534
 30
0.0
 11
-5.0
 21
0.0000000000000024
 31
0.0
210
0.0
220
0.0
230
1.0
 40
0.8660254037843287
 41
0.0
 42
6.283185307179586
  0
LINE
  5
F4B9
330
2
100
AcDbEntity
  8
VLB
100
AcDbLine
 10
11110.63107903071
 20
337.7868137045534
 30
0.0
 11
11110.63107903071
 21
336.7868137045825
 31
0.0
  0
LINE
  5
F4BA
330
2
100
AcDbEntity
  8
SPS
100
AcDbLine
 10
11205.63107903071
 20
174.0720941453728
 30
0.0
 11
11205.63107903071
 21
187.7323879014038
 31
0.0
  0
HATCH
  5
F4BB
330
2
100
AcDbEntity
  8
VLB
100
AcDbHatch
 10
0.0
 20
0.0
 30
0.0
210
0.0
220
0.0
230
1.0
  2
SOLID
 70
     1
 71
     0
 91
        2
 92
        5
 93
        2
 72
     3
 10
11205.63107903071
 20
182.4022410233574
 11
-1.5
 21
0.0000000000000007
 40
0.837082593832747
 50
90.0
 51
270.0
 73
     1
 72
     1
 10
11205.63107903071
 20
183.6578649141065
 11
11205.63107903071
 21
181.146617132608
 97
        0
 92
        5
 93
        2
 72
     3
 10
11205.63107903071
 20
182.4022410233574
 11
-1.5
 21
0.0000000000000007
 40
0.837082593832747
 50
270.0
 51
450.0
 73
     1
 72
     1
 10
11205.63107903071
 20
181.1466171326101
 11
11205.63107903071
 21
183.6578649141083
 97
        0
 75
     0
 76
     1
 47
0.0516579537025894
 98
        2
 10
11206.46228411947
 20
182.1602910981109
 10
11205.16976983473
 20
182.1086330924845
  0
ELLIPSE
  5
F4BC
330
2
100
AcDbEntity
  8
VLB
100
AcDbEllipse
 10
11205.63107903071
 20
182.4022410233574
 30
0.0
 11
-1.5
 21
0.0000000000000007
 31
0.0
210
0.0
220
0.0
230
1.0
 40
0.837082593832747
 41
0.0
 42
6.283185307179586
  0
ELLIPSE
  5
F4BD
330
2
100
AcDbEntity
  8
VLB
100
AcDbEllipse
 10
11205.63107903071
 20
180.9022410233883
 30
0.0
 11
5.0
 21
-0.0000000000000024
 31
0.0
210
0.0
220
0.0
230
1.0
 40
0.7660254037896266
 41
3.141592653589793
 42
6.283185307179586
  0
ELLIPSE
  5
F4BE
330
2
100
AcDbEntity
  8
VLB
100
AcDbEllipse
 10
11205.63107903071
 20
181.9022410233592
 30
0.0
 11
-5.0
 21
0.0000000000000024
 31
0.0
210
0.0
220
0.0
230
1.0
 40
0.8660254037843287
 41
0.0
 42
6.283185307179586
  0
LINE
  5
F4BF
330
2
100
AcDbEntity
  8
VLB
100
AcDbLine
 10
11200.63107903071
 20
181.9022410233592
 30
0.0
 11
11200.63107903071
 21
180.9022410233883
 31
0.0
  0
LINE
  5
F4C0
330
2
100
AcDbEntity
  8
VLB
100
AcDbLine
 10
11210.63107903071
 20
180.9022410233883
 30
0.0
 11
11210.63107903071
 21
181.9022410233592
 31
0.0
  0
LINE
  5
F4C1
330
2
100
AcDbEntity
  8
SPS
100
AcDbLine
 10
11197.63107903071
 20
180.9022410233883
 30
0.0
 11
11213.63107903071
 21
180.9022410233883
 31
0.0
  0
LINE
  5
F4C2
330
2
100
AcDbEntity
  8
SPS
100
AcDbLine
 10
11173.71669406232
 20
242.1221698822469
 30
0.0
 11
11184.10899890774
 21
248.1221698822455
 31
0.0
  0
LINE
  5
F4C3
330
2
100
AcDbEntity
  8
VLB
100
AcDbLine
 10
11183.14489729258
 20
241.8494502620426
 30
0.0
 11
11182.2788718888
 21
241.3494502620462
 31
0.0
  0
ARC
  5
F4C4
330
2
100
AcDbEntity
  8
VLB
100
AcDbCircle
 10
11170.25259244716
 20
240.1795772809666
 30
0.0
 40
12.99999999999925
100
AcDbArc
 50
7.380135051917992
 51
52.61986494810052
  0
LINE
  5
F4C5
330
2
100
AcDbEntity
  8
VLB
100
AcDbLine
 10
11178.14489729258
 20
250.509704299887
 30
0.0
 11
11177.2788718888
 21
250.0097042998906
 31
0.0
  0
LINE
  5
F4C6
330
2
100
AcDbEntity
  8
VLB
100
AcDbLine
 10
11183.14489729258
 20
241.8494502620426
 30
0.0
 11
11178.14489729259
 21
250.5097042998818
 31
0.0
  0
LINE
  5
F4C7
330
2
100
AcDbEntity
  8
VLB
100
AcDbLine
 10
11120.63107903071
 20
336.7868137045825
 30
0.0
 11
11120.63107903071
 21
337.7868137045534
 31
0.0
  0
LINE
  5
F4C8
330
2
100
AcDbEntity
  8
VLB
100
AcDbLine
 10
11266.53122434175
 20
97.66273000964838
 30
0.0
 11
11265.56017320708
 21
97.10210530772428
 31
0.0
  0
LINE
  5
F4C9
330
2
100
AcDbEntity
  8
VLB
100
AcDbLine
 10
11271.20566752598
 20
99.16635691746387
 30
0.0
 11
11270.51182854248
 21
99.56695344185618
 31
0.0
  0
LINE
  5
F4CA
330
2
100
AcDbEntity
  8
VLB
100
AcDbLine
 10
11266.7018073402
 20
97.36726539348138
 30
0.0
 11
11270.51182854248
 21
99.56695344185618
 31
0.0
  0
ARC
  5
F4CB
330
2
100
AcDbEntity
  8
VLB
100
AcDbCircle
 10
11269.54433360644
 20
97.50505316882708
 30
0.0
 40
2.269403731244178
100
AcDbArc
 50
355.43438663662
 51
59.99947973114274
  0
LINE
  5
F4CC
330
2
100
AcDbEntity
  8
VLB
100
AcDbLine
 10
11271.88063771586
 20
88.39707995257459
 30
0.0
 11
11275.69065891816
 21
90.59676800095303
 31
0.0
  0
ARC
  5
F4CD
330
2
100
AcDbEntity
  8
VLB
100
AcDbCircle
 10
11273.42125694039
 20
90.78988415902903
 30
0.0
 40
2.269403731244178
100
AcDbArc
 50
359.9994797311371
 51
64.5645728255031
  0
LINE
  5
F4CE
330
2
100
AcDbEntity
  8
VLB
100
AcDbLine
 10
11275.6906661932
 20
91.39794844898688
 30
0.0
 11
11275.69065891816
 21
90.59676800095303
 31
0.0
  0
LINE
  5
F4CF
330
2
100
AcDbEntity
  8
VLB
100
AcDbLine
 10
11272.05122325478
 20
88.10161093609394
 30
0.0
 11
11271.08017212012
 21
87.54098623416258
 31
0.0
  0
LINE
  5
F4D0
330
2
100
AcDbEntity
  8
VLB
100
AcDbLine
 10
11270.58593012195
 20
90.63962631280492
 30
0.0
 11
11274.39595132424
 21
92.8393143611761
 31
0.0
  0
LINE
  5
F4D1
330
2
100
AcDbEntity
  8
VLB
100
AcDbLine
 10
11265.56017320708
 20
97.10210530772428
 30
0.0
 11
11271.08017212012
 21
87.54098623416258
 31
0.0
  0
LINE
  5
F4D2
330
2
100
AcDbEntity
  8
VLB
100
AcDbLine
 10
11272.05122325479
 20
88.10161093609394
 30
0.0
 11
11266.53122434175
 21
97.66273000964474
 31
0.0
  0
ARC
  5
F4D3
330
2
100
AcDbEntity
  8
VLB
100
AcDbCircle
 10
11266.02668152037
 20
90.99744597782365
 30
0.0
 40
8.569548190628291
100
AcDbArc
 50
12.41152595721495
 51
47.58743350517304
  0
LINE
  5
F4D4
330
2
100
AcDbEntity
  8
VLB
100
AcDbLine
 10
11275.6906661932
 20
91.39794844898688
 30
0.0
 11
11271.20566752598
 21
99.16635691746387
 31
0.0
  0
LINE
  5
F4D5
330
2
100
AcDbEntity
  8
VLB
100
AcDbLine
 10
11267.99651493411
 20
95.12471903325467
 30
0.0
 11
11271.8065361364
 21
97.32440708162949
 31
0.0
  0
VIEWPORT
  5
51E
330
7
100
AcDbEntity
 67
     1
  8
0
100
AcDbViewport
 10
222.9989965408922
 20
370.0301834590798
 30
0.0
 40
1687.01080625753
 41
983.6980374463591
 68
     1
 69
     1
1001
ACAD
1000
MVIEW
1002
{
1070
    16
1010
0.0
1020
0.0
1030
0.0
1010
0.0
1020
0.0
1030
1.0
1040
0.0
1040
983.6980374463591
1040
222.9989965408922
1040
370.0301834590798
1040
50.0
1040
0.0
1040
0.0
1070
     0
1070
   100
1070
     1
1070
     1
1070
     0
1070
     0
1070
     0
1070
     0
1040
0.0
1040
0.0
1040
0.0
1040
1.0
1040
1.0
1040
10.0
1040
10.0
1070
     0
1002
{
1002
}
1002
}
  0
ENDSEC
  0
SECTION
  2
OBJECTS
  0
DICTIONARY
  5
1A
330
0
100
AcDbDictionary
  3
ACAD_GROUP
350
18
  3
ACAD_LAYOUT
350
EDC7
  3
ACAD_MLINESTYLE
350
19
  3
ACAD_PLOTSETTINGS
350
EDC8
  3
ACAD_PLOTSTYLENAME
350
EDC5
  3
ACDBHEADERROUNDTRIPXREC
350
F4DF
  3
ACDBVARIABLEDICTIONARY
350
F4D8
  3
CONTENTDICTIONARY
350
81A
  0
DICTIONARY
  5
F500
330
2
100
AcDbDictionary
280
     1
  3
ACAD_LAYOUTSELFREF
360
F501
  0
DICTIONARY
  5
F502
330
7
100
AcDbDictionary
280
     1
  3
ACAD_LAYOUTSELFREF
360
F503
  0
DICTIONARY
  5
18
102
{ACAD_REACTORS
330
1A
102
}
330
1A
100
AcDbDictionary
  3
*A1
350
63B1
  3
*A10
350
49ED
  3
*A100
350
48CC
  3
*A1000
350
4937
  3
*A1001
350
63D1
  3
*A1002
350
1B9F
  3
*A1003
350
62D9
  3
*A1004
350
63F3
  3
*A1005
350
621E
  3
*A1006
350
6232
  3
*A1007
350
4A18
  3
*A1008
350
1B28
  3
*A1009
350
1BFD
  3
*A101
350
63CC
  3
*A1010
350
6231
  3
*A1011
350
48A5
  3
*A1012
350
629F
  3
*A1013
350
49D6
  3
*A1014
350
6271
  3
*A1015
350
4843
  3
*A1016
350
1469
  3
*A1017
350
496A
  3
*A1018
350
6365
  3
*A1019
350
1C59
  3
*A102
350
62A2
  3
*A1020
350
6284
  3
*A1021
350
1C51
  3
*A1022
350
6298
  3
*A1023
350
4909
  3
*A1024
350
1B2F
  3
*A1025
350
493C
  3
*A1026
350
62A6
  3
*A1027
350
1C39
  3
*A1028
350
6300
  3
*A1029
350
634C
  3
*A103
350
1C47
  3
*A1030
350
633C
  3
*A1031
350
1B4A
  3
*A1032
350
628F
  3
*A1033
350
1458
  3
*A1034
350
6242
  3
*A1035
350
48FC
  3
*A1036
350
1B70
  3
*A104
350
62F9
  3
*A105
350
6227
  3
*A106
350
6309
  3
*A107
350
6424
  3
*A108
350
4845
  3
*A109
350
49AE
  3
*A11
350
1C22
  3
*A110
350
49E4
  3
*A111
350
63D4
  3
*A112
350
63FE
  3
*A113
350
1B98
  3
*A114
350
639D
  3
*A115
350
49CE
  3
*A116
350
484D
  3
*A117
350
1B45
  3
*A118
350
37AE
  3
*A119
350
63D3
  3
*A12
350
494C
  3
*A120
350
62F3
  3
*A121
350
4970
  3
*A122
350
37A0
  3
*A123
350
1B85
  3
*A124
350
635D
  3
*A125
350
638E
  3
*A126
350
1B1C
  3
*A127
350
4A13
  3
*A128
350
6310
  3
*A129
350
62B6
  3
*A13
350
3798
  3
*A130
350
1B63
  3
*A131
350
481C
  3
*A132
350
62FA
  3
*A133
350
49A4
  3
*A134
350
48CF
  3
*A135
350
63A0
  3
*A136
350
1AFE
  3
*A137
350
63E0
  3
*A138
350
641C
  3
*A139
350
1C16
  3
*A14
350
4941
  3
*A140
350
1B96
  3
*A141
350
1B2D
  3
*A142
350
4939
  3
*A143
350
6372
  3
*A144
350
4A00
  3
*A145
350
1B0D
  3
*A146
350
6371
  3
*A147
350
484A
  3
*A148
350
6420
  3
*A149
350
1BA5
  3
*A15
350
6405
  3
*A150
350
1C25
  3
*A151
350
49C4
  3
*A152
350
637D
  3
*A153
350
1BE4
  3
*A154
350
489D
  3
*A155
350
4895
  3
*A156
350
6239
  3
*A157
350
1BFC
  3
*A158
350
633A
  3
*A159
350
4864
  3
*A16
350
492D
  3
*A160
350
6308
  3
*A161
350
63F7
  3
*A162
350
63CA
  3
*A163
350
1BD5
  3
*A164
350
49B2
  3
*A165
350
1BC0
  3
*A166
350
37AD
  3
*A167
350
1BD6
  3
*A168
350
1C1C
  3
*A169
350
1B52
  3
*A17
350
48DA
  3
*A170
350
1B1A
  3
*A171
350
1B80
  3
*A172
350
6348
  3
*A173
350
484E
  3
*A174
350
1B87
  3
*A175
350
1BE5
  3
*A176
350
1ADE
  3
*A177
350
1B23
  3
*A178
350
62E7
  3
*A179
350
1B66
  3
*A18
350
49A8
  3
*A180
350
1BD2
  3
*A181
350
48CA
  3
*A182
350
37B1
  3
*A183
350
4816
  3
*A184
350
63B4
  3
*A185
350
640F
  3
*A186
350
4906
  3
*A187
350
1C0A
  3
*A188
350
48C0
  3
*A189
350
627A
  3
*A19
350
1C5F
  3
*A190
350
62E4
  3
*A191
350
1C26
  3
*A192
350
624A
  3
*A193
350
1C2A
  3
*A194
350
48A7
  3
*A195
350
62F0
  3
*A196
350
4987
  3
*A197
350
6409
  3
*A198
350
4934
  3
*A199
350
623B
  3
*A2
350
62AB
  3
*A20
350
499D
  3
*A200
350
63C6
  3
*A201
350
63EF
  3
*A202
350
1BEA
  3
*A203
350
6346
  3
*A204
350
6291
  3
*A205
350
1BA2
  3
*A206
350
1B3B
  3
*A207
350
1B7E
  3
*A208
350
49AD
  3
*A209
350
62C1
  3
*A21
350
6292
  3
*A210
350
492A
  3
*A211
350
1B60
  3
*A212
350
489B
  3
*A213
350
63FF
  3
*A214
350
4817
  3
*A215
350
4871
  3
*A216
350
49E2
  3
*A217
350
1465
  3
*A218
350
1BEE
  3
*A219
350
63EC
  3
*A22
350
1BEB
  3
*A220
350
4998
  3
*A221
350
480B
  3
*A222
350
625A
  3
*A223
350
493A
  3
*A224
350
1B42
  3
*A225
350
63B0
  3
*A226
350
48AF
  3
*A227
350
62A3
  3
*A228
350
634B
  3
*A229
350
490A
  3
*A23
350
4943
  3
*A230
350
6281
  3
*A231
350
62DC
  3
*A232
350
48B0
  3
*A233
350
379D
  3
*A234
350
6385
  3
*A235
350
1AFC
  3
*A236
350
4959
  3
*A237
350
49D9
  3
*A238
350
1C32
  3
*A239
350
491E
  3
*A24
350
1AE9
  3
*A240
350
1B2C
  3
*A241
350
1C36
  3
*A242
350
49C2
  3
*A243
350
6396
  3
*A244
350
6425
  3
*A245
350
4A11
  3
*A246
350
494A
  3
*A247
350
62FF
  3
*A248
350
6352
  3
*A249
350
1BAE
  3
*A25
350
1AEB
  3
*A250
350
63CF
  3
*A251
350
622C
  3
*A252
350
1C1A
  3
*A253
350
1B6C
  3
*A254
350
1B6F
  3
*A255
350
1BB5
  3
*A256
350
62DF
  3
*A257
350
6294
  3
*A258
350
62CD
  3
*A259
350
4A15
  3
*A26
350
628C
  3
*A260
350
49B3
  3
*A261
350
1AFA
  3
*A262
350
48A9
  3
*A263
350
4891
  3
*A264
350
4A06
  3
*A265
350
37B3
  3
*A266
350
483D
  3
*A267
350
37B2
  3
*A268
350
1AD8
  3
*A269
350
37AB
  3
*A27
350
495C
  3
*A270
350
62C4
  3
*A271
350
4834
  3
*A272
350
488D
  3
*A273
350
635F
  3
*A274
350
48B1
  3
*A275
350
1B1D
  3
*A276
350
1C5A
  3
*A277
350
63B2
  3
*A278
350
1B82
  3
*A279
350
48A2
  3
*A28
350
1B0A
  3
*A280
350
6229
  3
*A281
350
1B88
  3
*A282
350
625B
  3
*A283
350
1B04
  3
*A284
350
487A
  3
*A285
350
1B2B
  3
*A286
350
63A2
  3
*A287
350
4844
  3
*A288
350
1B35
  3
*A289
350
6402
  3
*A29
350
63D6
  3
*A290
350
6350
  3
*A291
350
6400
  3
*A292
350
6399
  3
*A293
350
1ACE
  3
*A294
350
1BB4
  3
*A295
350
1C03
  3
*A296
350
4995
  3
*A297
350
1C45
  3
*A298
350
49FC
  3
*A299
350
6283
  3
*A3
350
6341
  3
*A30
350
1BA8
  3
*A300
350
63F0
  3
*A301
350
49D8
  3
*A302
350
4990
  3
*A303
350
629B
  3
*A304
350
1C0E
  3
*A305
350
1460
  3
*A306
350
6381
  3
*A307
350
37B9
  3
*A308
350
1AD1
  3
*A309
350
1AF3
  3
*A31
350
635B
  3
*A310
350
1BBD
  3
*A311
350
1B16
  3
*A312
350
1B62
  3
*A313
350
494D
  3
*A314
350
1AFD
  3
*A315
350
37C2
  3
*A316
350
49D5
  3
*A317
350
4A0F
  3
*A318
350
6392
  3
*A319
350
1BED
  3
*A32
350
1BF5
  3
*A320
350
62E9
  3
*A321
350
48B3
  3
*A322
350
62C8
  3
*A323
350
638B
  3
*A324
350
48E3
  3
*A325
350
4929
  3
*A326
350
6316
  3
*A327
350
37BF
  3
*A328
350
1BBB
  3
*A329
350
6304
  3
*A33
350
1BE1
  3
*A330
350
49F0
  3
*A331
350
1AEC
  3
*A332
350
498C
  3
*A333
350
1B0C
  3
*A334
350
1BB6
  3
*A335
350
488F
  3
*A336
350
625E
  3
*A337
350
4989
  3
*A338
350
4899
  3
*A339
350
1BBF
  3
*A34
350
63C9
  3
*A340
350
6375
  3
*A341
350
4911
  3
*A342
350
635C
  3
*A343
350
487D
  3
*A344
350
1B5D
  3
*A345
350
63BB
  3
*A346
350
637A
  3
*A347
350
6261
  3
*A348
350
49CF
  3
*A349
350
6262
  3
*A35
350
1C02
  3
*A350
350
6394
  3
*A351
350
1BB1
  3
*A352
350
48E8
  3
*A353
350
37A3
  3
*A354
350
49AA
  3
*A355
350
63BC
  3
*A356
350
62AF
  3
*A357
350
48E1
  3
*A358
350
6311
  3
*A359
350
6369
  3
*A36
350
1C53
  3
*A360
350
499A
  3
*A361
350
4874
  3
*A362
350
4896
  3
*A363
350
481F
  3
*A364
350
1459
  3
*A365
350
49F8
  3
*A366
350
4974
  3
*A367
350
497E
  3
*A368
350
1AD0
  3
*A369
350
639E
  3
*A37
350
6220
  3
*A370
350
63E1
  3
*A371
350
48B4
  3
*A372
350
4A17
  3
*A373
350
1B92
  3
*A374
350
1B2A
  3
*A375
350
48D2
  3
*A376
350
1C15
  3
*A377
350
1C58
  3
*A378
350
49BD
  3
*A379
350
1B8B
  3
*A38
350
1C1B
  3
*A380
350
495E
  3
*A381
350
1C20
  3
*A382
350
1C3A
  3
*A383
350
49E8
  3
*A384
350
37A6
  3
*A385
350
635A
  3
*A386
350
1BD4
  3
*A387
350
62A0
  3
*A388
350
4997
  3
*A389
350
6317
  3
*A39
350
1C21
  3
*A390
350
1AEE
  3
*A391
350
6248
  3
*A392
350
1AED
  3
*A393
350
497F
  3
*A394
350
1C48
  3
*A395
350
1BD3
  3
*A396
350
48BB
  3
*A397
350
1C37
  3
*A398
350
1C44
  3
*A399
350
49F6
  3
*A4
350
496F
  3
*A40
350
62AA
  3
*A400
350
49D3
  3
*A401
350
4955
  3
*A402
350
1BE9
  3
*A403
350
49C7
  3
*A404
350
48AC
  3
*A405
350
6327
  3
*A406
350
4973
  3
*A407
350
1C08
  3
*A408
350
62F1
  3
*A409
350
1BBA
  3
*A41
350
484C
  3
*A410
350
1462
  3
*A411
350
1B13
  3
*A412
350
62C2
  3
*A413
350
1C46
  3
*A414
350
63AC
  3
*A415
350
62F5
  3
*A416
350
1BF9
  3
*A417
350
1466
  3
*A418
350
1B69
  3
*A419
350
48F2
  3
*A42
350
49DD
  3
*A420
350
4894
  3
*A421
350
1B75
  3
*A422
350
48E6
  3
*A423
350
1C2B
  3
*A424
350
629C
  3
*A425
350
1BC4
  3
*A426
350
63D2
  3
*A427
350
1C4D
  3
*A428
350
48F5
  3
*A429
350
4813
  3
*A43
350
63B6
  3
*A430
350
49EB
  3
*A431
350
37C0
  3
*A432
350
1BCC
  3
*A433
350
4A03
  3
*A434
350
48B7
  3
*A435
350
497D
  3
*A436
350
4912
  3
*A437
350
48FF
  3
*A438
350
630E
  3
*A439
350
6370
  3
*A44
350
622D
  3
*A440
350
4988
  3
*A441
350
62BE
  3
*A442
350
6241
  3
*A443
350
4958
  3
*A444
350
63EA
  3
*A445
350
1BDF
  3
*A446
350
6307
  3
*A447
350
4824
  3
*A448
350
49C9
  3
*A449
350
499B
  3
*A45
350
37A5
  3
*A450
350
6236
  3
*A451
350
6264
  3
*A452
350
37B5
  3
*A453
350
63C2
  3
*A454
350
4952
  3
*A455
350
49B1
  3
*A456
350
49A5
  3
*A457
350
1BD1
  3
*A458
350
1B99
  3
*A459
350
4993
  3
*A46
350
4948
  3
*A460
350
63FC
  3
*A461
350
4981
  3
*A462
350
4962
  3
*A463
350
4931
  3
*A464
350
4932
  3
*A465
350
1C23
  3
*A466
350
1BF6
  3
*A467
350
63A8
  3
*A468
350
63A5
  3
*A469
350
379B
  3
*A47
350
62A5
  3
*A470
350
1B79
  3
*A471
350
4880
  3
*A472
350
1B8C
  3
*A473
350
49AB
  3
*A474
350
1B72
  3
*A475
350
621A
  3
*A476
350
1BDE
  3
*A477
350
48EC
  3
*A478
350
638A
  3
*A479
350
4890
  3
*A48
350
1BFB
  3
*A480
350
497B
  3
*A481
350
62D3
  3
*A482
350
6233
  3
*A483
350
1BB7
  3
*A484
350
1C01
  3
*A485
350
62AE
  3
*A486
350
48E0
  3
*A487
350
633E
  3
*A488
350
63D9
  3
*A489
350
48B5
  3
*A49
350
4964
  3
*A490
350
4884
  3
*A491
350
1B41
  3
*A492
350
1BB2
  3
*A493
350
49CB
  3
*A494
350
145B
  3
*A495
350
1AE5
  3
*A496
350
4950
  3
*A497
350
1B5F
  3
*A498
350
1C05
  3
*A499
350
1C4E
  3
*A5
350
49B9
  3
*A50
350
63E3
  3
*A500
350
1BF3
  3
*A501
350
1C35
  3
*A502
350
4946
  3
*A503
350
62C3
  3
*A504
350
6219
  3
*A505
350
631E
  3
*A506
350
4A01
  3
*A507
350
4847
  3
*A508
350
37A9
  3
*A509
350
6395
  3
*A51
350
1B24
  3
*A510
350
49EA
  3
*A511
350
497C
  3
*A512
350
63B7
  3
*A513
350
1B12
  3
*A514
350
37B7
  3
*A515
350
638C
  3
*A516
350
6362
  3
*A517
350
62C0
  3
*A518
350
1C3F
  3
*A519
350
1B07
  3
*A52
350
636B
  3
*A520
350
1B51
  3
*A521
350
4967
  3
*A522
350
482C
  3
*A523
350
634D
  3
*A524
350
49BC
  3
*A525
350
49A9
  3
*A526
350
6359
  3
*A527
350
4926
  3
*A528
350
1ACF
  3
*A529
350
1B09
  3
*A53
350
634E
  3
*A530
350
4872
  3
*A531
350
6404
  3
*A532
350
1B6A
  3
*A533
350
63FA
  3
*A534
350
63F8
  3
*A535
350
1B8D
  3
*A536
350
6357
  3
*A537
350
1B03
  3
*A538
350
6224
  3
*A539
350
1C24
  3
*A54
350
1C07
  3
*A540
350
6417
  3
*A541
350
1B53
  3
*A542
350
486F
  3
*A543
350
1BBE
  3
*A544
350
62ED
  3
*A545
350
62B9
  3
*A546
350
49E6
  3
*A547
350
632B
  3
*A548
350
6406
  3
*A549
350
6240
  3
*A55
350
482E
  3
*A550
350
48E4
  3
*A551
350
4811
  3
*A552
350
1C18
  3
*A553
350
623F
  3
*A554
350
49D2
  3
*A555
350
4903
  3
*A556
350
63CB
  3
*A557
350
1BD8
  3
*A558
350
6393
  3
*A559
350
6383
  3
*A56
350
63E5
  3
*A560
350
6277
  3
*A561
350
1BB8
  3
*A562
350
489F
  3
*A563
350
49CA
  3
*A564
350
1B58
  3
*A565
350
62EE
  3
*A566
350
63E7
  3
*A567
350
48D3
  3
*A568
350
4905
  3
*A569
350
6415
  3
*A57
350
48DC
  3
*A570
350
379A
  3
*A571
350
49FA
  3
*A572
350
37AC
  3
*A573
350
49A6
  3
*A574
350
636F
  3
*A575
350
1B7D
  3
*A576
350
4882
  3
*A577
350
637C
  3
*A578
350
4957
  3
*A579
350
49B7
  3
*A58
350
49BA
  3
*A580
350
1BCD
  3
*A581
350
6223
  3
*A582
350
4A08
  3
*A583
350
1BEC
  3
*A584
350
488B
  3
*A585
350
1ACD
  3
*A586
350
4999
  3
*A587
350
629A
  3
*A588
350
6222
  3
*A589
350
6218
  3
*A59
350
4915
  3
*A590
350
491A
  3
*A591
350
48FE
  3
*A592
350
1C29
  3
*A593
350
1BF8
  3
*A594
350
624F
  3
*A595
350
1AF2
  3
*A596
350
48B2
  3
*A597
350
63D7
  3
*A598
350
6216
  3
*A599
350
1B37
  3
*A6
350
4986
  3
*A60
350
1B54
  3
*A600
350
4821
  3
*A601
350
37A1
  3
*A602
350
6378
  3
*A603
350
1B34
  3
*A604
350
1B8E
  3
*A605
350
1B49
  3
*A606
350
1B9D
  3
*A607
350
4893
  3
*A608
350
63BF
  3
*A609
350
6364
  3
*A61
350
623D
  3
*A610
350
627C
  3
*A611
350
4839
  3
*A612
350
1B36
  3
*A613
350
62A9
  3
*A614
350
1454
  3
*A615
350
62BF
  3
*A616
350
4830
  3
*A617
350
63C7
  3
*A618
350
4944
  3
*A619
350
6263
  3
*A62
350
1B65
  3
*A620
350
1BD7
  3
*A621
350
49FF
  3
*A622
350
49F3
  3
*A623
350
1AF6
  3
*A624
350
1C0D
  3
*A625
350
480C
  3
*A626
350
49E5
  3
*A627
350
4825
  3
*A628
350
1C10
  3
*A629
350
1BDC
  3
*A63
350
37B4
  3
*A630
350
1B57
  3
*A631
350
4A09
  3
*A632
350
1C3E
  3
*A633
350
1C4F
  3
*A634
350
62FB
  3
*A635
350
627E
  3
*A636
350
6237
  3
*A637
350
1C1F
  3
*A638
350
6320
  3
*A639
350
631F
  3
*A64
350
379C
  3
*A640
350
1B46
  3
*A641
350
1C04
  3
*A642
350
63AB
  3
*A643
350
49C5
  3
*A644
350
1B6B
  3
*A645
350
495F
  3
*A646
350
1AFB
  3
*A647
350
1ADC
  3
*A648
350
1B97
  3
*A649
350
624B
  3
*A65
350
4A19
  3
*A650
350
4818
  3
*A651
350
63A6
  3
*A652
350
4910
  3
*A653
350
6389
  3
*A654
350
145C
  3
*A655
350
1B44
  3
*A656
350
490E
  3
*A657
350
1C40
  3
*A658
350
1C33
  3
*A659
350
1C0F
  3
*A66
350
48CD
  3
*A660
350
6358
  3
*A661
350
1C2C
  3
*A662
350
49BF
  3
*A663
350
1BC3
  3
*A664
350
4838
  3
*A665
350
1B17
  3
*A666
350
1B71
  3
*A667
350
145D
  3
*A668
350
4820
  3
*A669
350
1C31
  3
*A67
350
6416
  3
*A670
350
62D6
  3
*A671
350
640E
  3
*A672
350
1B5A
  3
*A673
350
631B
  3
*A674
350
48F7
  3
*A675
350
1B40
  3
*A676
350
1C2E
  3
*A677
350
4885
  3
*A678
350
62D5
  3
*A679
350
6344
  3
*A68
350
486A
  3
*A680
350
1B3F
  3
*A681
350
628B
  3
*A682
350
494E
  3
*A683
350
6312
  3
*A684
350
48C7
  3
*A685
350
1BAC
  3
*A686
350
493B
  3
*A687
350
62A1
  3
*A688
350
1B11
  3
*A689
350
633F
  3
*A69
350
1464
  3
*A690
350
48EE
  3
*A691
350
4877
  3
*A692
350
49D0
  3
*A693
350
1B61
  3
*A694
350
63B8
  3
*A695
350
48DE
  3
*A696
350
492F
  3
*A697
350
145F
  3
*A698
350
63AA
  3
*A699
350
48E2
  3
*A7
350
48A1
  3
*A70
350
499F
  3
*A700
350
6388
  3
*A701
350
4860
  3
*A702
350
1BF1
  3
*A703
350
1468
  3
*A704
350
4828
  3
*A705
350
4938
  3
*A706
350
4940
  3
*A707
350
48D8
  3
*A708
350
63F1
  3
*A709
350
48ED
  3
*A71
350
1B15
  3
*A710
350
62BD
  3
*A711
350
1C2F
  3
*A712
350
1B7C
  3
*A713
350
1AE3
  3
*A714
350
636C
  3
*A715
350
4889
  3
*A716
350
63C4
  3
*A717
350
1B33
  3
*A718
350
629E
  3
*A719
350
623C
  3
*A72
350
484B
  3
*A720
350
1B76
  3
*A721
350
1BA1
  3
*A722
350
63DB
  3
*A723
350
4851
  3
*A724
350
62E2
  3
*A725
350
1AE4
  3
*A726
350
628D
  3
*A727
350
641E
  3
*A728
350
639B
  3
*A729
350
6259
  3
*A73
350
62BC
  3
*A730
350
4985
  3
*A731
350
495A
  3
*A732
350
48F3
  3
*A733
350
622E
  3
*A734
350
1B90
  3
*A735
350
4A0A
  3
*A736
350
632A
  3
*A737
350
1C06
  3
*A738
350
62EB
  3
*A739
350
1B21
  3
*A74
350
1BA4
  3
*A740
350
6366
  3
*A741
350
1C0B
  3
*A742
350
49A3
  3
*A743
350
1B0F
  3
*A744
350
1ADB
  3
*A745
350
494F
  3
*A746
350
6235
  3
*A747
350
48FD
  3
*A748
350
1B9B
  3
*A749
350
6380
  3
*A75
350
486D
  3
*A750
350
482A
  3
*A751
350
4835
  3
*A752
350
1C11
  3
*A753
350
483B
  3
*A754
350
4965
  3
*A755
350
4904
  3
*A756
350
1AEA
  3
*A757
350
1AD3
  3
*A758
350
6296
  3
*A759
350
6257
  3
*A76
350
1ACB
  3
*A760
350
1B05
  3
*A761
350
48B6
  3
*A762
350
498E
  3
*A763
350
4876
  3
*A764
350
62FC
  3
*A765
350
484F
  3
*A766
350
4976
  3
*A767
350
1BA0
  3
*A768
350
1BA9
  3
*A769
350
48A6
  3
*A77
350
6411
  3
*A770
350
6374
  3
*A771
350
1C55
  3
*A772
350
1B81
  3
*A773
350
1B29
  3
*A774
350
48FB
  3
*A775
350
63A7
  3
*A776
350
4854
  3
*A777
350
6265
  3
*A778
350
37C3
  3
*A779
350
480D
  3
*A78
350
49C6
  3
*A780
350
6254
  3
*A781
350
1BC5
  3
*A782
350
1455
  3
*A783
350
48CE
  3
*A784
350
6345
  3
*A785
350
6287
  3
*A786
350
37A2
  3
*A787
350
1B32
  3
*A788
350
6367
  3
*A789
350
494B
  3
*A79
350
1C49
  3
*A790
350
1B30
  3
*A791
350
49DF
  3
*A792
350
629D
  3
*A793
350
6419
  3
*A794
350
49F7
  3
*A795
350
6355
  3
*A796
350
63C0
  3
*A797
350
62DB
  3
*A798
350
4826
  3
*A799
350
6305
  3
*A8
350
6293
  3
*A80
350
1AE7
  3
*A800
350
6426
  3
*A801
350
6410
  3
*A802
350
1B4E
  3
*A803
350
48D7
  3
*A804
350
1BE7
  3
*A805
350
6376
  3
*A806
350
49F9
  3
*A807
350
37B8
  3
*A808
350
1AF9
  3
*A809
350
4994
  3
*A81
350
1BA7
  3
*A810
350
1B67
  3
*A811
350
37AF
  3
*A812
350
1B31
  3
*A813
350
6336
  3
*A814
350
1B4D
  3
*A815
350
1AF8
  3
*A816
350
63DF
  3
*A817
350
63D8
  3
*A818
350
6251
  3
*A819
350
482F
  3
*A82
350
488E
  3
*A820
350
1BC6
  3
*A821
350
49A7
  3
*A822
350
489A
  3
*A823
350
6246
  3
*A824
350
496D
  3
*A825
350
62DA
  3
*A826
350
499E
  3
*A827
350
640D
  3
*A828
350
1BAF
  3
*A829
350
6349
  3
*A83
350
1C30
  3
*A830
350
49D1
  3
*A831
350
4969
  3
*A832
350
48EA
  3
*A833
350
493E
  3
*A834
350
49F2
  3
*A835
350
62E8
  3
*A836
350
6225
  3
*A837
350
62D7
  3
*A838
350
1B01
  3
*A839
350
1C38
  3
*A84
350
623E
  3
*A840
350
48DB
  3
*A841
350
63A4
  3
*A842
350
49AF
  3
*A843
350
623A
  3
*A844
350
6403
  3
*A845
350
62B3
  3
*A846
350
1B9C
  3
*A847
350
1AF1
  3
*A848
350
6250
  3
*A849
350
4963
  3
*A85
350
4832
  3
*A850
350
6351
  3
*A851
350
6243
  3
*A852
350
48EF
  3
*A853
350
62D0
  3
*A854
350
48D5
  3
*A855
350
6422
  3
*A856
350
63FD
  3
*A857
350
628A
  3
*A858
350
6258
  3
*A859
350
1BC8
  3
*A86
350
491D
  3
*A860
350
37BA
  3
*A861
350
1BE6
  3
*A862
350
4875
  3
*A863
350
4831
  3
*A864
350
630B
  3
*A865
350
6353
  3
*A866
350
62A7
  3
*A867
350
1B39
  3
*A868
350
1AD5
  3
*A869
350
489C
  3
*A87
350
1AF7
  3
*A870
350
1B4C
  3
*A871
350
627F
  3
*A872
350
6252
  3
*A873
350
48C3
  3
*A874
350
1BFF
  3
*A875
350
63D0
  3
*A876
350
49CC
  3
*A877
350
63A1
  3
*A878
350
481A
  3
*A879
350
1BDB
  3
*A88
350
1B6D
  3
*A880
350
63F2
  3
*A881
350
4855
  3
*A882
350
1ADD
  3
*A883
350
1C12
  3
*A884
350
1C57
  3
*A885
350
4908
  3
*A886
350
4836
  3
*A887
350
4856
  3
*A888
350
48CB
  3
*A889
350
483E
  3
*A89
350
4809
  3
*A890
350
1BD9
  3
*A891
350
62E5
  3
*A892
350
63F5
  3
*A893
350
1AD6
  3
*A894
350
62B4
  3
*A895
350
49DA
  3
*A896
350
63BE
  3
*A897
350
1C5B
  3
*A898
350
6315
  3
*A899
350
4892
  3
*A9
350
630C
  3
*A90
350
4901
  3
*A900
350
1C60
  3
*A901
350
6413
  3
*A902
350
4829
  3
*A903
350
48A3
  3
*A904
350
62EF
  3
*A905
350
6377
  3
*A906
350
4857
  3
*A907
350
4945
  3
*A908
350
1B94
  3
*A909
350
49B5
  3
*A91
350
1BFE
  3
*A910
350
1BF0
  3
*A911
350
1C1D
  3
*A912
350
1BCF
  3
*A913
350
48C9
  3
*A914
350
1B6E
  3
*A915
350
6279
  3
*A916
350
63DC
  3
*A917
350
4842
  3
*A918
350
4A02
  3
*A919
350
1C5D
  3
*A92
350
631D
  3
*A920
350
1B77
  3
*A921
350
49E3
  3
*A922
350
6337
  3
*A923
350
1B50
  3
*A924
350
48F8
  3
*A925
350
4A04
  3
*A926
350
636A
  3
*A927
350
6347
  3
*A928
350
4A0C
  3
*A929
350
640C
  3
*A93
350
4887
  3
*A930
350
62B0
  3
*A931
350
48FA
  3
*A932
350
49F5
  3
*A933
350
6302
  3
*A934
350
62F7
  3
*A935
350
4833
  3
*A936
350
4975
  3
*A937
350
6313
  3
*A938
350
6382
  3
*A939
350
4978
  3
*A94
350
62D4
  3
*A940
350
63B5
  3
*A941
350
49D4
  3
*A942
350
495D
  3
*A943
350
63E6
  3
*A944
350
625C
  3
*A945
350
1C61
  3
*A946
350
4858
  3
*A947
350
63B3
  3
*A948
350
49BE
  3
*A949
350
493F
  3
*A95
350
4913
  3
*A950
350
6245
  3
*A951
350
48C6
  3
*A952
350
62D8
  3
*A953
350
37C1
  3
*A954
350
1BEF
  3
*A955
350
49F1
  3
*A956
350
37BC
  3
*A957
350
630A
  3
*A958
350
1B7B
  3
*A959
350
1457
  3
*A96
350
1B19
  3
*A960
350
6282
  3
*A961
350
4898
  3
*A962
350
6333
  3
*A963
350
1C28
  3
*A964
350
63BA
  3
*A965
350
6398
  3
*A966
350
63DD
  3
*A967
350
1B7F
  3
*A968
350
62E0
  3
*A969
350
6407
  3
*A97
350
498B
  3
*A970
350
1AE6
  3
*A971
350
1C0C
  3
*A972
350
1AEF
  3
*A973
350
4815
  3
*A974
350
62A8
  3
*A975
350
626D
  3
*A976
350
63DE
  3
*A977
350
62AC
  3
*A978
350
63E2
  3
*A979
350
496B
  3
*A98
350
487E
  3
*A980
350
1BA6
  3
*A981
350
482D
  3
*A982
350
4886
  3
*A983
350
1BC2
  3
*A984
350
487F
  3
*A985
350
4968
  3
*A986
350
49C3
  3
*A987
350
49EF
  3
*A988
350
6322
  3
*A989
350
4991
  3
*A99
350
48C8
  3
*A990
350
62B2
  3
*A991
350
62CA
  3
*A992
350
1B3E
  3
*A993
350
1C27
  3
*A994
350
486C
  3
*A995
350
1C56
  3
*A996
350
489E
  3
*A997
350
48BD
  3
*A998
350
1B22
  3
*A999
350
1AE0
  0
DICTIONARY
  5
EDC7
102
{ACAD_REACTORS
330
1A
102
}
330
1A
100
AcDbDictionary
  0
DICTIONARY
  5
19
102
{ACAD_REACTORS
330
1A
102
}
330
1A
100
AcDbDictionary
  3
STANDARD
350
1D
  0
DICTIONARY
  5
EDC8
102
{ACAD_REACTORS
330
1A
102
}
330
1A
100
AcDbDictionary
  0
ACDBDICTIONARYWDFLT
  5
EDC5
102
{ACAD_REACTORS
330
1A
102
}
330
1A
100
AcDbDictionary
281
     1
  3
Normal
350
EDC6
100
AcDbDictionaryWithDefault
340
EDC6
  0
DICTIONARY
  5
F4DF
102
{ACAD_REACTORS
330
1A
102
}
330
1A
100
AcDbDictionary
  3
CEPSNTYPE
350
F4E9
  3
DIMSTYLEDATA
350
F4ED
  3
FINGERPRINTGUID
350
F4EA
  3
HYPERLINKBASE
350
F4E2
  3
INSUNITS
350
F4E8
  3
LAYOUTDICT
350
F4E4
  3
LWETCUNION
350
F4E7
  3
PLOTSETDICT
350
F4E5
  3
PLOTSTYLNAMDICT
350
F4E6
  3
PSVPSCALE
350
F4EC
  3
PUCSBASE
350
F4F0
  3
PUCSORGBACK
350
F4F6
  3
PUCSORGBOTTOM
350
F4F2
  3
PUCSORGFRONT
350
F4F5
  3
PUCSORGLEFT
350
F4F3
  3
PUCSORGRIGHT
350
F4F4
  3
PUCSORGTOP
350
F4F1
  3
PUCSORTHOREF
350
F4EE
  3
PUCSORTHOVIEW
350
F4EF
  3
STYLESHEET
350
F4E3
  3
TSTACKALIGN
350
F4E0
  3
TSTACKSIZE
350
F4E1
  3
UCSBASE
350
F4F9
  3
UCSORGBACK
350
F4FF
  3
UCSORGBOTTOM
350
F4FB
  3
UCSORGFRONT
350
F4FE
  3
UCSORGLEFT
350
F4FC
  3
UCSORGRIGHT
350
F4FD
  3
UCSORGTOP
350
F4FA
  3
UCSORTHOREF
350
F4F7
  3
UCSORTHOVIEW
350
F4F8
  3
VERSIONGUID
350
F4EB
  0
DICTIONARY
  5
F4D8
102
{ACAD_REACTORS
330
1A
102
}
330
1A
100
AcDbDictionary
  3
DIMASSOC
350
F4D9
  0
DICTIONARY
  5
81A
102
{ACAD_REACTORS
330
1A
102
}
330
1A
100
AcDbDictionary
  0
XRECORD
  5
F501
102
{ACAD_REACTORS
330
F500
102
}
330
F500
100
AcDbXrecord
340
2
  0
XRECORD
  5
F503
102
{ACAD_REACTORS
330
F502
102
}
330
F502
100
AcDbXrecord
340
7
  0
GROUP
  5
63B1
102
{ACAD_REACTORS
330
18
102
}
330
18
100
AcDbGroup
300

 70
     3
 71
     0
  0
GROUP
  5
49ED
102
{ACAD_REACTORS
330
18
102
}
330
18
100
AcDbGroup
300

 70
     3
 71
     0
  0
GROUP
  5
48CC
102
{ACAD_REACTORS
330
18
102
}
330
18
100
AcDbGroup
300

 70
     3
 71
     0
  0
GROUP
  5
4937
102
{ACAD_REACTORS
330
18
102
}
330
18
100
AcDbGroup
300

 70
     3
 71
     0
  0
GROUP
  5
63D1
102
{ACAD_REACTORS
330
18
102
}
330
18
100
AcDbGroup
300

 70
     3
 71
     0
  0
GROUP
  5
1B9F
102
{ACAD_REACTORS
330
18
102
}
330
18
100
AcDbGroup
300

 70
     3
 71
     0
  0
GROUP
  5
62D9
102
{ACAD_REACTORS
330
18
102
}
330
18
100
AcDbGroup
300

 70
     3
 71
     0
  0
GROUP
  5
63F3
102
{ACAD_REACTORS
330
18
102
}
330
18
100
AcDbGroup
300

 70
     3
 71
     0
  0
GROUP
  5
621E
102
{ACAD_REACTORS
330
18
102
}
330
18
100
AcDbGroup
300

 70
     3
 71
     0
  0
GROUP
  5
6232
102
{ACAD_REACTORS
330
18
102
}
330
18
100
AcDbGroup
300

 70
     3
 71
     0
  0
GROUP
  5
4A18
102
{ACAD_REACTORS
330
18
102
}
330
18
100
AcDbGroup
300

 70
     3
 71
     0
  0
GROUP
  5
1B28
102
{ACAD_REACTORS
330
18
102
}
330
18
100
AcDbGroup
300

 70
     3
 71
     0
  0
GROUP
  5
1BFD
102
{ACAD_REACTORS
330
18
102
}
330
18
100
AcDbGroup
300

 70
     3
 71
     0
  0
GROUP
  5
63CC
102
{ACAD_REACTORS
330
18
102
}
330
18
100
AcDbGroup
300

 70
     3
 71
     0
  0
GROUP
  5
6231
102
{ACAD_REACTORS
330
18
102
}
330
18
100
AcDbGroup
300

 70
     3
 71
     0
  0
GROUP
  5
48A5
102
{ACAD_REACTORS
330
18
102
}
330
18
100
AcDbGroup
300

 70
     3
 71
     0
  0
GROUP
  5
629F
102
{ACAD_REACTORS
330
18
102
}
330
18
100
AcDbGroup
300

 70
     3
 71
     0
  0
GROUP
  5
49D6
102
{ACAD_REACTORS
330
18
102
}
330
18
100
AcDbGroup
300

 70
     3
 71
     0
  0
GROUP
  5
6271
102
{ACAD_REACTORS
330
18
102
}
330
18
100
AcDbGroup
300

 70
     3
 71
     0
  0
GROUP
  5
4843
102
{ACAD_REACTORS
330
18
102
}
330
18
100
AcDbGroup
300

 70
     3
 71
     0
  0
GROUP
  5
1469
102
{ACAD_REACTORS
330
18
102
}
330
18
100
AcDbGroup
300

 70
     3
 71
     0
  0
GROUP
  5
496A
102
{ACAD_REACTORS
330
18
102
}
330
18
100
AcDbGroup
300

 70
     3
 71
     0
  0
GROUP
  5
6365
102
{ACAD_REACTORS
330
18
102
}
330
18
100
AcDbGroup
300

 70
     3
 71
     0
  0
GROUP
  5
1C59
102
{ACAD_REACTORS
330
18
102
}
330
18
100
AcDbGroup
300

 70
     3
 71
     0
  0
GROUP
  5
62A2
102
{ACAD_REACTORS
330
18
102
}
330
18
100
AcDbGroup
300

 70
     3
 71
     0
  0
GROUP
  5
6284
102
{ACAD_REACTORS
330
18
102
}
330
18
100
AcDbGroup
300

 70
     3
 71
     0
  0
GROUP
  5
1C51
102
{ACAD_REACTORS
330
18
102
}
330
18
100
AcDbGroup
300

 70
     3
 71
     0
  0
GROUP
  5
6298
102
{ACAD_REACTORS
330
18
102
}
330
18
100
AcDbGroup
300

 70
     3
 71
     0
  0
GROUP
  5
4909
102
{ACAD_REACTORS
330
18
102
}
330
18
100
AcDbGroup
300

 70
     3
 71
     0
  0
GROUP
  5
1B2F
102
{ACAD_REACTORS
330
18
102
}
330
18
100
AcDbGroup
300

 70
     3
 71
     0
  0
GROUP
  5
493C
102
{ACAD_REACTORS
330
18
102
}
330
18
100
AcDbGroup
300

 70
     3
 71
     0
  0
GROUP
  5
62A6
102
{ACAD_REACTORS
330
18
102
}
330
18
100
AcDbGroup
300

 70
     3
 71
     0
  0
GROUP
  5
1C39
102
{ACAD_REACTORS
330
18
102
}
330
18
100
AcDbGroup
300

 70
     3
 71
     0
  0
GROUP
  5
6300
102
{ACAD_REACTORS
330
18
102
}
330
18
100
AcDbGroup
300

 70
     3
 71
     0
  0
GROUP
  5
634C
102
{ACAD_REACTORS
330
18
102
}
330
18
100
AcDbGroup
300

 70
     3
 71
     0
  0
GROUP
  5
1C47
102
{ACAD_REACTORS
330
18
102
}
330
18
100
AcDbGroup
300

 70
     3
 71
     0
  0
GROUP
  5
633C
102
{ACAD_REACTORS
330
18
102
}
330
18
100
AcDbGroup
300

 70
     3
 71
     0
  0
GROUP
  5
1B4A
102
{ACAD_REACTORS
330
18
102
}
330
18
100
AcDbGroup
300

 70
     3
 71
     0
  0
GROUP
  5
628F
102
{ACAD_REACTORS
330
18
102
}
330
18
100
AcDbGroup
300

 70
     3
 71
     0
  0
GROUP
  5
1458
102
{ACAD_REACTORS
330
18
102
}
330
18
100
AcDbGroup
300

 70
     3
 71
     0
  0
GROUP
  5
6242
102
{ACAD_REACTORS
330
18
102
}
330
18
100
AcDbGroup
300

 70
     3
 71
     0
  0
GROUP
  5
48FC
102
{ACAD_REACTORS
330
18
102
}
330
18
100
AcDbGroup
300

 70
     3
 71
     0
  0
GROUP
  5
1B70
102
{ACAD_REACTORS
330
18
102
}
330
18
100
AcDbGroup
300

 70
     3
 71
     0
  0
GROUP
  5
62F9
102
{ACAD_REACTORS
330
18
102
}
330
18
100
AcDbGroup
300

 70
     3
 71
     0
  0
GROUP
  5
6227
102
{ACAD_REACTORS
330
18
102
}
330
18
100
AcDbGroup
300

 70
     3
 71
     0
  0
GROUP
  5
6309
102
{ACAD_REACTORS
330
18
102
}
330
18
100
AcDbGroup
300

 70
     3
 71
     0
  0
GROUP
  5
6424
102
{ACAD_REACTORS
330
18
102
}
330
18
100
AcDbGroup
300

 70
     3
 71
     0
  0
GROUP
  5
4845
102
{ACAD_REACTORS
330
18
102
}
330
18
100
AcDbGroup
300

 70
     3
 71
     0
  0
GROUP
  5
49AE
102
{ACAD_REACTORS
330
18
102
}
330
18
100
AcDbGroup
300

 70
     3
 71
     0
  0
GROUP
  5
1C22
102
{ACAD_REACTORS
330
18
102
}
330
18
100
AcDbGroup
300

 70
     3
 71
     0
  0
GROUP
  5
49E4
102
{ACAD_REACTORS
330
18
102
}
330
18
100
AcDbGroup
300

 70
     3
 71
     0
  0
GROUP
  5
63D4
102
{ACAD_REACTORS
330
18
102
}
330
18
100
AcDbGroup
300

 70
     3
 71
     0
  0
GROUP
  5
63FE
102
{ACAD_REACTORS
330
18
102
}
330
18
100
AcDbGroup
300

 70
     3
 71
     0
  0
GROUP
  5
1B98
102
{ACAD_REACTORS
330
18
102
}
330
18
100
AcDbGroup
300

 70
     3
 71
     0
  0
GROUP
  5
639D
102
{ACAD_REACTORS
330
18
102
}
330
18
100
AcDbGroup
300

 70
     3
 71
     0
  0
GROUP
  5
49CE
102
{ACAD_REACTORS
330
18
102
}
330
18
100
AcDbGroup
300

 70
     3
 71
     0
  0
GROUP
  5
484D
102
{ACAD_REACTORS
330
18
102
}
330
18
100
AcDbGroup
300

 70
     3
 71
     0
  0
GROUP
  5
1B45
102
{ACAD_REACTORS
330
18
102
}
330
18
100
AcDbGroup
300

 70
     3
 71
     0
  0
GROUP
  5
37AE
102
{ACAD_REACTORS
330
18
102
}
330
18
100
AcDbGroup
300

 70
     3
 71
     0
  0
GROUP
  5
63D3
102
{ACAD_REACTORS
330
18
102
}
330
18
100
AcDbGroup
300

 70
     3
 71
     0
  0
GROUP
  5
494C
102
{ACAD_REACTORS
330
18
102
}
330
18
100
AcDbGroup
300

 70
     3
 71
     0
  0
GROUP
  5
62F3
102
{ACAD_REACTORS
330
18
102
}
330
18
100
AcDbGroup
300

 70
     3
 71
     0
  0
GROUP
  5
4970
102
{ACAD_REACTORS
330
18
102
}
330
18
100
AcDbGroup
300

 70
     3
 71
     0
  0
GROUP
  5
37A0
102
{ACAD_REACTORS
330
18
102
}
330
18
100
AcDbGroup
300

 70
     3
 71
     0
  0
GROUP
  5
1B85
102
{ACAD_REACTORS
330
18
102
}
330
18
100
AcDbGroup
300

 70
     3
 71
     0
  0
GROUP
  5
635D
102
{ACAD_REACTORS
330
18
102
}
330
18
100
AcDbGroup
300

 70
     3
 71
     0
  0
GROUP
  5
638E
102
{ACAD_REACTORS
330
18
102
}
330
18
100
AcDbGroup
300

 70
     3
 71
     0
  0
GROUP
  5
1B1C
102
{ACAD_REACTORS
330
18
102
}
330
18
100
AcDbGroup
300

 70
     3
 71
     0
  0
GROUP
  5
4A13
102
{ACAD_REACTORS
330
18
102
}
330
18
100
AcDbGroup
300

 70
     3
 71
     0
  0
GROUP
  5
6310
102
{ACAD_REACTORS
330
18
102
}
330
18
100
AcDbGroup
300

 70
     3
 71
     0
  0
GROUP
  5
62B6
102
{ACAD_REACTORS
330
18
102
}
330
18
100
AcDbGroup
300

 70
     3
 71
     0
  0
GROUP
  5
3798
102
{ACAD_REACTORS
330
18
102
}
330
18
100
AcDbGroup
300

 70
     3
 71
     0
  0
GROUP
  5
1B63
102
{ACAD_REACTORS
330
18
102
}
330
18
100
AcDbGroup
300

 70
     3
 71
     0
  0
GROUP
  5
481C
102
{ACAD_REACTORS
330
18
102
}
330
18
100
AcDbGroup
300

 70
     3
 71
     0
  0
GROUP
  5
62FA
102
{ACAD_REACTORS
330
18
102
}
330
18
100
AcDbGroup
300

 70
     3
 71
     0
  0
GROUP
  5
49A4
102
{ACAD_REACTORS
330
18
102
}
330
18
100
AcDbGroup
300

 70
     3
 71
     0
  0
GROUP
  5
48CF
102
{ACAD_REACTORS
330
18
102
}
330
18
100
AcDbGroup
300

 70
     3
 71
     0
  0
GROUP
  5
63A0
102
{ACAD_REACTORS
330
18
102
}
330
18
100
AcDbGroup
300

 70
     3
 71
     0
  0
GROUP
  5
1AFE
102
{ACAD_REACTORS
330
18
102
}
330
18
100
AcDbGroup
300

 70
     3
 71
     0
  0
GROUP
  5
63E0
102
{ACAD_REACTORS
330
18
102
}
330
18
100
AcDbGroup
300

 70
     3
 71
     0
  0
GROUP
  5
641C
102
{ACAD_REACTORS
330
18
102
}
330
18
100
AcDbGroup
300

 70
     3
 71
     0
  0
GROUP
  5
1C16
102
{ACAD_REACTORS
330
18
102
}
330
18
100
AcDbGroup
300

 70
     3
 71
     0
  0
GROUP
  5
4941
102
{ACAD_REACTORS
330
18
102
}
330
18
100
AcDbGroup
300

 70
     3
 71
     0
  0
GROUP
  5
1B96
102
{ACAD_REACTORS
330
18
102
}
330
18
100
AcDbGroup
300

 70
     3
 71
     0
  0
GROUP
  5
1B2D
102
{ACAD_REACTORS
330
18
102
}
330
18
100
AcDbGroup
300

 70
     3
 71
     0
  0
GROUP
  5
4939
102
{ACAD_REACTORS
330
18
102
}
330
18
100
AcDbGroup
300

 70
     3
 71
     0
  0
GROUP
  5
6372
102
{ACAD_REACTORS
330
18
102
}
330
18
100
AcDbGroup
300

 70
     3
 71
     0
  0
GROUP
  5
4A00
102
{ACAD_REACTORS
330
18
102
}
330
18
100
AcDbGroup
300

 70
     3
 71
     0
  0
GROUP
  5
1B0D
102
{ACAD_REACTORS
330
18
102
}
330
18
100
AcDbGroup
300

 70
     3
 71
     0
  0
GROUP
  5
6371
102
{ACAD_REACTORS
330
18
102
}
330
18
100
AcDbGroup
300

 70
     3
 71
     0
  0
GROUP
  5
484A
102
{ACAD_REACTORS
330
18
102
}
330
18
100
AcDbGroup
300

 70
     3
 71
     0
  0
GROUP
  5
6420
102
{ACAD_REACTORS
330
18
102
}
330
18
100
AcDbGroup
300

 70
     3
 71
     0
  0
GROUP
  5
1BA5
102
{ACAD_REACTORS
330
18
102
}
330
18
100
AcDbGroup
300

 70
     3
 71
     0
  0
GROUP
  5
6405
102
{ACAD_REACTORS
330
18
102
}
330
18
100
AcDbGroup
300

 70
     3
 71
     0
  0
GROUP
  5
1C25
102
{ACAD_REACTORS
330
18
102
}
330
18
100
AcDbGroup
300

 70
     3
 71
     0
  0
GROUP
  5
49C4
102
{ACAD_REACTORS
330
18
102
}
330
18
100
AcDbGroup
300

 70
     3
 71
     0
  0
GROUP
  5
637D
102
{ACAD_REACTORS
330
18
102
}
330
18
100
AcDbGroup
300

 70
     3
 71
     0
  0
GROUP
  5
1BE4
102
{ACAD_REACTORS
330
18
102
}
330
18
100
AcDbGroup
300

 70
     3
 71
     0
  0
GROUP
  5
489D
102
{ACAD_REACTORS
330
18
102
}
330
18
100
AcDbGroup
300

 70
     3
 71
     0
  0
GROUP
  5
4895
102
{ACAD_REACTORS
330
18
102
}
330
18
100
AcDbGroup
300

 70
     3
 71
     0
  0
GROUP
  5
6239
102
{ACAD_REACTORS
330
18
102
}
330
18
100
AcDbGroup
300

 70
     3
 71
     0
  0
GROUP
  5
1BFC
102
{ACAD_REACTORS
330
18
102
}
330
18
100
AcDbGroup
300

 70
     3
 71
     0
  0
GROUP
  5
633A
102
{ACAD_REACTORS
330
18
102
}
330
18
100
AcDbGroup
300

 70
     3
 71
     0
  0
GROUP
  5
4864
102
{ACAD_REACTORS
330
18
102
}
330
18
100
AcDbGroup
300

 70
     3
 71
     0
  0
GROUP
  5
492D
102
{ACAD_REACTORS
330
18
102
}
330
18
100
AcDbGroup
300

 70
     3
 71
     0
  0
GROUP
  5
6308
102
{ACAD_REACTORS
330
18
102
}
330
18
100
AcDbGroup
300

 70
     3
 71
     0
  0
GROUP
  5
63F7
102
{ACAD_REACTORS
330
18
102
}
330
18
100
AcDbGroup
300

 70
     3
 71
     0
  0
GROUP
  5
63CA
102
{ACAD_REACTORS
330
18
102
}
330
18
100
AcDbGroup
300

 70
     3
 71
     0
  0
GROUP
  5
1BD5
102
{ACAD_REACTORS
330
18
102
}
330
18
100
AcDbGroup
300

 70
     3
 71
     0
  0
GROUP
  5
49B2
102
{ACAD_REACTORS
330
18
102
}
330
18
100
AcDbGroup
300

 70
     3
 71
     0
  0
GROUP
  5
1BC0
102
{ACAD_REACTORS
330
18
102
}
330
18
100
AcDbGroup
300

 70
     3
 71
     0
  0
GROUP
  5
37AD
102
{ACAD_REACTORS
330
18
102
}
330
18
100
AcDbGroup
300

 70
     3
 71
     0
  0
GROUP
  5
1BD6
102
{ACAD_REACTORS
330
18
102
}
330
18
100
AcDbGroup
300

 70
     3
 71
     0
  0
GROUP
  5
1C1C
102
{ACAD_REACTORS
330
18
102
}
330
18
100
AcDbGroup
300

 70
     3
 71
     0
  0
GROUP
  5
1B52
102
{ACAD_REACTORS
330
18
102
}
330
18
100
AcDbGroup
300

 70
     3
 71
     0
  0
GROUP
  5
48DA
102
{ACAD_REACTORS
330
18
102
}
330
18
100
AcDbGroup
300

 70
     3
 71
     0
  0
GROUP
  5
1B1A
102
{ACAD_REACTORS
330
18
102
}
330
18
100
AcDbGroup
300

 70
     3
 71
     0
  0
GROUP
  5
1B80
102
{ACAD_REACTORS
330
18
102
}
330
18
100
AcDbGroup
300

 70
     3
 71
     0
  0
GROUP
  5
6348
102
{ACAD_REACTORS
330
18
102
}
330
18
100
AcDbGroup
300

 70
     3
 71
     0
  0
GROUP
  5
484E
102
{ACAD_REACTORS
330
18
102
}
330
18
100
AcDbGroup
300

 70
     3
 71
     0
  0
GROUP
  5
1B87
102
{ACAD_REACTORS
330
18
102
}
330
18
100
AcDbGroup
300

 70
     3
 71
     0
  0
GROUP
  5
1BE5
102
{ACAD_REACTORS
330
18
102
}
330
18
100
AcDbGroup
300

 70
     3
 71
     0
  0
GROUP
  5
1ADE
102
{ACAD_REACTORS
330
18
102
}
330
18
100
AcDbGroup
300

 70
     3
 71
     0
  0
GROUP
  5
1B23
102
{ACAD_REACTORS
330
18
102
}
330
18
100
AcDbGroup
300

 70
     3
 71
     0
  0
GROUP
  5
62E7
102
{ACAD_REACTORS
330
18
102
}
330
18
100
AcDbGroup
300

 70
     3
 71
     0
  0
GROUP
  5
1B66
102
{ACAD_REACTORS
330
18
102
}
330
18
100
AcDbGroup
300

 70
     3
 71
     0
  0
GROUP
  5
49A8
102
{ACAD_REACTORS
330
18
102
}
330
18
100
AcDbGroup
300

 70
     3
 71
     0
  0
GROUP
  5
1BD2
102
{ACAD_REACTORS
330
18
102
}
330
18
100
AcDbGroup
300

 70
     3
 71
     0
  0
GROUP
  5
48CA
102
{ACAD_REACTORS
330
18
102
}
330
18
100
AcDbGroup
300

 70
     3
 71
     0
  0
GROUP
  5
37B1
102
{ACAD_REACTORS
330
18
102
}
330
18
100
AcDbGroup
300

 70
     3
 71
     0
  0
GROUP
  5
4816
102
{ACAD_REACTORS
330
18
102
}
330
18
100
AcDbGroup
300

 70
     3
 71
     0
  0
GROUP
  5
63B4
102
{ACAD_REACTORS
330
18
102
}
330
18
100
AcDbGroup
300

 70
     3
 71
     0
  0
GROUP
  5
640F
102
{ACAD_REACTORS
330
18
102
}
330
18
100
AcDbGroup
300

 70
     3
 71
     0
  0
GROUP
  5
4906
102
{ACAD_REACTORS
330
18
102
}
330
18
100
AcDbGroup
300

 70
     3
 71
     0
  0
GROUP
  5
1C0A
102
{ACAD_REACTORS
330
18
102
}
330
18
100
AcDbGroup
300

 70
     3
 71
     0
  0
GROUP
  5
48C0
102
{ACAD_REACTORS
330
18
102
}
330
18
100
AcDbGroup
300

 70
     3
 71
     0
  0
GROUP
  5
627A
102
{ACAD_REACTORS
330
18
102
}
330
18
100
AcDbGroup
300

 70
     3
 71
     0
  0
GROUP
  5
1C5F
102
{ACAD_REACTORS
330
18
102
}
330
18
100
AcDbGroup
300

 70
     3
 71
     0
  0
GROUP
  5
62E4
102
{ACAD_REACTORS
330
18
102
}
330
18
100
AcDbGroup
300

 70
     3
 71
     0
  0
GROUP
  5
1C26
102
{ACAD_REACTORS
330
18
102
}
330
18
100
AcDbGroup
300

 70
     3
 71
     0
  0
GROUP
  5
624A
102
{ACAD_REACTORS
330
18
102
}
330
18
100
AcDbGroup
300

 70
     3
 71
     0
  0
GROUP
  5
1C2A
102
{ACAD_REACTORS
330
18
102
}
330
18
100
AcDbGroup
300

 70
     3
 71
     0
  0
GROUP
  5
48A7
102
{ACAD_REACTORS
330
18
102
}
330
18
100
AcDbGroup
300

 70
     3
 71
     0
  0
GROUP
  5
62F0
102
{ACAD_REACTORS
330
18
102
}
330
18
100
AcDbGroup
300

 70
     3
 71
     0
  0
GROUP
  5
4987
102
{ACAD_REACTORS
330
18
102
}
330
18
100
AcDbGroup
300

 70
     3
 71
     0
  0
GROUP
  5
6409
102
{ACAD_REACTORS
330
18
102
}
330
18
100
AcDbGroup
300

 70
     3
 71
     0
  0
GROUP
  5
4934
102
{ACAD_REACTORS
330
18
102
}
330
18
100
AcDbGroup
300

 70
     3
 71
     0
  0
GROUP
  5
623B
102
{ACAD_REACTORS
330
18
102
}
330
18
100
AcDbGroup
300

 70
     3
 71
     0
  0
GROUP
  5
62AB
102
{ACAD_REACTORS
330
18
102
}
330
18
100
AcDbGroup
300

 70
     3
 71
     0
  0
GROUP
  5
499D
102
{ACAD_REACTORS
330
18
102
}
330
18
100
AcDbGroup
300

 70
     3
 71
     0
  0
GROUP
  5
63C6
102
{ACAD_REACTORS
330
18
102
}
330
18
100
AcDbGroup
300

 70
     3
 71
     0
  0
GROUP
  5
63EF
102
{ACAD_REACTORS
330
18
102
}
330
18
100
AcDbGroup
300

 70
     3
 71
     0
  0
GROUP
  5
1BEA
102
{ACAD_REACTORS
330
18
102
}
330
18
100
AcDbGroup
300

 70
     3
 71
     0
  0
GROUP
  5
6346
102
{ACAD_REACTORS
330
18
102
}
330
18
100
AcDbGroup
300

 70
     3
 71
     0
  0
GROUP
  5
6291
102
{ACAD_REACTORS
330
18
102
}
330
18
100
AcDbGroup
300

 70
     3
 71
     0
  0
GROUP
  5
1BA2
102
{ACAD_REACTORS
330
18
102
}
330
18
100
AcDbGroup
300

 70
     3
 71
     0
  0
GROUP
  5
1B3B
102
{ACAD_REACTORS
330
18
102
}
330
18
100
AcDbGroup
300

 70
     3
 71
     0
  0
GROUP
  5
1B7E
102
{ACAD_REACTORS
330
18
102
}
330
18
100
AcDbGroup
300

 70
     3
 71
     0
  0
GROUP
  5
49AD
102
{ACAD_REACTORS
330
18
102
}
330
18
100
AcDbGroup
300

 70
     3
 71
     0
  0
GROUP
  5
62C1
102
{ACAD_REACTORS
330
18
102
}
330
18
100
AcDbGroup
300

 70
     3
 71
     0
  0
GROUP
  5
6292
102
{ACAD_REACTORS
330
18
102
}
330
18
100
AcDbGroup
300

 70
     3
 71
     0
  0
GROUP
  5
492A
102
{ACAD_REACTORS
330
18
102
}
330
18
100
AcDbGroup
300

 70
     3
 71
     0
  0
GROUP
  5
1B60
102
{ACAD_REACTORS
330
18
102
}
330
18
100
AcDbGroup
300

 70
     3
 71
     0
  0
GROUP
  5
489B
102
{ACAD_REACTORS
330
18
102
}
330
18
100
AcDbGroup
300

 70
     3
 71
     0
  0
GROUP
  5
63FF
102
{ACAD_REACTORS
330
18
102
}
330
18
100
AcDbGroup
300

 70
     3
 71
     0
  0
GROUP
  5
4817
102
{ACAD_REACTORS
330
18
102
}
330
18
100
AcDbGroup
300

 70
     3
 71
     0
  0
GROUP
  5
4871
102
{ACAD_REACTORS
330
18
102
}
330
18
100
AcDbGroup
300

 70
     3
 71
     0
  0
GROUP
  5
49E2
102
{ACAD_REACTORS
330
18
102
}
330
18
100
AcDbGroup
300

 70
     3
 71
     0
  0
GROUP
  5
1465
102
{ACAD_REACTORS
330
18
102
}
330
18
100
AcDbGroup
300

 70
     3
 71
     0
  0
GROUP
  5
1BEE
102
{ACAD_REACTORS
330
18
102
}
330
18
100
AcDbGroup
300

 70
     3
 71
     0
  0
GROUP
  5
63EC
102
{ACAD_REACTORS
330
18
102
}
330
18
100
AcDbGroup
300

 70
     3
 71
     0
  0
GROUP
  5
1BEB
102
{ACAD_REACTORS
330
18
102
}
330
18
100
AcDbGroup
300

 70
     3
 71
     0
  0
GROUP
  5
4998
102
{ACAD_REACTORS
330
18
102
}
330
18
100
AcDbGroup
300

 70
     3
 71
     0
  0
GROUP
  5
480B
102
{ACAD_REACTORS
330
18
102
}
330
18
100
AcDbGroup
300

 70
     3
 71
     0
  0
GROUP
  5
625A
102
{ACAD_REACTORS
330
18
102
}
330
18
100
AcDbGroup
300

 70
     3
 71
     0
  0
GROUP
  5
493A
102
{ACAD_REACTORS
330
18
102
}
330
18
100
AcDbGroup
300

 70
     3
 71
     0
  0
GROUP
  5
1B42
102
{ACAD_REACTORS
330
18
102
}
330
18
100
AcDbGroup
300

 70
     3
 71
     0
  0
GROUP
  5
63B0
102
{ACAD_REACTORS
330
18
102
}
330
18
100
AcDbGroup
300

 70
     3
 71
     0
  0
GROUP
  5
48AF
102
{ACAD_REACTORS
330
18
102
}
330
18
100
AcDbGroup
300

 70
     3
 71
     0
  0
GROUP
  5
62A3
102
{ACAD_REACTORS
330
18
102
}
330
18
100
AcDbGroup
300

 70
     3
 71
     0
  0
GROUP
  5
634B
102
{ACAD_REACTORS
330
18
102
}
330
18
100
AcDbGroup
300

 70
     3
 71
     0
  0
GROUP
  5
490A
102
{ACAD_REACTORS
330
18
102
}
330
18
100
AcDbGroup
300

 70
     3
 71
     0
  0
GROUP
  5
4943
102
{ACAD_REACTORS
330
18
102
}
330
18
100
AcDbGroup
300

 70
     3
 71
     0
  0
GROUP
  5
6281
102
{ACAD_REACTORS
330
18
102
}
330
18
100
AcDbGroup
300

 70
     3
 71
     0
  0
GROUP
  5
62DC
102
{ACAD_REACTORS
330
18
102
}
330
18
100
AcDbGroup
300

 70
     3
 71
     0
  0
GROUP
  5
48B0
102
{ACAD_REACTORS
330
18
102
}
330
18
100
AcDbGroup
300

 70
     3
 71
     0
  0
GROUP
  5
379D
102
{ACAD_REACTORS
330
18
102
}
330
18
100
AcDbGroup
300

 70
     3
 71
     0
  0
GROUP
  5
6385
102
{ACAD_REACTORS
330
18
102
}
330
18
100
AcDbGroup
300

 70
     3
 71
     0
  0
GROUP
  5
1AFC
102
{ACAD_REACTORS
330
18
102
}
330
18
100
AcDbGroup
300

 70
     3
 71
     0
  0
GROUP
  5
4959
102
{ACAD_REACTORS
330
18
102
}
330
18
100
AcDbGroup
300

 70
     3
 71
     0
  0
GROUP
  5
49D9
102
{ACAD_REACTORS
330
18
102
}
330
18
100
AcDbGroup
300

 70
     3
 71
     0
  0
GROUP
  5
1C32
102
{ACAD_REACTORS
330
18
102
}
330
18
100
AcDbGroup
300

 70
     3
 71
     0
  0
GROUP
  5
491E
102
{ACAD_REACTORS
330
18
102
}
330
18
100
AcDbGroup
300

 70
     3
 71
     0
  0
GROUP
  5
1AE9
102
{ACAD_REACTORS
330
18
102
}
330
18
100
AcDbGroup
300

 70
     3
 71
     0
  0
GROUP
  5
1B2C
102
{ACAD_REACTORS
330
18
102
}
330
18
100
AcDbGroup
300

 70
     3
 71
     0
  0
GROUP
  5
1C36
102
{ACAD_REACTORS
330
18
102
}
330
18
100
AcDbGroup
300

 70
     3
 71
     0
  0
GROUP
  5
49C2
102
{ACAD_REACTORS
330
18
102
}
330
18
100
AcDbGroup
300

 70
     3
 71
     0
  0
GROUP
  5
6396
102
{ACAD_REACTORS
330
18
102
}
330
18
100
AcDbGroup
300

 70
     3
 71
     0
  0
GROUP
  5
6425
102
{ACAD_REACTORS
330
18
102
}
330
18
100
AcDbGroup
300

 70
     3
 71
     0
  0
GROUP
  5
4A11
102
{ACAD_REACTORS
330
18
102
}
330
18
100
AcDbGroup
300

 70
     3
 71
     0
  0
GROUP
  5
494A
102
{ACAD_REACTORS
330
18
102
}
330
18
100
AcDbGroup
300

 70
     3
 71
     0
  0
GROUP
  5
62FF
102
{ACAD_REACTORS
330
18
102
}
330
18
100
AcDbGroup
300

 70
     3
 71
     0
  0
GROUP
  5
6352
102
{ACAD_REACTORS
330
18
102
}
330
18
100
AcDbGroup
300

 70
     3
 71
     0
  0
GROUP
  5
1BAE
102
{ACAD_REACTORS
330
18
102
}
330
18
100
AcDbGroup
300

 70
     3
 71
     0
  0
GROUP
  5
1AEB
102
{ACAD_REACTORS
330
18
102
}
330
18
100
AcDbGroup
300

 70
     3
 71
     0
  0
GROUP
  5
63CF
102
{ACAD_REACTORS
330
18
102
}
330
18
100
AcDbGroup
300

 70
     3
 71
     0
  0
GROUP
  5
622C
102
{ACAD_REACTORS
330
18
102
}
330
18
100
AcDbGroup
300

 70
     3
 71
     0
  0
GROUP
  5
1C1A
102
{ACAD_REACTORS
330
18
102
}
330
18
100
AcDbGroup
300

 70
     3
 71
     0
  0
GROUP
  5
1B6C
102
{ACAD_REACTORS
330
18
102
}
330
18
100
AcDbGroup
300

 70
     3
 71
     0
  0
GROUP
  5
1B6F
102
{ACAD_REACTORS
330
18
102
}
330
18
100
AcDbGroup
300

 70
     3
 71
     0
  0
GROUP
  5
1BB5
102
{ACAD_REACTORS
330
18
102
}
330
18
100
AcDbGroup
300

 70
     3
 71
     0
  0
GROUP
  5
62DF
102
{ACAD_REACTORS
330
18
102
}
330
18
100
AcDbGroup
300

 70
     3
 71
     0
  0
GROUP
  5
6294
102
{ACAD_REACTORS
330
18
102
}
330
18
100
AcDbGroup
300

 70
     3
 71
     0
  0
GROUP
  5
62CD
102
{ACAD_REACTORS
330
18
102
}
330
18
100
AcDbGroup
300

 70
     3
 71
     0
  0
GROUP
  5
4A15
102
{ACAD_REACTORS
330
18
102
}
330
18
100
AcDbGroup
300

 70
     3
 71
     0
  0
GROUP
  5
628C
102
{ACAD_REACTORS
330
18
102
}
330
18
100
AcDbGroup
300

 70
     3
 71
     0
  0
GROUP
  5
49B3
102
{ACAD_REACTORS
330
18
102
}
330
18
100
AcDbGroup
300

 70
     3
 71
     0
  0
GROUP
  5
1AFA
102
{ACAD_REACTORS
330
18
102
}
330
18
100
AcDbGroup
300

 70
     3
 71
     0
  0
GROUP
  5
48A9
102
{ACAD_REACTORS
330
18
102
}
330
18
100
AcDbGroup
300

 70
     3
 71
     0
  0
GROUP
  5
4891
102
{ACAD_REACTORS
330
18
102
}
330
18
100
AcDbGroup
300

 70
     3
 71
     0
  0
GROUP
  5
4A06
102
{ACAD_REACTORS
330
18
102
}
330
18
100
AcDbGroup
300

 70
     3
 71
     0
  0
GROUP
  5
37B3
102
{ACAD_REACTORS
330
18
102
}
330
18
100
AcDbGroup
300

 70
     3
 71
     0
  0
GROUP
  5
483D
102
{ACAD_REACTORS
330
18
102
}
330
18
100
AcDbGroup
300

 70
     3
 71
     0
  0
GROUP
  5
37B2
102
{ACAD_REACTORS
330
18
102
}
330
18
100
AcDbGroup
300

 70
     3
 71
     0
  0
GROUP
  5
1AD8
102
{ACAD_REACTORS
330
18
102
}
330
18
100
AcDbGroup
300

 70
     3
 71
     0
  0
GROUP
  5
37AB
102
{ACAD_REACTORS
330
18
102
}
330
18
100
AcDbGroup
300

 70
     3
 71
     0
  0
GROUP
  5
495C
102
{ACAD_REACTORS
330
18
102
}
330
18
100
AcDbGroup
300

 70
     3
 71
     0
  0
GROUP
  5
62C4
102
{ACAD_REACTORS
330
18
102
}
330
18
100
AcDbGroup
300

 70
     3
 71
     0
  0
GROUP
  5
4834
102
{ACAD_REACTORS
330
18
102
}
330
18
100
AcDbGroup
300

 70
     3
 71
     0
  0
GROUP
  5
488D
102
{ACAD_REACTORS
330
18
102
}
330
18
100
AcDbGroup
300

 70
     3
 71
     0
  0
GROUP
  5
635F
102
{ACAD_REACTORS
330
18
102
}
330
18
100
AcDbGroup
300

 70
     3
 71
     0
  0
GROUP
  5
48B1
102
{ACAD_REACTORS
330
18
102
}
330
18
100
AcDbGroup
300

 70
     3
 71
     0
  0
GROUP
  5
1B1D
102
{ACAD_REACTORS
330
18
102
}
330
18
100
AcDbGroup
300

 70
     3
 71
     0
  0
GROUP
  5
1C5A
102
{ACAD_REACTORS
330
18
102
}
330
18
100
AcDbGroup
300

 70
     3
 71
     0
  0
GROUP
  5
63B2
102
{ACAD_REACTORS
330
18
102
}
330
18
100
AcDbGroup
300

 70
     3
 71
     0
  0
GROUP
  5
1B82
102
{ACAD_REACTORS
330
18
102
}
330
18
100
AcDbGroup
300

 70
     3
 71
     0
  0
GROUP
  5
48A2
102
{ACAD_REACTORS
330
18
102
}
330
18
100
AcDbGroup
300

 70
     3
 71
     0
  0
GROUP
  5
1B0A
102
{ACAD_REACTORS
330
18
102
}
330
18
100
AcDbGroup
300

 70
     3
 71
     0
  0
GROUP
  5
6229
102
{ACAD_REACTORS
330
18
102
}
330
18
100
AcDbGroup
300

 70
     3
 71
     0
  0
GROUP
  5
1B88
102
{ACAD_REACTORS
330
18
102
}
330
18
100
AcDbGroup
300

 70
     3
 71
     0
  0
GROUP
  5
625B
102
{ACAD_REACTORS
330
18
102
}
330
18
100
AcDbGroup
300

 70
     3
 71
     0
  0
GROUP
  5
1B04
102
{ACAD_REACTORS
330
18
102
}
330
18
100
AcDbGroup
300

 70
     3
 71
     0
  0
GROUP
  5
487A
102
{ACAD_REACTORS
330
18
102
}
330
18
100
AcDbGroup
300

 70
     3
 71
     0
  0
GROUP
  5
1B2B
102
{ACAD_REACTORS
330
18
102
}
330
18
100
AcDbGroup
300

 70
     3
 71
     0
  0
GROUP
  5
63A2
102
{ACAD_REACTORS
330
18
102
}
330
18
100
AcDbGroup
300

 70
     3
 71
     0
  0
GROUP
  5
4844
102
{ACAD_REACTORS
330
18
102
}
330
18
100
AcDbGroup
300

 70
     3
 71
     0
  0
GROUP
  5
1B35
102
{ACAD_REACTORS
330
18
102
}
330
18
100
AcDbGroup
300

 70
     3
 71
     0
  0
GROUP
  5
6402
102
{ACAD_REACTORS
330
18
102
}
330
18
100
AcDbGroup
300

 70
     3
 71
     0
  0
GROUP
  5
63D6
102
{ACAD_REACTORS
330
18
102
}
330
18
100
AcDbGroup
300

 70
     3
 71
     0
  0
GROUP
  5
6350
102
{ACAD_REACTORS
330
18
102
}
330
18
100
AcDbGroup
300

 70
     3
 71
     0
  0
GROUP
  5
6400
102
{ACAD_REACTORS
330
18
102
}
330
18
100
AcDbGroup
300

 70
     3
 71
     0
  0
GROUP
  5
6399
102
{ACAD_REACTORS
330
18
102
}
330
18
100
AcDbGroup
300

 70
     3
 71
     0
  0
GROUP
  5
1ACE
102
{ACAD_REACTORS
330
18
102
}
330
18
100
AcDbGroup
300

 70
     3
 71
     0
  0
GROUP
  5
1BB4
102
{ACAD_REACTORS
330
18
102
}
330
18
100
AcDbGroup
300

 70
     3
 71
     0
  0
GROUP
  5
1C03
102
{ACAD_REACTORS
330
18
102
}
330
18
100
AcDbGroup
300

 70
     3
 71
     0
  0
GROUP
  5
4995
102
{ACAD_REACTORS
330
18
102
}
330
18
100
AcDbGroup
300

 70
     3
 71
     0
  0
GROUP
  5
1C45
102
{ACAD_REACTORS
330
18
102
}
330
18
100
AcDbGroup
300

 70
     3
 71
     0
  0
GROUP
  5
49FC
102
{ACAD_REACTORS
330
18
102
}
330
18
100
AcDbGroup
300

 70
     3
 71
     0
  0
GROUP
  5
6283
102
{ACAD_REACTORS
330
18
102
}
330
18
100
AcDbGroup
300

 70
     3
 71
     0
  0
GROUP
  5
6341
102
{ACAD_REACTORS
330
18
102
}
330
18
100
AcDbGroup
300

 70
     3
 71
     0
  0
GROUP
  5
1BA8
102
{ACAD_REACTORS
330
18
102
}
330
18
100
AcDbGroup
300

 70
     3
 71
     0
  0
GROUP
  5
63F0
102
{ACAD_REACTORS
330
18
102
}
330
18
100
AcDbGroup
300

 70
     3
 71
     0
  0
GROUP
  5
49D8
102
{ACAD_REACTORS
330
18
102
}
330
18
100
AcDbGroup
300

 70
     3
 71
     0
  0
GROUP
  5
4990
102
{ACAD_REACTORS
330
18
102
}
330
18
100
AcDbGroup
300

 70
     3
 71
     0
  0
GROUP
  5
629B
102
{ACAD_REACTORS
330
18
102
}
330
18
100
AcDbGroup
300

 70
     3
 71
     0
  0
GROUP
  5
1C0E
102
{ACAD_REACTORS
330
18
102
}
330
18
100
AcDbGroup
300

 70
     3
 71
     0
  0
GROUP
  5
1460
102
{ACAD_REACTORS
330
18
102
}
330
18
100
AcDbGroup
300

 70
     3
 71
     0
  0
GROUP
  5
6381
102
{ACAD_REACTORS
330
18
102
}
330
18
100
AcDbGroup
300

 70
     3
 71
     0
  0
GROUP
  5
37B9
102
{ACAD_REACTORS
330
18
102
}
330
18
100
AcDbGroup
300

 70
     3
 71
     0
  0
GROUP
  5
1AD1
102
{ACAD_REACTORS
330
18
102
}
330
18
100
AcDbGroup
300

 70
     3
 71
     0
  0
GROUP
  5
1AF3
102
{ACAD_REACTORS
330
18
102
}
330
18
100
AcDbGroup
300

 70
     3
 71
     0
  0
GROUP
  5
635B
102
{ACAD_REACTORS
330
18
102
}
330
18
100
AcDbGroup
300

 70
     3
 71
     0
  0
GROUP
  5
1BBD
102
{ACAD_REACTORS
330
18
102
}
330
18
100
AcDbGroup
300

 70
     3
 71
     0
  0
GROUP
  5
1B16
102
{ACAD_REACTORS
330
18
102
}
330
18
100
AcDbGroup
300

 70
     3
 71
     0
  0
GROUP
  5
1B62
102
{ACAD_REACTORS
330
18
102
}
330
18
100
AcDbGroup
300

 70
     3
 71
     0
  0
GROUP
  5
494D
102
{ACAD_REACTORS
330
18
102
}
330
18
100
AcDbGroup
300

 70
     3
 71
     0
  0
GROUP
  5
1AFD
102
{ACAD_REACTORS
330
18
102
}
330
18
100
AcDbGroup
300

 70
     3
 71
     0
  0
GROUP
  5
37C2
102
{ACAD_REACTORS
330
18
102
}
330
18
100
AcDbGroup
300

 70
     3
 71
     0
  0
GROUP
  5
49D5
102
{ACAD_REACTORS
330
18
102
}
330
18
100
AcDbGroup
300

 70
     3
 71
     0
  0
GROUP
  5
4A0F
102
{ACAD_REACTORS
330
18
102
}
330
18
100
AcDbGroup
300

 70
     3
 71
     0
  0
GROUP
  5
6392
102
{ACAD_REACTORS
330
18
102
}
330
18
100
AcDbGroup
300

 70
     3
 71
     0
  0
GROUP
  5
1BED
102
{ACAD_REACTORS
330
18
102
}
330
18
100
AcDbGroup
300

 70
     3
 71
     0
  0
GROUP
  5
1BF5
102
{ACAD_REACTORS
330
18
102
}
330
18
100
AcDbGroup
300

 70
     3
 71
     0
  0
GROUP
  5
62E9
102
{ACAD_REACTORS
330
18
102
}
330
18
100
AcDbGroup
300

 70
     3
 71
     0
  0
GROUP
  5
48B3
102
{ACAD_REACTORS
330
18
102
}
330
18
100
AcDbGroup
300

 70
     3
 71
     0
  0
GROUP
  5
62C8
102
{ACAD_REACTORS
330
18
102
}
330
18
100
AcDbGroup
300

 70
     3
 71
     0
  0
GROUP
  5
638B
102
{ACAD_REACTORS
330
18
102
}
330
18
100
AcDbGroup
300

 70
     3
 71
     0
  0
GROUP
  5
48E3
102
{ACAD_REACTORS
330
18
102
}
330
18
100
AcDbGroup
300

 70
     3
 71
     0
  0
GROUP
  5
4929
102
{ACAD_REACTORS
330
18
102
}
330
18
100
AcDbGroup
300

 70
     3
 71
     0
  0
GROUP
  5
6316
102
{ACAD_REACTORS
330
18
102
}
330
18
100
AcDbGroup
300

 70
     3
 71
     0
  0
GROUP
  5
37BF
102
{ACAD_REACTORS
330
18
102
}
330
18
100
AcDbGroup
300

 70
     3
 71
     0
  0
GROUP
  5
1BBB
102
{ACAD_REACTORS
330
18
102
}
330
18
100
AcDbGroup
300

 70
     3
 71
     0
  0
GROUP
  5
6304
102
{ACAD_REACTORS
330
18
102
}
330
18
100
AcDbGroup
300

 70
     3
 71
     0
  0
GROUP
  5
1BE1
102
{ACAD_REACTORS
330
18
102
}
330
18
100
AcDbGroup
300

 70
     3
 71
     0
  0
GROUP
  5
49F0
102
{ACAD_REACTORS
330
18
102
}
330
18
100
AcDbGroup
300

 70
     3
 71
     0
  0
GROUP
  5
1AEC
102
{ACAD_REACTORS
330
18
102
}
330
18
100
AcDbGroup
300

 70
     3
 71
     0
  0
GROUP
  5
498C
102
{ACAD_REACTORS
330
18
102
}
330
18
100
AcDbGroup
300

 70
     3
 71
     0
  0
GROUP
  5
1B0C
102
{ACAD_REACTORS
330
18
102
}
330
18
100
AcDbGroup
300

 70
     3
 71
     0
  0
GROUP
  5
1BB6
102
{ACAD_REACTORS
330
18
102
}
330
18
100
AcDbGroup
300

 70
     3
 71
     0
  0
GROUP
  5
488F
102
{ACAD_REACTORS
330
18
102
}
330
18
100
AcDbGroup
300

 70
     3
 71
     0
  0
GROUP
  5
625E
102
{ACAD_REACTORS
330
18
102
}
330
18
100
AcDbGroup
300

 70
     3
 71
     0
  0
GROUP
  5
4989
102
{ACAD_REACTORS
330
18
102
}
330
18
100
AcDbGroup
300

 70
     3
 71
     0
  0
GROUP
  5
4899
102
{ACAD_REACTORS
330
18
102
}
330
18
100
AcDbGroup
300

 70
     3
 71
     0
  0
GROUP
  5
1BBF
102
{ACAD_REACTORS
330
18
102
}
330
18
100
AcDbGroup
300

 70
     3
 71
     0
  0
GROUP
  5
63C9
102
{ACAD_REACTORS
330
18
102
}
330
18
100
AcDbGroup
300

 70
     3
 71
     0
  0
GROUP
  5
6375
102
{ACAD_REACTORS
330
18
102
}
330
18
100
AcDbGroup
300

 70
     3
 71
     0
  0
GROUP
  5
4911
102
{ACAD_REACTORS
330
18
102
}
330
18
100
AcDbGroup
300

 70
     3
 71
     0
  0
GROUP
  5
635C
102
{ACAD_REACTORS
330
18
102
}
330
18
100
AcDbGroup
300

 70
     3
 71
     0
  0
GROUP
  5
487D
102
{ACAD_REACTORS
330
18
102
}
330
18
100
AcDbGroup
300

 70
     3
 71
     0
  0
GROUP
  5
1B5D
102
{ACAD_REACTORS
330
18
102
}
330
18
100
AcDbGroup
300

 70
     3
 71
     0
  0
GROUP
  5
63BB
102
{ACAD_REACTORS
330
18
102
}
330
18
100
AcDbGroup
300

 70
     3
 71
     0
  0
GROUP
  5
637A
102
{ACAD_REACTORS
330
18
102
}
330
18
100
AcDbGroup
300

 70
     3
 71
     0
  0
GROUP
  5
6261
102
{ACAD_REACTORS
330
18
102
}
330
18
100
AcDbGroup
300

 70
     3
 71
     0
  0
GROUP
  5
49CF
102
{ACAD_REACTORS
330
18
102
}
330
18
100
AcDbGroup
300

 70
     3
 71
     0
  0
GROUP
  5
6262
102
{ACAD_REACTORS
330
18
102
}
330
18
100
AcDbGroup
300

 70
     3
 71
     0
  0
GROUP
  5
1C02
102
{ACAD_REACTORS
330
18
102
}
330
18
100
AcDbGroup
300

 70
     3
 71
     0
  0
GROUP
  5
6394
102
{ACAD_REACTORS
330
18
102
}
330
18
100
AcDbGroup
300

 70
     3
 71
     0
  0
GROUP
  5
1BB1
102
{ACAD_REACTORS
330
18
102
}
330
18
100
AcDbGroup
300

 70
     3
 71
     0
  0
GROUP
  5
48E8
102
{ACAD_REACTORS
330
18
102
}
330
18
100
AcDbGroup
300

 70
     3
 71
     0
  0
GROUP
  5
37A3
102
{ACAD_REACTORS
330
18
102
}
330
18
100
AcDbGroup
300

 70
     3
 71
     0
  0
GROUP
  5
49AA
102
{ACAD_REACTORS
330
18
102
}
330
18
100
AcDbGroup
300

 70
     3
 71
     0
  0
GROUP
  5
63BC
102
{ACAD_REACTORS
330
18
102
}
330
18
100
AcDbGroup
300

 70
     3
 71
     0
  0
GROUP
  5
62AF
102
{ACAD_REACTORS
330
18
102
}
330
18
100
AcDbGroup
300

 70
     3
 71
     0
  0
GROUP
  5
48E1
102
{ACAD_REACTORS
330
18
102
}
330
18
100
AcDbGroup
300

 70
     3
 71
     0
  0
GROUP
  5
6311
102
{ACAD_REACTORS
330
18
102
}
330
18
100
AcDbGroup
300

 70
     3
 71
     0
  0
GROUP
  5
6369
102
{ACAD_REACTORS
330
18
102
}
330
18
100
AcDbGroup
300

 70
     3
 71
     0
  0
GROUP
  5
1C53
102
{ACAD_REACTORS
330
18
102
}
330
18
100
AcDbGroup
300

 70
     3
 71
     0
  0
GROUP
  5
499A
102
{ACAD_REACTORS
330
18
102
}
330
18
100
AcDbGroup
300

 70
     3
 71
     0
  0
GROUP
  5
4874
102
{ACAD_REACTORS
330
18
102
}
330
18
100
AcDbGroup
300

 70
     3
 71
     0
  0
GROUP
  5
4896
102
{ACAD_REACTORS
330
18
102
}
330
18
100
AcDbGroup
300

 70
     3
 71
     0
  0
GROUP
  5
481F
102
{ACAD_REACTORS
330
18
102
}
330
18
100
AcDbGroup
300

 70
     3
 71
     0
  0
GROUP
  5
1459
102
{ACAD_REACTORS
330
18
102
}
330
18
100
AcDbGroup
300

 70
     3
 71
     0
  0
GROUP
  5
49F8
102
{ACAD_REACTORS
330
18
102
}
330
18
100
AcDbGroup
300

 70
     3
 71
     0
  0
GROUP
  5
4974
102
{ACAD_REACTORS
330
18
102
}
330
18
100
AcDbGroup
300

 70
     3
 71
     0
  0
GROUP
  5
497E
102
{ACAD_REACTORS
330
18
102
}
330
18
100
AcDbGroup
300

 70
     3
 71
     0
  0
GROUP
  5
1AD0
102
{ACAD_REACTORS
330
18
102
}
330
18
100
AcDbGroup
300

 70
     3
 71
     0
  0
GROUP
  5
639E
102
{ACAD_REACTORS
330
18
102
}
330
18
100
AcDbGroup
300

 70
     3
 71
     0
  0
GROUP
  5
6220
102
{ACAD_REACTORS
330
18
102
}
330
18
100
AcDbGroup
300

 70
     3
 71
     0
  0
GROUP
  5
63E1
102
{ACAD_REACTORS
330
18
102
}
330
18
100
AcDbGroup
300

 70
     3
 71
     0
  0
GROUP
  5
48B4
102
{ACAD_REACTORS
330
18
102
}
330
18
100
AcDbGroup
300

 70
     3
 71
     0
  0
GROUP
  5
4A17
102
{ACAD_REACTORS
330
18
102
}
330
18
100
AcDbGroup
300

 70
     3
 71
     0
  0
GROUP
  5
1B92
102
{ACAD_REACTORS
330
18
102
}
330
18
100
AcDbGroup
300

 70
     3
 71
     0
  0
GROUP
  5
1B2A
102
{ACAD_REACTORS
330
18
102
}
330
18
100
AcDbGroup
300

 70
     3
 71
     0
  0
GROUP
  5
48D2
102
{ACAD_REACTORS
330
18
102
}
330
18
100
AcDbGroup
300

 70
     3
 71
     0
  0
GROUP
  5
1C15
102
{ACAD_REACTORS
330
18
102
}
330
18
100
AcDbGroup
300

 70
     3
 71
     0
  0
GROUP
  5
1C58
102
{ACAD_REACTORS
330
18
102
}
330
18
100
AcDbGroup
300

 70
     3
 71
     0
  0
GROUP
  5
49BD
102
{ACAD_REACTORS
330
18
102
}
330
18
100
AcDbGroup
300

 70
     3
 71
     0
  0
GROUP
  5
1B8B
102
{ACAD_REACTORS
330
18
102
}
330
18
100
AcDbGroup
300

 70
     3
 71
     0
  0
GROUP
  5
1C1B
102
{ACAD_REACTORS
330
18
102
}
330
18
100
AcDbGroup
300

 70
     3
 71
     0
  0
GROUP
  5
495E
102
{ACAD_REACTORS
330
18
102
}
330
18
100
AcDbGroup
300

 70
     3
 71
     0
  0
GROUP
  5
1C20
102
{ACAD_REACTORS
330
18
102
}
330
18
100
AcDbGroup
300

 70
     3
 71
     0
  0
GROUP
  5
1C3A
102
{ACAD_REACTORS
330
18
102
}
330
18
100
AcDbGroup
300

 70
     3
 71
     0
  0
GROUP
  5
49E8
102
{ACAD_REACTORS
330
18
102
}
330
18
100
AcDbGroup
300

 70
     3
 71
     0
  0
GROUP
  5
37A6
102
{ACAD_REACTORS
330
18
102
}
330
18
100
AcDbGroup
300

 70
     3
 71
     0
  0
GROUP
  5
635A
102
{ACAD_REACTORS
330
18
102
}
330
18
100
AcDbGroup
300

 70
     3
 71
     0
  0
GROUP
  5
1BD4
102
{ACAD_REACTORS
330
18
102
}
330
18
100
AcDbGroup
300

 70
     3
 71
     0
  0
GROUP
  5
62A0
102
{ACAD_REACTORS
330
18
102
}
330
18
100
AcDbGroup
300

 70
     3
 71
     0
  0
GROUP
  5
4997
102
{ACAD_REACTORS
330
18
102
}
330
18
100
AcDbGroup
300

 70
     3
 71
     0
  0
GROUP
  5
6317
102
{ACAD_REACTORS
330
18
102
}
330
18
100
AcDbGroup
300

 70
     3
 71
     0
  0
GROUP
  5
1C21
102
{ACAD_REACTORS
330
18
102
}
330
18
100
AcDbGroup
300

 70
     3
 71
     0
  0
GROUP
  5
1AEE
102
{ACAD_REACTORS
330
18
102
}
330
18
100
AcDbGroup
300

 70
     3
 71
     0
  0
GROUP
  5
6248
102
{ACAD_REACTORS
330
18
102
}
330
18
100
AcDbGroup
300

 70
     3
 71
     0
  0
GROUP
  5
1AED
102
{ACAD_REACTORS
330
18
102
}
330
18
100
AcDbGroup
300

 70
     3
 71
     0
  0
GROUP
  5
497F
102
{ACAD_REACTORS
330
18
102
}
330
18
100
AcDbGroup
300

 70
     3
 71
     0
  0
GROUP
  5
1C48
102
{ACAD_REACTORS
330
18
102
}
330
18
100
AcDbGroup
300

 70
     3
 71
     0
  0
GROUP
  5
1BD3
102
{ACAD_REACTORS
330
18
102
}
330
18
100
AcDbGroup
300

 70
     3
 71
     0
  0
GROUP
  5
48BB
102
{ACAD_REACTORS
330
18
102
}
330
18
100
AcDbGroup
300

 70
     3
 71
     0
  0
GROUP
  5
1C37
102
{ACAD_REACTORS
330
18
102
}
330
18
100
AcDbGroup
300

 70
     3
 71
     0
  0
GROUP
  5
1C44
102
{ACAD_REACTORS
330
18
102
}
330
18
100
AcDbGroup
300

 70
     3
 71
     0
  0
GROUP
  5
49F6
102
{ACAD_REACTORS
330
18
102
}
330
18
100
AcDbGroup
300

 70
     3
 71
     0
  0
GROUP
  5
496F
102
{ACAD_REACTORS
330
18
102
}
330
18
100
AcDbGroup
300

 70
     3
 71
     0
  0
GROUP
  5
62AA
102
{ACAD_REACTORS
330
18
102
}
330
18
100
AcDbGroup
300

 70
     3
 71
     0
  0
GROUP
  5
49D3
102
{ACAD_REACTORS
330
18
102
}
330
18
100
AcDbGroup
300

 70
     3
 71
     0
  0
GROUP
  5
4955
102
{ACAD_REACTORS
330
18
102
}
330
18
100
AcDbGroup
300

 70
     3
 71
     0
  0
GROUP
  5
1BE9
102
{ACAD_REACTORS
330
18
102
}
330
18
100
AcDbGroup
300

 70
     3
 71
     0
  0
GROUP
  5
49C7
102
{ACAD_REACTORS
330
18
102
}
330
18
100
AcDbGroup
300

 70
     3
 71
     0
  0
GROUP
  5
48AC
102
{ACAD_REACTORS
330
18
102
}
330
18
100
AcDbGroup
300

 70
     3
 71
     0
  0
GROUP
  5
6327
102
{ACAD_REACTORS
330
18
102
}
330
18
100
AcDbGroup
300

 70
     3
 71
     0
  0
GROUP
  5
4973
102
{ACAD_REACTORS
330
18
102
}
330
18
100
AcDbGroup
300

 70
     3
 71
     0
  0
GROUP
  5
1C08
102
{ACAD_REACTORS
330
18
102
}
330
18
100
AcDbGroup
300

 70
     3
 71
     0
  0
GROUP
  5
62F1
102
{ACAD_REACTORS
330
18
102
}
330
18
100
AcDbGroup
300

 70
     3
 71
     0
  0
GROUP
  5
1BBA
102
{ACAD_REACTORS
330
18
102
}
330
18
100
AcDbGroup
300

 70
     3
 71
     0
  0
GROUP
  5
484C
102
{ACAD_REACTORS
330
18
102
}
330
18
100
AcDbGroup
300

 70
     3
 71
     0
  0
GROUP
  5
1462
102
{ACAD_REACTORS
330
18
102
}
330
18
100
AcDbGroup
300

 70
     3
 71
     0
  0
GROUP
  5
1B13
102
{ACAD_REACTORS
330
18
102
}
330
18
100
AcDbGroup
300

 70
     3
 71
     0
  0
GROUP
  5
62C2
102
{ACAD_REACTORS
330
18
102
}
330
18
100
AcDbGroup
300

 70
     3
 71
     0
  0
GROUP
  5
1C46
102
{ACAD_REACTORS
330
18
102
}
330
18
100
AcDbGroup
300

 70
     3
 71
     0
  0
GROUP
  5
63AC
102
{ACAD_REACTORS
330
18
102
}
330
18
100
AcDbGroup
300

 70
     3
 71
     0
  0
GROUP
  5
62F5
102
{ACAD_REACTORS
330
18
102
}
330
18
100
AcDbGroup
300

 70
     3
 71
     0
  0
GROUP
  5
1BF9
102
{ACAD_REACTORS
330
18
102
}
330
18
100
AcDbGroup
300

 70
     3
 71
     0
  0
GROUP
  5
1466
102
{ACAD_REACTORS
330
18
102
}
330
18
100
AcDbGroup
300

 70
     3
 71
     0
  0
GROUP
  5
1B69
102
{ACAD_REACTORS
330
18
102
}
330
18
100
AcDbGroup
300

 70
     3
 71
     0
  0
GROUP
  5
48F2
102
{ACAD_REACTORS
330
18
102
}
330
18
100
AcDbGroup
300

 70
     3
 71
     0
  0
GROUP
  5
49DD
102
{ACAD_REACTORS
330
18
102
}
330
18
100
AcDbGroup
300

 70
     3
 71
     0
  0
GROUP
  5
4894
102
{ACAD_REACTORS
330
18
102
}
330
18
100
AcDbGroup
300

 70
     3
 71
     0
  0
GROUP
  5
1B75
102
{ACAD_REACTORS
330
18
102
}
330
18
100
AcDbGroup
300

 70
     3
 71
     0
  0
GROUP
  5
48E6
102
{ACAD_REACTORS
330
18
102
}
330
18
100
AcDbGroup
300

 70
     3
 71
     0
  0
GROUP
  5
1C2B
102
{ACAD_REACTORS
330
18
102
}
330
18
100
AcDbGroup
300

 70
     3
 71
     0
  0
GROUP
  5
629C
102
{ACAD_REACTORS
330
18
102
}
330
18
100
AcDbGroup
300

 70
     3
 71
     0
  0
GROUP
  5
1BC4
102
{ACAD_REACTORS
330
18
102
}
330
18
100
AcDbGroup
300

 70
     3
 71
     0
  0
GROUP
  5
63D2
102
{ACAD_REACTORS
330
18
102
}
330
18
100
AcDbGroup
300

 70
     3
 71
     0
  0
GROUP
  5
1C4D
102
{ACAD_REACTORS
330
18
102
}
330
18
100
AcDbGroup
300

 70
     3
 71
     0
  0
GROUP
  5
48F5
102
{ACAD_REACTORS
330
18
102
}
330
18
100
AcDbGroup
300

 70
     3
 71
     0
  0
GROUP
  5
4813
102
{ACAD_REACTORS
330
18
102
}
330
18
100
AcDbGroup
300

 70
     3
 71
     0
  0
GROUP
  5
63B6
102
{ACAD_REACTORS
330
18
102
}
330
18
100
AcDbGroup
300

 70
     3
 71
     0
  0
GROUP
  5
49EB
102
{ACAD_REACTORS
330
18
102
}
330
18
100
AcDbGroup
300

 70
     3
 71
     0
  0
GROUP
  5
37C0
102
{ACAD_REACTORS
330
18
102
}
330
18
100
AcDbGroup
300

 70
     3
 71
     0
  0
GROUP
  5
1BCC
102
{ACAD_REACTORS
330
18
102
}
330
18
100
AcDbGroup
300

 70
     3
 71
     0
  0
GROUP
  5
4A03
102
{ACAD_REACTORS
330
18
102
}
330
18
100
AcDbGroup
300

 70
     3
 71
     0
  0
GROUP
  5
48B7
102
{ACAD_REACTORS
330
18
102
}
330
18
100
AcDbGroup
300

 70
     3
 71
     0
  0
GROUP
  5
497D
102
{ACAD_REACTORS
330
18
102
}
330
18
100
AcDbGroup
300

 70
     3
 71
     0
  0
GROUP
  5
4912
102
{ACAD_REACTORS
330
18
102
}
330
18
100
AcDbGroup
300

 70
     3
 71
     0
  0
GROUP
  5
48FF
102
{ACAD_REACTORS
330
18
102
}
330
18
100
AcDbGroup
300

 70
     3
 71
     0
  0
GROUP
  5
630E
102
{ACAD_REACTORS
330
18
102
}
330
18
100
AcDbGroup
300

 70
     3
 71
     0
  0
GROUP
  5
6370
102
{ACAD_REACTORS
330
18
102
}
330
18
100
AcDbGroup
300

 70
     3
 71
     0
  0
GROUP
  5
622D
102
{ACAD_REACTORS
330
18
102
}
330
18
100
AcDbGroup
300

 70
     3
 71
     0
  0
GROUP
  5
4988
102
{ACAD_REACTORS
330
18
102
}
330
18
100
AcDbGroup
300

 70
     3
 71
     0
  0
GROUP
  5
62BE
102
{ACAD_REACTORS
330
18
102
}
330
18
100
AcDbGroup
300

 70
     3
 71
     0
  0
GROUP
  5
6241
102
{ACAD_REACTORS
330
18
102
}
330
18
100
AcDbGroup
300

 70
     3
 71
     0
  0
GROUP
  5
4958
102
{ACAD_REACTORS
330
18
102
}
330
18
100
AcDbGroup
300

 70
     3
 71
     0
  0
GROUP
  5
63EA
102
{ACAD_REACTORS
330
18
102
}
330
18
100
AcDbGroup
300

 70
     3
 71
     0
  0
GROUP
  5
1BDF
102
{ACAD_REACTORS
330
18
102
}
330
18
100
AcDbGroup
300

 70
     3
 71
     0
  0
GROUP
  5
6307
102
{ACAD_REACTORS
330
18
102
}
330
18
100
AcDbGroup
300

 70
     3
 71
     0
  0
GROUP
  5
4824
102
{ACAD_REACTORS
330
18
102
}
330
18
100
AcDbGroup
300

 70
     3
 71
     0
  0
GROUP
  5
49C9
102
{ACAD_REACTORS
330
18
102
}
330
18
100
AcDbGroup
300

 70
     3
 71
     0
  0
GROUP
  5
499B
102
{ACAD_REACTORS
330
18
102
}
330
18
100
AcDbGroup
300

 70
     3
 71
     0
  0
GROUP
  5
37A5
102
{ACAD_REACTORS
330
18
102
}
330
18
100
AcDbGroup
300

 70
     3
 71
     0
  0
GROUP
  5
6236
102
{ACAD_REACTORS
330
18
102
}
330
18
100
AcDbGroup
300

 70
     3
 71
     0
  0
GROUP
  5
6264
102
{ACAD_REACTORS
330
18
102
}
330
18
100
AcDbGroup
300

 70
     3
 71
     0
  0
GROUP
  5
37B5
102
{ACAD_REACTORS
330
18
102
}
330
18
100
AcDbGroup
300

 70
     3
 71
     0
  0
GROUP
  5
63C2
102
{ACAD_REACTORS
330
18
102
}
330
18
100
AcDbGroup
300

 70
     3
 71
     0
  0
GROUP
  5
4952
102
{ACAD_REACTORS
330
18
102
}
330
18
100
AcDbGroup
300

 70
     3
 71
     0
  0
GROUP
  5
49B1
102
{ACAD_REACTORS
330
18
102
}
330
18
100
AcDbGroup
300

 70
     3
 71
     0
  0
GROUP
  5
49A5
102
{ACAD_REACTORS
330
18
102
}
330
18
100
AcDbGroup
300

 70
     3
 71
     0
  0
GROUP
  5
1BD1
102
{ACAD_REACTORS
330
18
102
}
330
18
100
AcDbGroup
300

 70
     3
 71
     0
  0
GROUP
  5
1B99
102
{ACAD_REACTORS
330
18
102
}
330
18
100
AcDbGroup
300

 70
     3
 71
     0
  0
GROUP
  5
4993
102
{ACAD_REACTORS
330
18
102
}
330
18
100
AcDbGroup
300

 70
     3
 71
     0
  0
GROUP
  5
4948
102
{ACAD_REACTORS
330
18
102
}
330
18
100
AcDbGroup
300

 70
     3
 71
     0
  0
GROUP
  5
63FC
102
{ACAD_REACTORS
330
18
102
}
330
18
100
AcDbGroup
300

 70
     3
 71
     0
  0
GROUP
  5
4981
102
{ACAD_REACTORS
330
18
102
}
330
18
100
AcDbGroup
300

 70
     3
 71
     0
  0
GROUP
  5
4962
102
{ACAD_REACTORS
330
18
102
}
330
18
100
AcDbGroup
300

 70
     3
 71
     0
  0
GROUP
  5
4931
102
{ACAD_REACTORS
330
18
102
}
330
18
100
AcDbGroup
300

 70
     3
 71
     0
  0
GROUP
  5
4932
102
{ACAD_REACTORS
330
18
102
}
330
18
100
AcDbGroup
300

 70
     3
 71
     0
  0
GROUP
  5
1C23
102
{ACAD_REACTORS
330
18
102
}
330
18
100
AcDbGroup
300

 70
     3
 71
     0
  0
GROUP
  5
1BF6
102
{ACAD_REACTORS
330
18
102
}
330
18
100
AcDbGroup
300

 70
     3
 71
     0
  0
GROUP
  5
63A8
102
{ACAD_REACTORS
330
18
102
}
330
18
100
AcDbGroup
300

 70
     3
 71
     0
  0
GROUP
  5
63A5
102
{ACAD_REACTORS
330
18
102
}
330
18
100
AcDbGroup
300

 70
     3
 71
     0
  0
GROUP
  5
379B
102
{ACAD_REACTORS
330
18
102
}
330
18
100
AcDbGroup
300

 70
     3
 71
     0
  0
GROUP
  5
62A5
102
{ACAD_REACTORS
330
18
102
}
330
18
100
AcDbGroup
300

 70
     3
 71
     0
  0
GROUP
  5
1B79
102
{ACAD_REACTORS
330
18
102
}
330
18
100
AcDbGroup
300

 70
     3
 71
     0
  0
GROUP
  5
4880
102
{ACAD_REACTORS
330
18
102
}
330
18
100
AcDbGroup
300

 70
     3
 71
     0
  0
GROUP
  5
1B8C
102
{ACAD_REACTORS
330
18
102
}
330
18
100
AcDbGroup
300

 70
     3
 71
     0
  0
GROUP
  5
49AB
102
{ACAD_REACTORS
330
18
102
}
330
18
100
AcDbGroup
300

 70
     3
 71
     0
  0
GROUP
  5
1B72
102
{ACAD_REACTORS
330
18
102
}
330
18
100
AcDbGroup
300

 70
     3
 71
     0
  0
GROUP
  5
621A
102
{ACAD_REACTORS
330
18
102
}
330
18
100
AcDbGroup
300

 70
     3
 71
     0
  0
GROUP
  5
1BDE
102
{ACAD_REACTORS
330
18
102
}
330
18
100
AcDbGroup
300

 70
     3
 71
     0
  0
GROUP
  5
48EC
102
{ACAD_REACTORS
330
18
102
}
330
18
100
AcDbGroup
300

 70
     3
 71
     0
  0
GROUP
  5
638A
102
{ACAD_REACTORS
330
18
102
}
330
18
100
AcDbGroup
300

 70
     3
 71
     0
  0
GROUP
  5
4890
102
{ACAD_REACTORS
330
18
102
}
330
18
100
AcDbGroup
300

 70
     3
 71
     0
  0
GROUP
  5
1BFB
102
{ACAD_REACTORS
330
18
102
}
330
18
100
AcDbGroup
300

 70
     3
 71
     0
  0
GROUP
  5
497B
102
{ACAD_REACTORS
330
18
102
}
330
18
100
AcDbGroup
300

 70
     3
 71
     0
  0
GROUP
  5
62D3
102
{ACAD_REACTORS
330
18
102
}
330
18
100
AcDbGroup
300

 70
     3
 71
     1
  0
GROUP
  5
6233
102
{ACAD_REACTORS
330
18
102
}
330
18
100
AcDbGroup
300

 70
     3
 71
     0
  0
GROUP
  5
1BB7
102
{ACAD_REACTORS
330
18
102
}
330
18
100
AcDbGroup
300

 70
     3
 71
     0
  0
GROUP
  5
1C01
102
{ACAD_REACTORS
330
18
102
}
330
18
100
AcDbGroup
300

 70
     3
 71
     0
  0
GROUP
  5
62AE
102
{ACAD_REACTORS
330
18
102
}
330
18
100
AcDbGroup
300

 70
     3
 71
     0
  0
GROUP
  5
48E0
102
{ACAD_REACTORS
330
18
102
}
330
18
100
AcDbGroup
300

 70
     3
 71
     0
  0
GROUP
  5
633E
102
{ACAD_REACTORS
330
18
102
}
330
18
100
AcDbGroup
300

 70
     3
 71
     0
  0
GROUP
  5
63D9
102
{ACAD_REACTORS
330
18
102
}
330
18
100
AcDbGroup
300

 70
     3
 71
     0
  0
GROUP
  5
48B5
102
{ACAD_REACTORS
330
18
102
}
330
18
100
AcDbGroup
300

 70
     3
 71
     0
  0
GROUP
  5
4964
102
{ACAD_REACTORS
330
18
102
}
330
18
100
AcDbGroup
300

 70
     3
 71
     0
  0
GROUP
  5
4884
102
{ACAD_REACTORS
330
18
102
}
330
18
100
AcDbGroup
300

 70
     3
 71
     0
  0
GROUP
  5
1B41
102
{ACAD_REACTORS
330
18
102
}
330
18
100
AcDbGroup
300

 70
     3
 71
     0
  0
GROUP
  5
1BB2
102
{ACAD_REACTORS
330
18
102
}
330
18
100
AcDbGroup
300

 70
     3
 71
     0
  0
GROUP
  5
49CB
102
{ACAD_REACTORS
330
18
102
}
330
18
100
AcDbGroup
300

 70
     3
 71
     0
  0
GROUP
  5
145B
102
{ACAD_REACTORS
330
18
102
}
330
18
100
AcDbGroup
300

 70
     3
 71
     0
  0
GROUP
  5
1AE5
102
{ACAD_REACTORS
330
18
102
}
330
18
100
AcDbGroup
300

 70
     3
 71
     0
  0
GROUP
  5
4950
102
{ACAD_REACTORS
330
18
102
}
330
18
100
AcDbGroup
300

 70
     3
 71
     0
  0
GROUP
  5
1B5F
102
{ACAD_REACTORS
330
18
102
}
330
18
100
AcDbGroup
300

 70
     3
 71
     0
  0
GROUP
  5
1C05
102
{ACAD_REACTORS
330
18
102
}
330
18
100
AcDbGroup
300

 70
     3
 71
     0
  0
GROUP
  5
1C4E
102
{ACAD_REACTORS
330
18
102
}
330
18
100
AcDbGroup
300

 70
     3
 71
     0
  0
GROUP
  5
49B9
102
{ACAD_REACTORS
330
18
102
}
330
18
100
AcDbGroup
300

 70
     3
 71
     0
  0
GROUP
  5
63E3
102
{ACAD_REACTORS
330
18
102
}
330
18
100
AcDbGroup
300

 70
     3
 71
     0
  0
GROUP
  5
1BF3
102
{ACAD_REACTORS
330
18
102
}
330
18
100
AcDbGroup
300

 70
     3
 71
     0
  0
GROUP
  5
1C35
102
{ACAD_REACTORS
330
18
102
}
330
18
100
AcDbGroup
300

 70
     3
 71
     0
  0
GROUP
  5
4946
102
{ACAD_REACTORS
330
18
102
}
330
18
100
AcDbGroup
300

 70
     3
 71
     0
  0
GROUP
  5
62C3
102
{ACAD_REACTORS
330
18
102
}
330
18
100
AcDbGroup
300

 70
     3
 71
     0
  0
GROUP
  5
6219
102
{ACAD_REACTORS
330
18
102
}
330
18
100
AcDbGroup
300

 70
     3
 71
     0
  0
GROUP
  5
631E
102
{ACAD_REACTORS
330
18
102
}
330
18
100
AcDbGroup
300

 70
     3
 71
     0
  0
GROUP
  5
4A01
102
{ACAD_REACTORS
330
18
102
}
330
18
100
AcDbGroup
300

 70
     3
 71
     0
  0
GROUP
  5
4847
102
{ACAD_REACTORS
330
18
102
}
330
18
100
AcDbGroup
300

 70
     3
 71
     0
  0
GROUP
  5
37A9
102
{ACAD_REACTORS
330
18
102
}
330
18
100
AcDbGroup
300

 70
     3
 71
     0
  0
GROUP
  5
6395
102
{ACAD_REACTORS
330
18
102
}
330
18
100
AcDbGroup
300

 70
     3
 71
     0
  0
GROUP
  5
1B24
102
{ACAD_REACTORS
330
18
102
}
330
18
100
AcDbGroup
300

 70
     3
 71
     0
  0
GROUP
  5
49EA
102
{ACAD_REACTORS
330
18
102
}
330
18
100
AcDbGroup
300

 70
     3
 71
     0
  0
GROUP
  5
497C
102
{ACAD_REACTORS
330
18
102
}
330
18
100
AcDbGroup
300

 70
     3
 71
     0
  0
GROUP
  5
63B7
102
{ACAD_REACTORS
330
18
102
}
330
18
100
AcDbGroup
300

 70
     3
 71
     0
  0
GROUP
  5
1B12
102
{ACAD_REACTORS
330
18
102
}
330
18
100
AcDbGroup
300

 70
     3
 71
     0
  0
GROUP
  5
37B7
102
{ACAD_REACTORS
330
18
102
}
330
18
100
AcDbGroup
300

 70
     3
 71
     0
  0
GROUP
  5
638C
102
{ACAD_REACTORS
330
18
102
}
330
18
100
AcDbGroup
300

 70
     3
 71
     0
  0
GROUP
  5
6362
102
{ACAD_REACTORS
330
18
102
}
330
18
100
AcDbGroup
300

 70
     3
 71
     0
  0
GROUP
  5
62C0
102
{ACAD_REACTORS
330
18
102
}
330
18
100
AcDbGroup
300

 70
     3
 71
     0
  0
GROUP
  5
1C3F
102
{ACAD_REACTORS
330
18
102
}
330
18
100
AcDbGroup
300

 70
     3
 71
     0
  0
GROUP
  5
1B07
102
{ACAD_REACTORS
330
18
102
}
330
18
100
AcDbGroup
300

 70
     3
 71
     0
  0
GROUP
  5
636B
102
{ACAD_REACTORS
330
18
102
}
330
18
100
AcDbGroup
300

 70
     3
 71
     0
  0
GROUP
  5
1B51
102
{ACAD_REACTORS
330
18
102
}
330
18
100
AcDbGroup
300

 70
     3
 71
     0
  0
GROUP
  5
4967
102
{ACAD_REACTORS
330
18
102
}
330
18
100
AcDbGroup
300

 70
     3
 71
     0
  0
GROUP
  5
482C
102
{ACAD_REACTORS
330
18
102
}
330
18
100
AcDbGroup
300

 70
     3
 71
     0
  0
GROUP
  5
634D
102
{ACAD_REACTORS
330
18
102
}
330
18
100
AcDbGroup
300

 70
     3
 71
     0
  0
GROUP
  5
49BC
102
{ACAD_REACTORS
330
18
102
}
330
18
100
AcDbGroup
300

 70
     3
 71
     0
  0
GROUP
  5
49A9
102
{ACAD_REACTORS
330
18
102
}
330
18
100
AcDbGroup
300

 70
     3
 71
     0
  0
GROUP
  5
6359
102
{ACAD_REACTORS
330
18
102
}
330
18
100
AcDbGroup
300

 70
     3
 71
     0
  0
GROUP
  5
4926
102
{ACAD_REACTORS
330
18
102
}
330
18
100
AcDbGroup
300

 70
     3
 71
     0
  0
GROUP
  5
1ACF
102
{ACAD_REACTORS
330
18
102
}
330
18
100
AcDbGroup
300

 70
     3
 71
     0
  0
GROUP
  5
1B09
102
{ACAD_REACTORS
330
18
102
}
330
18
100
AcDbGroup
300

 70
     3
 71
     0
  0
GROUP
  5
634E
102
{ACAD_REACTORS
330
18
102
}
330
18
100
AcDbGroup
300

 70
     3
 71
     0
  0
GROUP
  5
4872
102
{ACAD_REACTORS
330
18
102
}
330
18
100
AcDbGroup
300

 70
     3
 71
     0
  0
GROUP
  5
6404
102
{ACAD_REACTORS
330
18
102
}
330
18
100
AcDbGroup
300

 70
     3
 71
     0
  0
GROUP
  5
1B6A
102
{ACAD_REACTORS
330
18
102
}
330
18
100
AcDbGroup
300

 70
     3
 71
     0
  0
GROUP
  5
63FA
102
{ACAD_REACTORS
330
18
102
}
330
18
100
AcDbGroup
300

 70
     3
 71
     0
  0
GROUP
  5
63F8
102
{ACAD_REACTORS
330
18
102
}
330
18
100
AcDbGroup
300

 70
     3
 71
     0
  0
GROUP
  5
1B8D
102
{ACAD_REACTORS
330
18
102
}
330
18
100
AcDbGroup
300

 70
     3
 71
     0
  0
GROUP
  5
6357
102
{ACAD_REACTORS
330
18
102
}
330
18
100
AcDbGroup
300

 70
     3
 71
     0
  0
GROUP
  5
1B03
102
{ACAD_REACTORS
330
18
102
}
330
18
100
AcDbGroup
300

 70
     3
 71
     0
  0
GROUP
  5
6224
102
{ACAD_REACTORS
330
18
102
}
330
18
100
AcDbGroup
300

 70
     3
 71
     0
  0
GROUP
  5
1C24
102
{ACAD_REACTORS
330
18
102
}
330
18
100
AcDbGroup
300

 70
     3
 71
     0
  0
GROUP
  5
1C07
102
{ACAD_REACTORS
330
18
102
}
330
18
100
AcDbGroup
300

 70
     3
 71
     0
  0
GROUP
  5
6417
102
{ACAD_REACTORS
330
18
102
}
330
18
100
AcDbGroup
300

 70
     3
 71
     0
  0
GROUP
  5
1B53
102
{ACAD_REACTORS
330
18
102
}
330
18
100
AcDbGroup
300

 70
     3
 71
     0
  0
GROUP
  5
486F
102
{ACAD_REACTORS
330
18
102
}
330
18
100
AcDbGroup
300

 70
     3
 71
     0
  0
GROUP
  5
1BBE
102
{ACAD_REACTORS
330
18
102
}
330
18
100
AcDbGroup
300

 70
     3
 71
     0
  0
GROUP
  5
62ED
102
{ACAD_REACTORS
330
18
102
}
330
18
100
AcDbGroup
300

 70
     3
 71
     0
  0
GROUP
  5
62B9
102
{ACAD_REACTORS
330
18
102
}
330
18
100
AcDbGroup
300

 70
     3
 71
     0
  0
GROUP
  5
49E6
102
{ACAD_REACTORS
330
18
102
}
330
18
100
AcDbGroup
300

 70
     3
 71
     0
  0
GROUP
  5
632B
102
{ACAD_REACTORS
330
18
102
}
330
18
100
AcDbGroup
300

 70
     3
 71
     0
  0
GROUP
  5
6406
102
{ACAD_REACTORS
330
18
102
}
330
18
100
AcDbGroup
300

 70
     3
 71
     0
  0
GROUP
  5
6240
102
{ACAD_REACTORS
330
18
102
}
330
18
100
AcDbGroup
300

 70
     3
 71
     0
  0
GROUP
  5
482E
102
{ACAD_REACTORS
330
18
102
}
330
18
100
AcDbGroup
300

 70
     3
 71
     0
  0
GROUP
  5
48E4
102
{ACAD_REACTORS
330
18
102
}
330
18
100
AcDbGroup
300

 70
     3
 71
     0
  0
GROUP
  5
4811
102
{ACAD_REACTORS
330
18
102
}
330
18
100
AcDbGroup
300

 70
     3
 71
     0
  0
GROUP
  5
1C18
102
{ACAD_REACTORS
330
18
102
}
330
18
100
AcDbGroup
300

 70
     3
 71
     0
  0
GROUP
  5
623F
102
{ACAD_REACTORS
330
18
102
}
330
18
100
AcDbGroup
300

 70
     3
 71
     0
  0
GROUP
  5
49D2
102
{ACAD_REACTORS
330
18
102
}
330
18
100
AcDbGroup
300

 70
     3
 71
     0
  0
GROUP
  5
4903
102
{ACAD_REACTORS
330
18
102
}
330
18
100
AcDbGroup
300

 70
     3
 71
     0
  0
GROUP
  5
63CB
102
{ACAD_REACTORS
330
18
102
}
330
18
100
AcDbGroup
300

 70
     3
 71
     0
  0
GROUP
  5
1BD8
102
{ACAD_REACTORS
330
18
102
}
330
18
100
AcDbGroup
300

 70
     3
 71
     0
  0
GROUP
  5
6393
102
{ACAD_REACTORS
330
18
102
}
330
18
100
AcDbGroup
300

 70
     3
 71
     0
  0
GROUP
  5
6383
102
{ACAD_REACTORS
330
18
102
}
330
18
100
AcDbGroup
300

 70
     3
 71
     0
  0
GROUP
  5
63E5
102
{ACAD_REACTORS
330
18
102
}
330
18
100
AcDbGroup
300

 70
     3
 71
     0
  0
GROUP
  5
6277
102
{ACAD_REACTORS
330
18
102
}
330
18
100
AcDbGroup
300

 70
     3
 71
     0
  0
GROUP
  5
1BB8
102
{ACAD_REACTORS
330
18
102
}
330
18
100
AcDbGroup
300

 70
     3
 71
     0
  0
GROUP
  5
489F
102
{ACAD_REACTORS
330
18
102
}
330
18
100
AcDbGroup
300

 70
     3
 71
     0
  0
GROUP
  5
49CA
102
{ACAD_REACTORS
330
18
102
}
330
18
100
AcDbGroup
300

 70
     3
 71
     0
  0
GROUP
  5
1B58
102
{ACAD_REACTORS
330
18
102
}
330
18
100
AcDbGroup
300

 70
     3
 71
     0
  0
GROUP
  5
62EE
102
{ACAD_REACTORS
330
18
102
}
330
18
100
AcDbGroup
300

 70
     3
 71
     0
  0
GROUP
  5
63E7
102
{ACAD_REACTORS
330
18
102
}
330
18
100
AcDbGroup
300

 70
     3
 71
     0
  0
GROUP
  5
48D3
102
{ACAD_REACTORS
330
18
102
}
330
18
100
AcDbGroup
300

 70
     3
 71
     0
  0
GROUP
  5
4905
102
{ACAD_REACTORS
330
18
102
}
330
18
100
AcDbGroup
300

 70
     3
 71
     0
  0
GROUP
  5
6415
102
{ACAD_REACTORS
330
18
102
}
330
18
100
AcDbGroup
300

 70
     3
 71
     0
  0
GROUP
  5
48DC
102
{ACAD_REACTORS
330
18
102
}
330
18
100
AcDbGroup
300

 70
     3
 71
     0
  0
GROUP
  5
379A
102
{ACAD_REACTORS
330
18
102
}
330
18
100
AcDbGroup
300

 70
     3
 71
     0
  0
GROUP
  5
49FA
102
{ACAD_REACTORS
330
18
102
}
330
18
100
AcDbGroup
300

 70
     3
 71
     0
  0
GROUP
  5
37AC
102
{ACAD_REACTORS
330
18
102
}
330
18
100
AcDbGroup
300

 70
     3
 71
     0
  0
GROUP
  5
49A6
102
{ACAD_REACTORS
330
18
102
}
330
18
100
AcDbGroup
300

 70
     3
 71
     0
  0
GROUP
  5
636F
102
{ACAD_REACTORS
330
18
102
}
330
18
100
AcDbGroup
300

 70
     3
 71
     0
  0
GROUP
  5
1B7D
102
{ACAD_REACTORS
330
18
102
}
330
18
100
AcDbGroup
300

 70
     3
 71
     0
  0
GROUP
  5
4882
102
{ACAD_REACTORS
330
18
102
}
330
18
100
AcDbGroup
300

 70
     3
 71
     0
  0
GROUP
  5
637C
102
{ACAD_REACTORS
330
18
102
}
330
18
100
AcDbGroup
300

 70
     3
 71
     0
  0
GROUP
  5
4957
102
{ACAD_REACTORS
330
18
102
}
330
18
100
AcDbGroup
300

 70
     3
 71
     0
  0
GROUP
  5
49B7
102
{ACAD_REACTORS
330
18
102
}
330
18
100
AcDbGroup
300

 70
     3
 71
     0
  0
GROUP
  5
49BA
102
{ACAD_REACTORS
330
18
102
}
330
18
100
AcDbGroup
300

 70
     3
 71
     0
  0
GROUP
  5
1BCD
102
{ACAD_REACTORS
330
18
102
}
330
18
100
AcDbGroup
300

 70
     3
 71
     0
  0
GROUP
  5
6223
102
{ACAD_REACTORS
330
18
102
}
330
18
100
AcDbGroup
300

 70
     3
 71
     0
  0
GROUP
  5
4A08
102
{ACAD_REACTORS
330
18
102
}
330
18
100
AcDbGroup
300

 70
     3
 71
     0
  0
GROUP
  5
1BEC
102
{ACAD_REACTORS
330
18
102
}
330
18
100
AcDbGroup
300

 70
     3
 71
     0
  0
GROUP
  5
488B
102
{ACAD_REACTORS
330
18
102
}
330
18
100
AcDbGroup
300

 70
     3
 71
     0
  0
GROUP
  5
1ACD
102
{ACAD_REACTORS
330
18
102
}
330
18
100
AcDbGroup
300

 70
     3
 71
     0
  0
GROUP
  5
4999
102
{ACAD_REACTORS
330
18
102
}
330
18
100
AcDbGroup
300

 70
     3
 71
     0
  0
GROUP
  5
629A
102
{ACAD_REACTORS
330
18
102
}
330
18
100
AcDbGroup
300

 70
     3
 71
     0
  0
GROUP
  5
6222
102
{ACAD_REACTORS
330
18
102
}
330
18
100
AcDbGroup
300

 70
     3
 71
     0
  0
GROUP
  5
6218
102
{ACAD_REACTORS
330
18
102
}
330
18
100
AcDbGroup
300

 70
     3
 71
     0
  0
GROUP
  5
4915
102
{ACAD_REACTORS
330
18
102
}
330
18
100
AcDbGroup
300

 70
     3
 71
     0
  0
GROUP
  5
491A
102
{ACAD_REACTORS
330
18
102
}
330
18
100
AcDbGroup
300

 70
     3
 71
     0
  0
GROUP
  5
48FE
102
{ACAD_REACTORS
330
18
102
}
330
18
100
AcDbGroup
300

 70
     3
 71
     0
  0
GROUP
  5
1C29
102
{ACAD_REACTORS
330
18
102
}
330
18
100
AcDbGroup
300

 70
     3
 71
     0
  0
GROUP
  5
1BF8
102
{ACAD_REACTORS
330
18
102
}
330
18
100
AcDbGroup
300

 70
     3
 71
     0
  0
GROUP
  5
624F
102
{ACAD_REACTORS
330
18
102
}
330
18
100
AcDbGroup
300

 70
     3
 71
     0
  0
GROUP
  5
1AF2
102
{ACAD_REACTORS
330
18
102
}
330
18
100
AcDbGroup
300

 70
     3
 71
     0
  0
GROUP
  5
48B2
102
{ACAD_REACTORS
330
18
102
}
330
18
100
AcDbGroup
300

 70
     3
 71
     0
  0
GROUP
  5
63D7
102
{ACAD_REACTORS
330
18
102
}
330
18
100
AcDbGroup
300

 70
     3
 71
     0
  0
GROUP
  5
6216
102
{ACAD_REACTORS
330
18
102
}
330
18
100
AcDbGroup
300

 70
     3
 71
     0
  0
GROUP
  5
1B37
102
{ACAD_REACTORS
330
18
102
}
330
18
100
AcDbGroup
300

 70
     3
 71
     0
  0
GROUP
  5
4986
102
{ACAD_REACTORS
330
18
102
}
330
18
100
AcDbGroup
300

 70
     3
 71
     0
  0
GROUP
  5
1B54
102
{ACAD_REACTORS
330
18
102
}
330
18
100
AcDbGroup
300

 70
     3
 71
     0
  0
GROUP
  5
4821
102
{ACAD_REACTORS
330
18
102
}
330
18
100
AcDbGroup
300

 70
     3
 71
     0
  0
GROUP
  5
37A1
102
{ACAD_REACTORS
330
18
102
}
330
18
100
AcDbGroup
300

 70
     3
 71
     0
  0
GROUP
  5
6378
102
{ACAD_REACTORS
330
18
102
}
330
18
100
AcDbGroup
300

 70
     3
 71
     0
  0
GROUP
  5
1B34
102
{ACAD_REACTORS
330
18
102
}
330
18
100
AcDbGroup
300

 70
     3
 71
     0
  0
GROUP
  5
1B8E
102
{ACAD_REACTORS
330
18
102
}
330
18
100
AcDbGroup
300

 70
     3
 71
     0
  0
GROUP
  5
1B49
102
{ACAD_REACTORS
330
18
102
}
330
18
100
AcDbGroup
300

 70
     3
 71
     0
  0
GROUP
  5
1B9D
102
{ACAD_REACTORS
330
18
102
}
330
18
100
AcDbGroup
300

 70
     3
 71
     0
  0
GROUP
  5
4893
102
{ACAD_REACTORS
330
18
102
}
330
18
100
AcDbGroup
300

 70
     3
 71
     0
  0
GROUP
  5
63BF
102
{ACAD_REACTORS
330
18
102
}
330
18
100
AcDbGroup
300

 70
     3
 71
     0
  0
GROUP
  5
6364
102
{ACAD_REACTORS
330
18
102
}
330
18
100
AcDbGroup
300

 70
     3
 71
     0
  0
GROUP
  5
623D
102
{ACAD_REACTORS
330
18
102
}
330
18
100
AcDbGroup
300

 70
     3
 71
     0
  0
GROUP
  5
627C
102
{ACAD_REACTORS
330
18
102
}
330
18
100
AcDbGroup
300

 70
     3
 71
     0
  0
GROUP
  5
4839
102
{ACAD_REACTORS
330
18
102
}
330
18
100
AcDbGroup
300

 70
     3
 71
     0
  0
GROUP
  5
1B36
102
{ACAD_REACTORS
330
18
102
}
330
18
100
AcDbGroup
300

 70
     3
 71
     0
  0
GROUP
  5
62A9
102
{ACAD_REACTORS
330
18
102
}
330
18
100
AcDbGroup
300

 70
     3
 71
     0
  0
GROUP
  5
1454
102
{ACAD_REACTORS
330
18
102
}
330
18
100
AcDbGroup
300

 70
     3
 71
     0
  0
GROUP
  5
62BF
102
{ACAD_REACTORS
330
18
102
}
330
18
100
AcDbGroup
300

 70
     3
 71
     0
  0
GROUP
  5
4830
102
{ACAD_REACTORS
330
18
102
}
330
18
100
AcDbGroup
300

 70
     3
 71
     0
  0
GROUP
  5
63C7
102
{ACAD_REACTORS
330
18
102
}
330
18
100
AcDbGroup
300

 70
     3
 71
     0
  0
GROUP
  5
4944
102
{ACAD_REACTORS
330
18
102
}
330
18
100
AcDbGroup
300

 70
     3
 71
     0
  0
GROUP
  5
6263
102
{ACAD_REACTORS
330
18
102
}
330
18
100
AcDbGroup
300

 70
     3
 71
     0
  0
GROUP
  5
1B65
102
{ACAD_REACTORS
330
18
102
}
330
18
100
AcDbGroup
300

 70
     3
 71
     0
  0
GROUP
  5
1BD7
102
{ACAD_REACTORS
330
18
102
}
330
18
100
AcDbGroup
300

 70
     3
 71
     0
  0
GROUP
  5
49FF
102
{ACAD_REACTORS
330
18
102
}
330
18
100
AcDbGroup
300

 70
     3
 71
     0
  0
GROUP
  5
49F3
102
{ACAD_REACTORS
330
18
102
}
330
18
100
AcDbGroup
300

 70
     3
 71
     0
  0
GROUP
  5
1AF6
102
{ACAD_REACTORS
330
18
102
}
330
18
100
AcDbGroup
300

 70
     3
 71
     0
  0
GROUP
  5
1C0D
102
{ACAD_REACTORS
330
18
102
}
330
18
100
AcDbGroup
300

 70
     3
 71
     0
  0
GROUP
  5
480C
102
{ACAD_REACTORS
330
18
102
}
330
18
100
AcDbGroup
300

 70
     3
 71
     0
  0
GROUP
  5
49E5
102
{ACAD_REACTORS
330
18
102
}
330
18
100
AcDbGroup
300

 70
     3
 71
     0
  0
GROUP
  5
4825
102
{ACAD_REACTORS
330
18
102
}
330
18
100
AcDbGroup
300

 70
     3
 71
     0
  0
GROUP
  5
1C10
102
{ACAD_REACTORS
330
18
102
}
330
18
100
AcDbGroup
300

 70
     3
 71
     0
  0
GROUP
  5
1BDC
102
{ACAD_REACTORS
330
18
102
}
330
18
100
AcDbGroup
300

 70
     3
 71
     0
  0
GROUP
  5
37B4
102
{ACAD_REACTORS
330
18
102
}
330
18
100
AcDbGroup
300

 70
     3
 71
     0
  0
GROUP
  5
1B57
102
{ACAD_REACTORS
330
18
102
}
330
18
100
AcDbGroup
300

 70
     3
 71
     0
  0
GROUP
  5
4A09
102
{ACAD_REACTORS
330
18
102
}
330
18
100
AcDbGroup
300

 70
     3
 71
     0
  0
GROUP
  5
1C3E
102
{ACAD_REACTORS
330
18
102
}
330
18
100
AcDbGroup
300

 70
     3
 71
     0
  0
GROUP
  5
1C4F
102
{ACAD_REACTORS
330
18
102
}
330
18
100
AcDbGroup
300

 70
     3
 71
     0
  0
GROUP
  5
62FB
102
{ACAD_REACTORS
330
18
102
}
330
18
100
AcDbGroup
300

 70
     3
 71
     0
  0
GROUP
  5
627E
102
{ACAD_REACTORS
330
18
102
}
330
18
100
AcDbGroup
300

 70
     3
 71
     0
  0
GROUP
  5
6237
102
{ACAD_REACTORS
330
18
102
}
330
18
100
AcDbGroup
300

 70
     3
 71
     0
  0
GROUP
  5
1C1F
102
{ACAD_REACTORS
330
18
102
}
330
18
100
AcDbGroup
300

 70
     3
 71
     0
  0
GROUP
  5
6320
102
{ACAD_REACTORS
330
18
102
}
330
18
100
AcDbGroup
300

 70
     3
 71
     0
  0
GROUP
  5
631F
102
{ACAD_REACTORS
330
18
102
}
330
18
100
AcDbGroup
300

 70
     3
 71
     0
  0
GROUP
  5
379C
102
{ACAD_REACTORS
330
18
102
}
330
18
100
AcDbGroup
300

 70
     3
 71
     0
  0
GROUP
  5
1B46
102
{ACAD_REACTORS
330
18
102
}
330
18
100
AcDbGroup
300

 70
     3
 71
     0
  0
GROUP
  5
1C04
102
{ACAD_REACTORS
330
18
102
}
330
18
100
AcDbGroup
300

 70
     3
 71
     0
  0
GROUP
  5
63AB
102
{ACAD_REACTORS
330
18
102
}
330
18
100
AcDbGroup
300

 70
     3
 71
     0
  0
GROUP
  5
49C5
102
{ACAD_REACTORS
330
18
102
}
330
18
100
AcDbGroup
300

 70
     3
 71
     0
  0
GROUP
  5
1B6B
102
{ACAD_REACTORS
330
18
102
}
330
18
100
AcDbGroup
300

 70
     3
 71
     0
  0
GROUP
  5
495F
102
{ACAD_REACTORS
330
18
102
}
330
18
100
AcDbGroup
300

 70
     3
 71
     0
  0
GROUP
  5
1AFB
102
{ACAD_REACTORS
330
18
102
}
330
18
100
AcDbGroup
300

 70
     3
 71
     0
  0
GROUP
  5
1ADC
102
{ACAD_REACTORS
330
18
102
}
330
18
100
AcDbGroup
300

 70
     3
 71
     0
  0
GROUP
  5
1B97
102
{ACAD_REACTORS
330
18
102
}
330
18
100
AcDbGroup
300

 70
     3
 71
     0
  0
GROUP
  5
624B
102
{ACAD_REACTORS
330
18
102
}
330
18
100
AcDbGroup
300

 70
     3
 71
     0
  0
GROUP
  5
4A19
102
{ACAD_REACTORS
330
18
102
}
330
18
100
AcDbGroup
300

 70
     3
 71
     0
  0
GROUP
  5
4818
102
{ACAD_REACTORS
330
18
102
}
330
18
100
AcDbGroup
300

 70
     3
 71
     0
  0
GROUP
  5
63A6
102
{ACAD_REACTORS
330
18
102
}
330
18
100
AcDbGroup
300

 70
     3
 71
     0
  0
GROUP
  5
4910
102
{ACAD_REACTORS
330
18
102
}
330
18
100
AcDbGroup
300

 70
     3
 71
     0
  0
GROUP
  5
6389
102
{ACAD_REACTORS
330
18
102
}
330
18
100
AcDbGroup
300

 70
     3
 71
     0
  0
GROUP
  5
145C
102
{ACAD_REACTORS
330
18
102
}
330
18
100
AcDbGroup
300

 70
     3
 71
     0
  0
GROUP
  5
1B44
102
{ACAD_REACTORS
330
18
102
}
330
18
100
AcDbGroup
300

 70
     3
 71
     0
  0
GROUP
  5
490E
102
{ACAD_REACTORS
330
18
102
}
330
18
100
AcDbGroup
300

 70
     3
 71
     0
  0
GROUP
  5
1C40
102
{ACAD_REACTORS
330
18
102
}
330
18
100
AcDbGroup
300

 70
     3
 71
     0
  0
GROUP
  5
1C33
102
{ACAD_REACTORS
330
18
102
}
330
18
100
AcDbGroup
300

 70
     3
 71
     0
  0
GROUP
  5
1C0F
102
{ACAD_REACTORS
330
18
102
}
330
18
100
AcDbGroup
300

 70
     3
 71
     0
  0
GROUP
  5
48CD
102
{ACAD_REACTORS
330
18
102
}
330
18
100
AcDbGroup
300

 70
     3
 71
     0
  0
GROUP
  5
6358
102
{ACAD_REACTORS
330
18
102
}
330
18
100
AcDbGroup
300

 70
     3
 71
     0
  0
GROUP
  5
1C2C
102
{ACAD_REACTORS
330
18
102
}
330
18
100
AcDbGroup
300

 70
     3
 71
     0
  0
GROUP
  5
49BF
102
{ACAD_REACTORS
330
18
102
}
330
18
100
AcDbGroup
300

 70
     3
 71
     0
  0
GROUP
  5
1BC3
102
{ACAD_REACTORS
330
18
102
}
330
18
100
AcDbGroup
300

 70
     3
 71
     0
  0
GROUP
  5
4838
102
{ACAD_REACTORS
330
18
102
}
330
18
100
AcDbGroup
300

 70
     3
 71
     0
  0
GROUP
  5
1B17
102
{ACAD_REACTORS
330
18
102
}
330
18
100
AcDbGroup
300

 70
     3
 71
     0
  0
GROUP
  5
1B71
102
{ACAD_REACTORS
330
18
102
}
330
18
100
AcDbGroup
300

 70
     3
 71
     0
  0
GROUP
  5
145D
102
{ACAD_REACTORS
330
18
102
}
330
18
100
AcDbGroup
300

 70
     3
 71
     0
  0
GROUP
  5
4820
102
{ACAD_REACTORS
330
18
102
}
330
18
100
AcDbGroup
300

 70
     3
 71
     0
  0
GROUP
  5
1C31
102
{ACAD_REACTORS
330
18
102
}
330
18
100
AcDbGroup
300

 70
     3
 71
     0
  0
GROUP
  5
6416
102
{ACAD_REACTORS
330
18
102
}
330
18
100
AcDbGroup
300

 70
     3
 71
     0
  0
GROUP
  5
62D6
102
{ACAD_REACTORS
330
18
102
}
330
18
100
AcDbGroup
300

 70
     3
 71
     0
  0
GROUP
  5
640E
102
{ACAD_REACTORS
330
18
102
}
330
18
100
AcDbGroup
300

 70
     3
 71
     0
  0
GROUP
  5
1B5A
102
{ACAD_REACTORS
330
18
102
}
330
18
100
AcDbGroup
300

 70
     3
 71
     0
  0
GROUP
  5
631B
102
{ACAD_REACTORS
330
18
102
}
330
18
100
AcDbGroup
300

 70
     3
 71
     0
  0
GROUP
  5
48F7
102
{ACAD_REACTORS
330
18
102
}
330
18
100
AcDbGroup
300

 70
     3
 71
     0
  0
GROUP
  5
1B40
102
{ACAD_REACTORS
330
18
102
}
330
18
100
AcDbGroup
300

 70
     3
 71
     0
  0
GROUP
  5
1C2E
102
{ACAD_REACTORS
330
18
102
}
330
18
100
AcDbGroup
300

 70
     3
 71
     0
  0
GROUP
  5
4885
102
{ACAD_REACTORS
330
18
102
}
330
18
100
AcDbGroup
300

 70
     3
 71
     0
  0
GROUP
  5
62D5
102
{ACAD_REACTORS
330
18
102
}
330
18
100
AcDbGroup
300

 70
     3
 71
     0
  0
GROUP
  5
6344
102
{ACAD_REACTORS
330
18
102
}
330
18
100
AcDbGroup
300

 70
     3
 71
     0
  0
GROUP
  5
486A
102
{ACAD_REACTORS
330
18
102
}
330
18
100
AcDbGroup
300

 70
     3
 71
     0
  0
GROUP
  5
1B3F
102
{ACAD_REACTORS
330
18
102
}
330
18
100
AcDbGroup
300

 70
     3
 71
     0
  0
GROUP
  5
628B
102
{ACAD_REACTORS
330
18
102
}
330
18
100
AcDbGroup
300

 70
     3
 71
     0
  0
GROUP
  5
494E
102
{ACAD_REACTORS
330
18
102
}
330
18
100
AcDbGroup
300

 70
     3
 71
     0
  0
GROUP
  5
6312
102
{ACAD_REACTORS
330
18
102
}
330
18
100
AcDbGroup
300

 70
     3
 71
     0
  0
GROUP
  5
48C7
102
{ACAD_REACTORS
330
18
102
}
330
18
100
AcDbGroup
300

 70
     3
 71
     1
  0
GROUP
  5
1BAC
102
{ACAD_REACTORS
330
18
102
}
330
18
100
AcDbGroup
300

 70
     3
 71
     0
  0
GROUP
  5
493B
102
{ACAD_REACTORS
330
18
102
}
330
18
100
AcDbGroup
300

 70
     3
 71
     0
  0
GROUP
  5
62A1
102
{ACAD_REACTORS
330
18
102
}
330
18
100
AcDbGroup
300

 70
     3
 71
     0
  0
GROUP
  5
1B11
102
{ACAD_REACTORS
330
18
102
}
330
18
100
AcDbGroup
300

 70
     3
 71
     0
  0
GROUP
  5
633F
102
{ACAD_REACTORS
330
18
102
}
330
18
100
AcDbGroup
300

 70
     3
 71
     0
  0
GROUP
  5
1464
102
{ACAD_REACTORS
330
18
102
}
330
18
100
AcDbGroup
300

 70
     3
 71
     0
  0
GROUP
  5
48EE
102
{ACAD_REACTORS
330
18
102
}
330
18
100
AcDbGroup
300

 70
     3
 71
     0
  0
GROUP
  5
4877
102
{ACAD_REACTORS
330
18
102
}
330
18
100
AcDbGroup
300

 70
     3
 71
     0
  0
GROUP
  5
49D0
102
{ACAD_REACTORS
330
18
102
}
330
18
100
AcDbGroup
300

 70
     3
 71
     0
  0
GROUP
  5
1B61
102
{ACAD_REACTORS
330
18
102
}
330
18
100
AcDbGroup
300

 70
     3
 71
     0
  0
GROUP
  5
63B8
102
{ACAD_REACTORS
330
18
102
}
330
18
100
AcDbGroup
300

 70
     3
 71
     0
  0
GROUP
  5
48DE
102
{ACAD_REACTORS
330
18
102
}
330
18
100
AcDbGroup
300

 70
     3
 71
     0
  0
GROUP
  5
492F
102
{ACAD_REACTORS
330
18
102
}
330
18
100
AcDbGroup
300

 70
     3
 71
     0
  0
GROUP
  5
145F
102
{ACAD_REACTORS
330
18
102
}
330
18
100
AcDbGroup
300

 70
     3
 71
     0
  0
GROUP
  5
63AA
102
{ACAD_REACTORS
330
18
102
}
330
18
100
AcDbGroup
300

 70
     3
 71
     0
  0
GROUP
  5
48E2
102
{ACAD_REACTORS
330
18
102
}
330
18
100
AcDbGroup
300

 70
     3
 71
     0
  0
GROUP
  5
48A1
102
{ACAD_REACTORS
330
18
102
}
330
18
100
AcDbGroup
300

 70
     3
 71
     0
  0
GROUP
  5
499F
102
{ACAD_REACTORS
330
18
102
}
330
18
100
AcDbGroup
300

 70
     3
 71
     0
  0
GROUP
  5
6388
102
{ACAD_REACTORS
330
18
102
}
330
18
100
AcDbGroup
300

 70
     3
 71
     0
  0
GROUP
  5
4860
102
{ACAD_REACTORS
330
18
102
}
330
18
100
AcDbGroup
300

 70
     3
 71
     0
  0
GROUP
  5
1BF1
102
{ACAD_REACTORS
330
18
102
}
330
18
100
AcDbGroup
300

 70
     3
 71
     0
  0
GROUP
  5
1468
102
{ACAD_REACTORS
330
18
102
}
330
18
100
AcDbGroup
300

 70
     3
 71
     0
  0
GROUP
  5
4828
102
{ACAD_REACTORS
330
18
102
}
330
18
100
AcDbGroup
300

 70
     3
 71
     0
  0
GROUP
  5
4938
102
{ACAD_REACTORS
330
18
102
}
330
18
100
AcDbGroup
300

 70
     3
 71
     0
  0
GROUP
  5
4940
102
{ACAD_REACTORS
330
18
102
}
330
18
100
AcDbGroup
300

 70
     3
 71
     0
  0
GROUP
  5
48D8
102
{ACAD_REACTORS
330
18
102
}
330
18
100
AcDbGroup
300

 70
     3
 71
     0
  0
GROUP
  5
63F1
102
{ACAD_REACTORS
330
18
102
}
330
18
100
AcDbGroup
300

 70
     3
 71
     0
  0
GROUP
  5
48ED
102
{ACAD_REACTORS
330
18
102
}
330
18
100
AcDbGroup
300

 70
     3
 71
     0
  0
GROUP
  5
1B15
102
{ACAD_REACTORS
330
18
102
}
330
18
100
AcDbGroup
300

 70
     3
 71
     0
  0
GROUP
  5
62BD
102
{ACAD_REACTORS
330
18
102
}
330
18
100
AcDbGroup
300

 70
     3
 71
     0
  0
GROUP
  5
1C2F
102
{ACAD_REACTORS
330
18
102
}
330
18
100
AcDbGroup
300

 70
     3
 71
     0
  0
GROUP
  5
1B7C
102
{ACAD_REACTORS
330
18
102
}
330
18
100
AcDbGroup
300

 70
     3
 71
     0
  0
GROUP
  5
1AE3
102
{ACAD_REACTORS
330
18
102
}
330
18
100
AcDbGroup
300

 70
     3
 71
     0
  0
GROUP
  5
636C
102
{ACAD_REACTORS
330
18
102
}
330
18
100
AcDbGroup
300

 70
     3
 71
     0
  0
GROUP
  5
4889
102
{ACAD_REACTORS
330
18
102
}
330
18
100
AcDbGroup
300

 70
     3
 71
     0
  0
GROUP
  5
63C4
102
{ACAD_REACTORS
330
18
102
}
330
18
100
AcDbGroup
300

 70
     3
 71
     0
  0
GROUP
  5
1B33
102
{ACAD_REACTORS
330
18
102
}
330
18
100
AcDbGroup
300

 70
     3
 71
     0
  0
GROUP
  5
629E
102
{ACAD_REACTORS
330
18
102
}
330
18
100
AcDbGroup
300

 70
     3
 71
     0
  0
GROUP
  5
623C
102
{ACAD_REACTORS
330
18
102
}
330
18
100
AcDbGroup
300

 70
     3
 71
     0
  0
GROUP
  5
484B
102
{ACAD_REACTORS
330
18
102
}
330
18
100
AcDbGroup
300

 70
     3
 71
     0
  0
GROUP
  5
1B76
102
{ACAD_REACTORS
330
18
102
}
330
18
100
AcDbGroup
300

 70
     3
 71
     0
  0
GROUP
  5
1BA1
102
{ACAD_REACTORS
330
18
102
}
330
18
100
AcDbGroup
300

 70
     3
 71
     0
  0
GROUP
  5
63DB
102
{ACAD_REACTORS
330
18
102
}
330
18
100
AcDbGroup
300

 70
     3
 71
     0
  0
GROUP
  5
4851
102
{ACAD_REACTORS
330
18
102
}
330
18
100
AcDbGroup
300

 70
     3
 71
     0
  0
GROUP
  5
62E2
102
{ACAD_REACTORS
330
18
102
}
330
18
100
AcDbGroup
300

 70
     3
 71
     0
  0
GROUP
  5
1AE4
102
{ACAD_REACTORS
330
18
102
}
330
18
100
AcDbGroup
300

 70
     3
 71
     0
  0
GROUP
  5
628D
102
{ACAD_REACTORS
330
18
102
}
330
18
100
AcDbGroup
300

 70
     3
 71
     0
  0
GROUP
  5
641E
102
{ACAD_REACTORS
330
18
102
}
330
18
100
AcDbGroup
300

 70
     3
 71
     0
  0
GROUP
  5
639B
102
{ACAD_REACTORS
330
18
102
}
330
18
100
AcDbGroup
300

 70
     3
 71
     0
  0
GROUP
  5
6259
102
{ACAD_REACTORS
330
18
102
}
330
18
100
AcDbGroup
300

 70
     3
 71
     0
  0
GROUP
  5
62BC
102
{ACAD_REACTORS
330
18
102
}
330
18
100
AcDbGroup
300

 70
     3
 71
     0
  0
GROUP
  5
4985
102
{ACAD_REACTORS
330
18
102
}
330
18
100
AcDbGroup
300

 70
     3
 71
     0
  0
GROUP
  5
495A
102
{ACAD_REACTORS
330
18
102
}
330
18
100
AcDbGroup
300

 70
     3
 71
     0
  0
GROUP
  5
48F3
102
{ACAD_REACTORS
330
18
102
}
330
18
100
AcDbGroup
300

 70
     3
 71
     0
  0
GROUP
  5
622E
102
{ACAD_REACTORS
330
18
102
}
330
18
100
AcDbGroup
300

 70
     3
 71
     0
  0
GROUP
  5
1B90
102
{ACAD_REACTORS
330
18
102
}
330
18
100
AcDbGroup
300

 70
     3
 71
     0
  0
GROUP
  5
4A0A
102
{ACAD_REACTORS
330
18
102
}
330
18
100
AcDbGroup
300

 70
     3
 71
     0
  0
GROUP
  5
632A
102
{ACAD_REACTORS
330
18
102
}
330
18
100
AcDbGroup
300

 70
     3
 71
     0
  0
GROUP
  5
1C06
102
{ACAD_REACTORS
330
18
102
}
330
18
100
AcDbGroup
300

 70
     3
 71
     0
  0
GROUP
  5
62EB
102
{ACAD_REACTORS
330
18
102
}
330
18
100
AcDbGroup
300

 70
     3
 71
     0
  0
GROUP
  5
1B21
102
{ACAD_REACTORS
330
18
102
}
330
18
100
AcDbGroup
300

 70
     3
 71
     0
  0
GROUP
  5
1BA4
102
{ACAD_REACTORS
330
18
102
}
330
18
100
AcDbGroup
300

 70
     3
 71
     0
  0
GROUP
  5
6366
102
{ACAD_REACTORS
330
18
102
}
330
18
100
AcDbGroup
300

 70
     3
 71
     0
  0
GROUP
  5
1C0B
102
{ACAD_REACTORS
330
18
102
}
330
18
100
AcDbGroup
300

 70
     3
 71
     0
  0
GROUP
  5
49A3
102
{ACAD_REACTORS
330
18
102
}
330
18
100
AcDbGroup
300

 70
     3
 71
     0
  0
GROUP
  5
1B0F
102
{ACAD_REACTORS
330
18
102
}
330
18
100
AcDbGroup
300

 70
     3
 71
     0
  0
GROUP
  5
1ADB
102
{ACAD_REACTORS
330
18
102
}
330
18
100
AcDbGroup
300

 70
     3
 71
     0
  0
GROUP
  5
494F
102
{ACAD_REACTORS
330
18
102
}
330
18
100
AcDbGroup
300

 70
     3
 71
     0
  0
GROUP
  5
6235
102
{ACAD_REACTORS
330
18
102
}
330
18
100
AcDbGroup
300

 70
     3
 71
     0
  0
GROUP
  5
48FD
102
{ACAD_REACTORS
330
18
102
}
330
18
100
AcDbGroup
300

 70
     3
 71
     0
  0
GROUP
  5
1B9B
102
{ACAD_REACTORS
330
18
102
}
330
18
100
AcDbGroup
300

 70
     3
 71
     0
  0
GROUP
  5
6380
102
{ACAD_REACTORS
330
18
102
}
330
18
100
AcDbGroup
300

 70
     3
 71
     0
  0
GROUP
  5
486D
102
{ACAD_REACTORS
330
18
102
}
330
18
100
AcDbGroup
300

 70
     3
 71
     0
  0
GROUP
  5
482A
102
{ACAD_REACTORS
330
18
102
}
330
18
100
AcDbGroup
300

 70
     3
 71
     0
  0
GROUP
  5
4835
102
{ACAD_REACTORS
330
18
102
}
330
18
100
AcDbGroup
300

 70
     3
 71
     0
  0
GROUP
  5
1C11
102
{ACAD_REACTORS
330
18
102
}
330
18
100
AcDbGroup
300

 70
     3
 71
     0
  0
GROUP
  5
483B
102
{ACAD_REACTORS
330
18
102
}
330
18
100
AcDbGroup
300

 70
     3
 71
     0
  0
GROUP
  5
4965
102
{ACAD_REACTORS
330
18
102
}
330
18
100
AcDbGroup
300

 70
     3
 71
     0
  0
GROUP
  5
4904
102
{ACAD_REACTORS
330
18
102
}
330
18
100
AcDbGroup
300

 70
     3
 71
     0
  0
GROUP
  5
1AEA
102
{ACAD_REACTORS
330
18
102
}
330
18
100
AcDbGroup
300

 70
     3
 71
     0
  0
GROUP
  5
1AD3
102
{ACAD_REACTORS
330
18
102
}
330
18
100
AcDbGroup
300

 70
     3
 71
     0
  0
GROUP
  5
6296
102
{ACAD_REACTORS
330
18
102
}
330
18
100
AcDbGroup
300

 70
     3
 71
     0
  0
GROUP
  5
6257
102
{ACAD_REACTORS
330
18
102
}
330
18
100
AcDbGroup
300

 70
     3
 71
     0
  0
GROUP
  5
1ACB
102
{ACAD_REACTORS
330
18
102
}
330
18
100
AcDbGroup
300

 70
     3
 71
     0
  0
GROUP
  5
1B05
102
{ACAD_REACTORS
330
18
102
}
330
18
100
AcDbGroup
300

 70
     3
 71
     0
  0
GROUP
  5
48B6
102
{ACAD_REACTORS
330
18
102
}
330
18
100
AcDbGroup
300

 70
     3
 71
     0
  0
GROUP
  5
498E
102
{ACAD_REACTORS
330
18
102
}
330
18
100
AcDbGroup
300

 70
     3
 71
     0
  0
GROUP
  5
4876
102
{ACAD_REACTORS
330
18
102
}
330
18
100
AcDbGroup
300

 70
     3
 71
     0
  0
GROUP
  5
62FC
102
{ACAD_REACTORS
330
18
102
}
330
18
100
AcDbGroup
300

 70
     3
 71
     0
  0
GROUP
  5
484F
102
{ACAD_REACTORS
330
18
102
}
330
18
100
AcDbGroup
300

 70
     3
 71
     0
  0
GROUP
  5
4976
102
{ACAD_REACTORS
330
18
102
}
330
18
100
AcDbGroup
300

 70
     3
 71
     0
  0
GROUP
  5
1BA0
102
{ACAD_REACTORS
330
18
102
}
330
18
100
AcDbGroup
300

 70
     3
 71
     0
  0
GROUP
  5
1BA9
102
{ACAD_REACTORS
330
18
102
}
330
18
100
AcDbGroup
300

 70
     3
 71
     0
  0
GROUP
  5
48A6
102
{ACAD_REACTORS
330
18
102
}
330
18
100
AcDbGroup
300

 70
     3
 71
     0
  0
GROUP
  5
6411
102
{ACAD_REACTORS
330
18
102
}
330
18
100
AcDbGroup
300

 70
     3
 71
     0
  0
GROUP
  5
6374
102
{ACAD_REACTORS
330
18
102
}
330
18
100
AcDbGroup
300

 70
     3
 71
     0
  0
GROUP
  5
1C55
102
{ACAD_REACTORS
330
18
102
}
330
18
100
AcDbGroup
300

 70
     3
 71
     0
  0
GROUP
  5
1B81
102
{ACAD_REACTORS
330
18
102
}
330
18
100
AcDbGroup
300

 70
     3
 71
     0
  0
GROUP
  5
1B29
102
{ACAD_REACTORS
330
18
102
}
330
18
100
AcDbGroup
300

 70
     3
 71
     0
  0
GROUP
  5
48FB
102
{ACAD_REACTORS
330
18
102
}
330
18
100
AcDbGroup
300

 70
     3
 71
     0
  0
GROUP
  5
63A7
102
{ACAD_REACTORS
330
18
102
}
330
18
100
AcDbGroup
300

 70
     3
 71
     0
  0
GROUP
  5
4854
102
{ACAD_REACTORS
330
18
102
}
330
18
100
AcDbGroup
300

 70
     3
 71
     0
  0
GROUP
  5
6265
102
{ACAD_REACTORS
330
18
102
}
330
18
100
AcDbGroup
300

 70
     3
 71
     0
  0
GROUP
  5
37C3
102
{ACAD_REACTORS
330
18
102
}
330
18
100
AcDbGroup
300

 70
     3
 71
     0
  0
GROUP
  5
480D
102
{ACAD_REACTORS
330
18
102
}
330
18
100
AcDbGroup
300

 70
     3
 71
     0
  0
GROUP
  5
49C6
102
{ACAD_REACTORS
330
18
102
}
330
18
100
AcDbGroup
300

 70
     3
 71
     0
  0
GROUP
  5
6254
102
{ACAD_REACTORS
330
18
102
}
330
18
100
AcDbGroup
300

 70
     3
 71
     0
  0
GROUP
  5
1BC5
102
{ACAD_REACTORS
330
18
102
}
330
18
100
AcDbGroup
300

 70
     3
 71
     0
  0
GROUP
  5
1455
102
{ACAD_REACTORS
330
18
102
}
330
18
100
AcDbGroup
300

 70
     3
 71
     0
  0
GROUP
  5
48CE
102
{ACAD_REACTORS
330
18
102
}
330
18
100
AcDbGroup
300

 70
     3
 71
     0
  0
GROUP
  5
6345
102
{ACAD_REACTORS
330
18
102
}
330
18
100
AcDbGroup
300

 70
     3
 71
     0
  0
GROUP
  5
6287
102
{ACAD_REACTORS
330
18
102
}
330
18
100
AcDbGroup
300

 70
     3
 71
     0
  0
GROUP
  5
37A2
102
{ACAD_REACTORS
330
18
102
}
330
18
100
AcDbGroup
300

 70
     3
 71
     0
  0
GROUP
  5
1B32
102
{ACAD_REACTORS
330
18
102
}
330
18
100
AcDbGroup
300

 70
     3
 71
     0
  0
GROUP
  5
6367
102
{ACAD_REACTORS
330
18
102
}
330
18
100
AcDbGroup
300

 70
     3
 71
     0
  0
GROUP
  5
494B
102
{ACAD_REACTORS
330
18
102
}
330
18
100
AcDbGroup
300

 70
     3
 71
     0
  0
GROUP
  5
1C49
102
{ACAD_REACTORS
330
18
102
}
330
18
100
AcDbGroup
300

 70
     3
 71
     0
  0
GROUP
  5
1B30
102
{ACAD_REACTORS
330
18
102
}
330
18
100
AcDbGroup
300

 70
     3
 71
     0
  0
GROUP
  5
49DF
102
{ACAD_REACTORS
330
18
102
}
330
18
100
AcDbGroup
300

 70
     3
 71
     0
  0
GROUP
  5
629D
102
{ACAD_REACTORS
330
18
102
}
330
18
100
AcDbGroup
300

 70
     3
 71
     0
  0
GROUP
  5
6419
102
{ACAD_REACTORS
330
18
102
}
330
18
100
AcDbGroup
300

 70
     3
 71
     0
  0
GROUP
  5
49F7
102
{ACAD_REACTORS
330
18
102
}
330
18
100
AcDbGroup
300

 70
     3
 71
     0
  0
GROUP
  5
6355
102
{ACAD_REACTORS
330
18
102
}
330
18
100
AcDbGroup
300

 70
     3
 71
     0
  0
GROUP
  5
63C0
102
{ACAD_REACTORS
330
18
102
}
330
18
100
AcDbGroup
300

 70
     3
 71
     0
  0
GROUP
  5
62DB
102
{ACAD_REACTORS
330
18
102
}
330
18
100
AcDbGroup
300

 70
     3
 71
     0
  0
GROUP
  5
4826
102
{ACAD_REACTORS
330
18
102
}
330
18
100
AcDbGroup
300

 70
     3
 71
     0
  0
GROUP
  5
6305
102
{ACAD_REACTORS
330
18
102
}
330
18
100
AcDbGroup
300

 70
     3
 71
     0
  0
GROUP
  5
6293
102
{ACAD_REACTORS
330
18
102
}
330
18
100
AcDbGroup
300

 70
     3
 71
     0
  0
GROUP
  5
1AE7
102
{ACAD_REACTORS
330
18
102
}
330
18
100
AcDbGroup
300

 70
     3
 71
     0
  0
GROUP
  5
6426
102
{ACAD_REACTORS
330
18
102
}
330
18
100
AcDbGroup
300

 70
     3
 71
     0
  0
GROUP
  5
6410
102
{ACAD_REACTORS
330
18
102
}
330
18
100
AcDbGroup
300

 70
     3
 71
     0
  0
GROUP
  5
1B4E
102
{ACAD_REACTORS
330
18
102
}
330
18
100
AcDbGroup
300

 70
     3
 71
     0
  0
GROUP
  5
48D7
102
{ACAD_REACTORS
330
18
102
}
330
18
100
AcDbGroup
300

 70
     3
 71
     0
  0
GROUP
  5
1BE7
102
{ACAD_REACTORS
330
18
102
}
330
18
100
AcDbGroup
300

 70
     3
 71
     0
  0
GROUP
  5
6376
102
{ACAD_REACTORS
330
18
102
}
330
18
100
AcDbGroup
300

 70
     3
 71
     0
  0
GROUP
  5
49F9
102
{ACAD_REACTORS
330
18
102
}
330
18
100
AcDbGroup
300

 70
     3
 71
     0
  0
GROUP
  5
37B8
102
{ACAD_REACTORS
330
18
102
}
330
18
100
AcDbGroup
300

 70
     3
 71
     0
  0
GROUP
  5
1AF9
102
{ACAD_REACTORS
330
18
102
}
330
18
100
AcDbGroup
300

 70
     3
 71
     0
  0
GROUP
  5
4994
102
{ACAD_REACTORS
330
18
102
}
330
18
100
AcDbGroup
300

 70
     3
 71
     0
  0
GROUP
  5
1BA7
102
{ACAD_REACTORS
330
18
102
}
330
18
100
AcDbGroup
300

 70
     3
 71
     0
  0
GROUP
  5
1B67
102
{ACAD_REACTORS
330
18
102
}
330
18
100
AcDbGroup
300

 70
     3
 71
     0
  0
GROUP
  5
37AF
102
{ACAD_REACTORS
330
18
102
}
330
18
100
AcDbGroup
300

 70
     3
 71
     0
  0
GROUP
  5
1B31
102
{ACAD_REACTORS
330
18
102
}
330
18
100
AcDbGroup
300

 70
     3
 71
     0
  0
GROUP
  5
6336
102
{ACAD_REACTORS
330
18
102
}
330
18
100
AcDbGroup
300

 70
     3
 71
     0
  0
GROUP
  5
1B4D
102
{ACAD_REACTORS
330
18
102
}
330
18
100
AcDbGroup
300

 70
     3
 71
     0
  0
GROUP
  5
1AF8
102
{ACAD_REACTORS
330
18
102
}
330
18
100
AcDbGroup
300

 70
     3
 71
     0
  0
GROUP
  5
63DF
102
{ACAD_REACTORS
330
18
102
}
330
18
100
AcDbGroup
300

 70
     3
 71
     0
  0
GROUP
  5
63D8
102
{ACAD_REACTORS
330
18
102
}
330
18
100
AcDbGroup
300

 70
     3
 71
     0
  0
GROUP
  5
6251
102
{ACAD_REACTORS
330
18
102
}
330
18
100
AcDbGroup
300

 70
     3
 71
     0
  0
GROUP
  5
482F
102
{ACAD_REACTORS
330
18
102
}
330
18
100
AcDbGroup
300

 70
     3
 71
     0
  0
GROUP
  5
488E
102
{ACAD_REACTORS
330
18
102
}
330
18
100
AcDbGroup
300

 70
     3
 71
     0
  0
GROUP
  5
1BC6
102
{ACAD_REACTORS
330
18
102
}
330
18
100
AcDbGroup
300

 70
     3
 71
     0
  0
GROUP
  5
49A7
102
{ACAD_REACTORS
330
18
102
}
330
18
100
AcDbGroup
300

 70
     3
 71
     0
  0
GROUP
  5
489A
102
{ACAD_REACTORS
330
18
102
}
330
18
100
AcDbGroup
300

 70
     3
 71
     0
  0
GROUP
  5
6246
102
{ACAD_REACTORS
330
18
102
}
330
18
100
AcDbGroup
300

 70
     3
 71
     0
  0
GROUP
  5
496D
102
{ACAD_REACTORS
330
18
102
}
330
18
100
AcDbGroup
300

 70
     3
 71
     0
  0
GROUP
  5
62DA
102
{ACAD_REACTORS
330
18
102
}
330
18
100
AcDbGroup
300

 70
     3
 71
     0
  0
GROUP
  5
499E
102
{ACAD_REACTORS
330
18
102
}
330
18
100
AcDbGroup
300

 70
     3
 71
     0
  0
GROUP
  5
640D
102
{ACAD_REACTORS
330
18
102
}
330
18
100
AcDbGroup
300

 70
     3
 71
     0
  0
GROUP
  5
1BAF
102
{ACAD_REACTORS
330
18
102
}
330
18
100
AcDbGroup
300

 70
     3
 71
     0
  0
GROUP
  5
6349
102
{ACAD_REACTORS
330
18
102
}
330
18
100
AcDbGroup
300

 70
     3
 71
     0
  0
GROUP
  5
1C30
102
{ACAD_REACTORS
330
18
102
}
330
18
100
AcDbGroup
300

 70
     3
 71
     0
  0
GROUP
  5
49D1
102
{ACAD_REACTORS
330
18
102
}
330
18
100
AcDbGroup
300

 70
     3
 71
     0
  0
GROUP
  5
4969
102
{ACAD_REACTORS
330
18
102
}
330
18
100
AcDbGroup
300

 70
     3
 71
     0
  0
GROUP
  5
48EA
102
{ACAD_REACTORS
330
18
102
}
330
18
100
AcDbGroup
300

 70
     3
 71
     0
  0
GROUP
  5
493E
102
{ACAD_REACTORS
330
18
102
}
330
18
100
AcDbGroup
300

 70
     3
 71
     0
  0
GROUP
  5
49F2
102
{ACAD_REACTORS
330
18
102
}
330
18
100
AcDbGroup
300

 70
     3
 71
     0
  0
GROUP
  5
62E8
102
{ACAD_REACTORS
330
18
102
}
330
18
100
AcDbGroup
300

 70
     3
 71
     0
  0
GROUP
  5
6225
102
{ACAD_REACTORS
330
18
102
}
330
18
100
AcDbGroup
300

 70
     3
 71
     0
  0
GROUP
  5
62D7
102
{ACAD_REACTORS
330
18
102
}
330
18
100
AcDbGroup
300

 70
     3
 71
     0
  0
GROUP
  5
1B01
102
{ACAD_REACTORS
330
18
102
}
330
18
100
AcDbGroup
300

 70
     3
 71
     0
  0
GROUP
  5
1C38
102
{ACAD_REACTORS
330
18
102
}
330
18
100
AcDbGroup
300

 70
     3
 71
     0
  0
GROUP
  5
623E
102
{ACAD_REACTORS
330
18
102
}
330
18
100
AcDbGroup
300

 70
     3
 71
     0
  0
GROUP
  5
48DB
102
{ACAD_REACTORS
330
18
102
}
330
18
100
AcDbGroup
300

 70
     3
 71
     0
  0
GROUP
  5
63A4
102
{ACAD_REACTORS
330
18
102
}
330
18
100
AcDbGroup
300

 70
     3
 71
     0
  0
GROUP
  5
49AF
102
{ACAD_REACTORS
330
18
102
}
330
18
100
AcDbGroup
300

 70
     3
 71
     0
  0
GROUP
  5
623A
102
{ACAD_REACTORS
330
18
102
}
330
18
100
AcDbGroup
300

 70
     3
 71
     0
  0
GROUP
  5
6403
102
{ACAD_REACTORS
330
18
102
}
330
18
100
AcDbGroup
300

 70
     3
 71
     0
  0
GROUP
  5
62B3
102
{ACAD_REACTORS
330
18
102
}
330
18
100
AcDbGroup
300

 70
     3
 71
     0
  0
GROUP
  5
1B9C
102
{ACAD_REACTORS
330
18
102
}
330
18
100
AcDbGroup
300

 70
     3
 71
     0
  0
GROUP
  5
1AF1
102
{ACAD_REACTORS
330
18
102
}
330
18
100
AcDbGroup
300

 70
     3
 71
     0
  0
GROUP
  5
6250
102
{ACAD_REACTORS
330
18
102
}
330
18
100
AcDbGroup
300

 70
     3
 71
     0
  0
GROUP
  5
4963
102
{ACAD_REACTORS
330
18
102
}
330
18
100
AcDbGroup
300

 70
     3
 71
     0
  0
GROUP
  5
4832
102
{ACAD_REACTORS
330
18
102
}
330
18
100
AcDbGroup
300

 70
     3
 71
     0
  0
GROUP
  5
6351
102
{ACAD_REACTORS
330
18
102
}
330
18
100
AcDbGroup
300

 70
     3
 71
     0
  0
GROUP
  5
6243
102
{ACAD_REACTORS
330
18
102
}
330
18
100
AcDbGroup
300

 70
     3
 71
     0
  0
GROUP
  5
48EF
102
{ACAD_REACTORS
330
18
102
}
330
18
100
AcDbGroup
300

 70
     3
 71
     0
  0
GROUP
  5
62D0
102
{ACAD_REACTORS
330
18
102
}
330
18
100
AcDbGroup
300

 70
     3
 71
     0
  0
GROUP
  5
48D5
102
{ACAD_REACTORS
330
18
102
}
330
18
100
AcDbGroup
300

 70
     3
 71
     0
  0
GROUP
  5
6422
102
{ACAD_REACTORS
330
18
102
}
330
18
100
AcDbGroup
300

 70
     3
 71
     0
  0
GROUP
  5
63FD
102
{ACAD_REACTORS
330
18
102
}
330
18
100
AcDbGroup
300

 70
     3
 71
     0
  0
GROUP
  5
628A
102
{ACAD_REACTORS
330
18
102
}
330
18
100
AcDbGroup
300

 70
     3
 71
     0
  0
GROUP
  5
6258
102
{ACAD_REACTORS
330
18
102
}
330
18
100
AcDbGroup
300

 70
     3
 71
     0
  0
GROUP
  5
1BC8
102
{ACAD_REACTORS
330
18
102
}
330
18
100
AcDbGroup
300

 70
     3
 71
     0
  0
GROUP
  5
491D
102
{ACAD_REACTORS
330
18
102
}
330
18
100
AcDbGroup
300

 70
     3
 71
     0
  0
GROUP
  5
37BA
102
{ACAD_REACTORS
330
18
102
}
330
18
100
AcDbGroup
300

 70
     3
 71
     0
  0
GROUP
  5
1BE6
102
{ACAD_REACTORS
330
18
102
}
330
18
100
AcDbGroup
300

 70
     3
 71
     0
  0
GROUP
  5
4875
102
{ACAD_REACTORS
330
18
102
}
330
18
100
AcDbGroup
300

 70
     3
 71
     0
  0
GROUP
  5
4831
102
{ACAD_REACTORS
330
18
102
}
330
18
100
AcDbGroup
300

 70
     3
 71
     0
  0
GROUP
  5
630B
102
{ACAD_REACTORS
330
18
102
}
330
18
100
AcDbGroup
300

 70
     3
 71
     0
  0
GROUP
  5
6353
102
{ACAD_REACTORS
330
18
102
}
330
18
100
AcDbGroup
300

 70
     3
 71
     0
  0
GROUP
  5
62A7
102
{ACAD_REACTORS
330
18
102
}
330
18
100
AcDbGroup
300

 70
     3
 71
     0
  0
GROUP
  5
1B39
102
{ACAD_REACTORS
330
18
102
}
330
18
100
AcDbGroup
300

 70
     3
 71
     0
  0
GROUP
  5
1AD5
102
{ACAD_REACTORS
330
18
102
}
330
18
100
AcDbGroup
300

 70
     3
 71
     0
  0
GROUP
  5
489C
102
{ACAD_REACTORS
330
18
102
}
330
18
100
AcDbGroup
300

 70
     3
 71
     0
  0
GROUP
  5
1AF7
102
{ACAD_REACTORS
330
18
102
}
330
18
100
AcDbGroup
300

 70
     3
 71
     0
  0
GROUP
  5
1B4C
102
{ACAD_REACTORS
330
18
102
}
330
18
100
AcDbGroup
300

 70
     3
 71
     0
  0
GROUP
  5
627F
102
{ACAD_REACTORS
330
18
102
}
330
18
100
AcDbGroup
300

 70
     3
 71
     0
  0
GROUP
  5
6252
102
{ACAD_REACTORS
330
18
102
}
330
18
100
AcDbGroup
300

 70
     3
 71
     0
  0
GROUP
  5
48C3
102
{ACAD_REACTORS
330
18
102
}
330
18
100
AcDbGroup
300

 70
     3
 71
     0
  0
GROUP
  5
1BFF
102
{ACAD_REACTORS
330
18
102
}
330
18
100
AcDbGroup
300

 70
     3
 71
     0
  0
GROUP
  5
63D0
102
{ACAD_REACTORS
330
18
102
}
330
18
100
AcDbGroup
300

 70
     3
 71
     0
  0
GROUP
  5
49CC
102
{ACAD_REACTORS
330
18
102
}
330
18
100
AcDbGroup
300

 70
     3
 71
     0
  0
GROUP
  5
63A1
102
{ACAD_REACTORS
330
18
102
}
330
18
100
AcDbGroup
300

 70
     3
 71
     0
  0
GROUP
  5
481A
102
{ACAD_REACTORS
330
18
102
}
330
18
100
AcDbGroup
300

 70
     3
 71
     0
  0
GROUP
  5
1BDB
102
{ACAD_REACTORS
330
18
102
}
330
18
100
AcDbGroup
300

 70
     3
 71
     0
  0
GROUP
  5
1B6D
102
{ACAD_REACTORS
330
18
102
}
330
18
100
AcDbGroup
300

 70
     3
 71
     0
  0
GROUP
  5
63F2
102
{ACAD_REACTORS
330
18
102
}
330
18
100
AcDbGroup
300

 70
     3
 71
     0
  0
GROUP
  5
4855
102
{ACAD_REACTORS
330
18
102
}
330
18
100
AcDbGroup
300

 70
     3
 71
     0
  0
GROUP
  5
1ADD
102
{ACAD_REACTORS
330
18
102
}
330
18
100
AcDbGroup
300

 70
     3
 71
     0
  0
GROUP
  5
1C12
102
{ACAD_REACTORS
330
18
102
}
330
18
100
AcDbGroup
300

 70
     3
 71
     0
  0
GROUP
  5
1C57
102
{ACAD_REACTORS
330
18
102
}
330
18
100
AcDbGroup
300

 70
     3
 71
     0
  0
GROUP
  5
4908
102
{ACAD_REACTORS
330
18
102
}
330
18
100
AcDbGroup
300

 70
     3
 71
     0
  0
GROUP
  5
4836
102
{ACAD_REACTORS
330
18
102
}
330
18
100
AcDbGroup
300

 70
     3
 71
     0
  0
GROUP
  5
4856
102
{ACAD_REACTORS
330
18
102
}
330
18
100
AcDbGroup
300

 70
     3
 71
     0
  0
GROUP
  5
48CB
102
{ACAD_REACTORS
330
18
102
}
330
18
100
AcDbGroup
300

 70
     3
 71
     0
  0
GROUP
  5
483E
102
{ACAD_REACTORS
330
18
102
}
330
18
100
AcDbGroup
300

 70
     3
 71
     0
  0
GROUP
  5
4809
102
{ACAD_REACTORS
330
18
102
}
330
18
100
AcDbGroup
300

 70
     3
 71
     0
  0
GROUP
  5
1BD9
102
{ACAD_REACTORS
330
18
102
}
330
18
100
AcDbGroup
300

 70
     3
 71
     0
  0
GROUP
  5
62E5
102
{ACAD_REACTORS
330
18
102
}
330
18
100
AcDbGroup
300

 70
     3
 71
     0
  0
GROUP
  5
63F5
102
{ACAD_REACTORS
330
18
102
}
330
18
100
AcDbGroup
300

 70
     3
 71
     0
  0
GROUP
  5
1AD6
102
{ACAD_REACTORS
330
18
102
}
330
18
100
AcDbGroup
300

 70
     3
 71
     0
  0
GROUP
  5
62B4
102
{ACAD_REACTORS
330
18
102
}
330
18
100
AcDbGroup
300

 70
     3
 71
     0
  0
GROUP
  5
49DA
102
{ACAD_REACTORS
330
18
102
}
330
18
100
AcDbGroup
300

 70
     3
 71
     0
  0
GROUP
  5
63BE
102
{ACAD_REACTORS
330
18
102
}
330
18
100
AcDbGroup
300

 70
     3
 71
     0
  0
GROUP
  5
1C5B
102
{ACAD_REACTORS
330
18
102
}
330
18
100
AcDbGroup
300

 70
     3
 71
     0
  0
GROUP
  5
6315
102
{ACAD_REACTORS
330
18
102
}
330
18
100
AcDbGroup
300

 70
     3
 71
     0
  0
GROUP
  5
4892
102
{ACAD_REACTORS
330
18
102
}
330
18
100
AcDbGroup
300

 70
     3
 71
     0
  0
GROUP
  5
630C
102
{ACAD_REACTORS
330
18
102
}
330
18
100
AcDbGroup
300

 70
     3
 71
     0
  0
GROUP
  5
4901
102
{ACAD_REACTORS
330
18
102
}
330
18
100
AcDbGroup
300

 70
     3
 71
     0
  0
GROUP
  5
1C60
102
{ACAD_REACTORS
330
18
102
}
330
18
100
AcDbGroup
300

 70
     3
 71
     0
  0
GROUP
  5
6413
102
{ACAD_REACTORS
330
18
102
}
330
18
100
AcDbGroup
300

 70
     3
 71
     0
  0
GROUP
  5
4829
102
{ACAD_REACTORS
330
18
102
}
330
18
100
AcDbGroup
300

 70
     3
 71
     0
  0
GROUP
  5
48A3
102
{ACAD_REACTORS
330
18
102
}
330
18
100
AcDbGroup
300

 70
     3
 71
     0
  0
GROUP
  5
62EF
102
{ACAD_REACTORS
330
18
102
}
330
18
100
AcDbGroup
300

 70
     3
 71
     0
  0
GROUP
  5
6377
102
{ACAD_REACTORS
330
18
102
}
330
18
100
AcDbGroup
300

 70
     3
 71
     0
  0
GROUP
  5
4857
102
{ACAD_REACTORS
330
18
102
}
330
18
100
AcDbGroup
300

 70
     3
 71
     0
  0
GROUP
  5
4945
102
{ACAD_REACTORS
330
18
102
}
330
18
100
AcDbGroup
300

 70
     3
 71
     0
  0
GROUP
  5
1B94
102
{ACAD_REACTORS
330
18
102
}
330
18
100
AcDbGroup
300

 70
     3
 71
     0
  0
GROUP
  5
49B5
102
{ACAD_REACTORS
330
18
102
}
330
18
100
AcDbGroup
300

 70
     3
 71
     0
  0
GROUP
  5
1BFE
102
{ACAD_REACTORS
330
18
102
}
330
18
100
AcDbGroup
300

 70
     3
 71
     0
  0
GROUP
  5
1BF0
102
{ACAD_REACTORS
330
18
102
}
330
18
100
AcDbGroup
300

 70
     3
 71
     0
  0
GROUP
  5
1C1D
102
{ACAD_REACTORS
330
18
102
}
330
18
100
AcDbGroup
300

 70
     3
 71
     0
  0
GROUP
  5
1BCF
102
{ACAD_REACTORS
330
18
102
}
330
18
100
AcDbGroup
300

 70
     3
 71
     0
  0
GROUP
  5
48C9
102
{ACAD_REACTORS
330
18
102
}
330
18
100
AcDbGroup
300

 70
     3
 71
     0
  0
GROUP
  5
1B6E
102
{ACAD_REACTORS
330
18
102
}
330
18
100
AcDbGroup
300

 70
     3
 71
     0
  0
GROUP
  5
6279
102
{ACAD_REACTORS
330
18
102
}
330
18
100
AcDbGroup
300

 70
     3
 71
     0
  0
GROUP
  5
63DC
102
{ACAD_REACTORS
330
18
102
}
330
18
100
AcDbGroup
300

 70
     3
 71
     0
  0
GROUP
  5
4842
102
{ACAD_REACTORS
330
18
102
}
330
18
100
AcDbGroup
300

 70
     3
 71
     0
  0
GROUP
  5
4A02
102
{ACAD_REACTORS
330
18
102
}
330
18
100
AcDbGroup
300

 70
     3
 71
     0
  0
GROUP
  5
1C5D
102
{ACAD_REACTORS
330
18
102
}
330
18
100
AcDbGroup
300

 70
     3
 71
     0
  0
GROUP
  5
631D
102
{ACAD_REACTORS
330
18
102
}
330
18
100
AcDbGroup
300

 70
     3
 71
     0
  0
GROUP
  5
1B77
102
{ACAD_REACTORS
330
18
102
}
330
18
100
AcDbGroup
300

 70
     3
 71
     0
  0
GROUP
  5
49E3
102
{ACAD_REACTORS
330
18
102
}
330
18
100
AcDbGroup
300

 70
     3
 71
     0
  0
GROUP
  5
6337
102
{ACAD_REACTORS
330
18
102
}
330
18
100
AcDbGroup
300

 70
     3
 71
     0
  0
GROUP
  5
1B50
102
{ACAD_REACTORS
330
18
102
}
330
18
100
AcDbGroup
300

 70
     3
 71
     0
  0
GROUP
  5
48F8
102
{ACAD_REACTORS
330
18
102
}
330
18
100
AcDbGroup
300

 70
     3
 71
     0
  0
GROUP
  5
4A04
102
{ACAD_REACTORS
330
18
102
}
330
18
100
AcDbGroup
300

 70
     3
 71
     0
  0
GROUP
  5
636A
102
{ACAD_REACTORS
330
18
102
}
330
18
100
AcDbGroup
300

 70
     3
 71
     0
  0
GROUP
  5
6347
102
{ACAD_REACTORS
330
18
102
}
330
18
100
AcDbGroup
300

 70
     3
 71
     0
  0
GROUP
  5
4A0C
102
{ACAD_REACTORS
330
18
102
}
330
18
100
AcDbGroup
300

 70
     3
 71
     0
  0
GROUP
  5
640C
102
{ACAD_REACTORS
330
18
102
}
330
18
100
AcDbGroup
300

 70
     3
 71
     0
  0
GROUP
  5
4887
102
{ACAD_REACTORS
330
18
102
}
330
18
100
AcDbGroup
300

 70
     3
 71
     0
  0
GROUP
  5
62B0
102
{ACAD_REACTORS
330
18
102
}
330
18
100
AcDbGroup
300

 70
     3
 71
     0
  0
GROUP
  5
48FA
102
{ACAD_REACTORS
330
18
102
}
330
18
100
AcDbGroup
300

 70
     3
 71
     0
  0
GROUP
  5
49F5
102
{ACAD_REACTORS
330
18
102
}
330
18
100
AcDbGroup
300

 70
     3
 71
     0
  0
GROUP
  5
6302
102
{ACAD_REACTORS
330
18
102
}
330
18
100
AcDbGroup
300

 70
     3
 71
     0
  0
GROUP
  5
62F7
102
{ACAD_REACTORS
330
18
102
}
330
18
100
AcDbGroup
300

 70
     3
 71
     0
  0
GROUP
  5
4833
102
{ACAD_REACTORS
330
18
102
}
330
18
100
AcDbGroup
300

 70
     3
 71
     0
  0
GROUP
  5
4975
102
{ACAD_REACTORS
330
18
102
}
330
18
100
AcDbGroup
300

 70
     3
 71
     0
  0
GROUP
  5
6313
102
{ACAD_REACTORS
330
18
102
}
330
18
100
AcDbGroup
300

 70
     3
 71
     0
  0
GROUP
  5
6382
102
{ACAD_REACTORS
330
18
102
}
330
18
100
AcDbGroup
300

 70
     3
 71
     0
  0
GROUP
  5
4978
102
{ACAD_REACTORS
330
18
102
}
330
18
100
AcDbGroup
300

 70
     3
 71
     0
  0
GROUP
  5
62D4
102
{ACAD_REACTORS
330
18
102
}
330
18
100
AcDbGroup
300

 70
     3
 71
     1
  0
GROUP
  5
63B5
102
{ACAD_REACTORS
330
18
102
}
330
18
100
AcDbGroup
300

 70
     3
 71
     0
  0
GROUP
  5
49D4
102
{ACAD_REACTORS
330
18
102
}
330
18
100
AcDbGroup
300

 70
     3
 71
     0
  0
GROUP
  5
495D
102
{ACAD_REACTORS
330
18
102
}
330
18
100
AcDbGroup
300

 70
     3
 71
     0
  0
GROUP
  5
63E6
102
{ACAD_REACTORS
330
18
102
}
330
18
100
AcDbGroup
300

 70
     3
 71
     0
  0
GROUP
  5
625C
102
{ACAD_REACTORS
330
18
102
}
330
18
100
AcDbGroup
300

 70
     3
 71
     0
  0
GROUP
  5
1C61
102
{ACAD_REACTORS
330
18
102
}
330
18
100
AcDbGroup
300

 70
     3
 71
     0
  0
GROUP
  5
4858
102
{ACAD_REACTORS
330
18
102
}
330
18
100
AcDbGroup
300

 70
     3
 71
     0
  0
GROUP
  5
63B3
102
{ACAD_REACTORS
330
18
102
}
330
18
100
AcDbGroup
300

 70
     3
 71
     0
  0
GROUP
  5
49BE
102
{ACAD_REACTORS
330
18
102
}
330
18
100
AcDbGroup
300

 70
     3
 71
     0
  0
GROUP
  5
493F
102
{ACAD_REACTORS
330
18
102
}
330
18
100
AcDbGroup
300

 70
     3
 71
     0
  0
GROUP
  5
4913
102
{ACAD_REACTORS
330
18
102
}
330
18
100
AcDbGroup
300

 70
     3
 71
     0
  0
GROUP
  5
6245
102
{ACAD_REACTORS
330
18
102
}
330
18
100
AcDbGroup
300

 70
     3
 71
     0
  0
GROUP
  5
48C6
102
{ACAD_REACTORS
330
18
102
}
330
18
100
AcDbGroup
300

 70
     3
 71
     1
  0
GROUP
  5
62D8
102
{ACAD_REACTORS
330
18
102
}
330
18
100
AcDbGroup
300

 70
     3
 71
     0
  0
GROUP
  5
37C1
102
{ACAD_REACTORS
330
18
102
}
330
18
100
AcDbGroup
300

 70
     3
 71
     0
  0
GROUP
  5
1BEF
102
{ACAD_REACTORS
330
18
102
}
330
18
100
AcDbGroup
300

 70
     3
 71
     0
  0
GROUP
  5
49F1
102
{ACAD_REACTORS
330
18
102
}
330
18
100
AcDbGroup
300

 70
     3
 71
     0
  0
GROUP
  5
37BC
102
{ACAD_REACTORS
330
18
102
}
330
18
100
AcDbGroup
300

 70
     3
 71
     0
  0
GROUP
  5
630A
102
{ACAD_REACTORS
330
18
102
}
330
18
100
AcDbGroup
300

 70
     3
 71
     0
  0
GROUP
  5
1B7B
102
{ACAD_REACTORS
330
18
102
}
330
18
100
AcDbGroup
300

 70
     3
 71
     0
  0
GROUP
  5
1457
102
{ACAD_REACTORS
330
18
102
}
330
18
100
AcDbGroup
300

 70
     3
 71
     0
  0
GROUP
  5
1B19
102
{ACAD_REACTORS
330
18
102
}
330
18
100
AcDbGroup
300

 70
     3
 71
     0
  0
GROUP
  5
6282
102
{ACAD_REACTORS
330
18
102
}
330
18
100
AcDbGroup
300

 70
     3
 71
     0
  0
GROUP
  5
4898
102
{ACAD_REACTORS
330
18
102
}
330
18
100
AcDbGroup
300

 70
     3
 71
     0
  0
GROUP
  5
6333
102
{ACAD_REACTORS
330
18
102
}
330
18
100
AcDbGroup
300

 70
     3
 71
     0
  0
GROUP
  5
1C28
102
{ACAD_REACTORS
330
18
102
}
330
18
100
AcDbGroup
300

 70
     3
 71
     0
  0
GROUP
  5
63BA
102
{ACAD_REACTORS
330
18
102
}
330
18
100
AcDbGroup
300

 70
     3
 71
     0
  0
GROUP
  5
6398
102
{ACAD_REACTORS
330
18
102
}
330
18
100
AcDbGroup
300

 70
     3
 71
     0
  0
GROUP
  5
63DD
102
{ACAD_REACTORS
330
18
102
}
330
18
100
AcDbGroup
300

 70
     3
 71
     0
  0
GROUP
  5
1B7F
102
{ACAD_REACTORS
330
18
102
}
330
18
100
AcDbGroup
300

 70
     3
 71
     0
  0
GROUP
  5
62E0
102
{ACAD_REACTORS
330
18
102
}
330
18
100
AcDbGroup
300

 70
     3
 71
     0
  0
GROUP
  5
6407
102
{ACAD_REACTORS
330
18
102
}
330
18
100
AcDbGroup
300

 70
     3
 71
     0
  0
GROUP
  5
498B
102
{ACAD_REACTORS
330
18
102
}
330
18
100
AcDbGroup
300

 70
     3
 71
     0
  0
GROUP
  5
1AE6
102
{ACAD_REACTORS
330
18
102
}
330
18
100
AcDbGroup
300

 70
     3
 71
     0
  0
GROUP
  5
1C0C
102
{ACAD_REACTORS
330
18
102
}
330
18
100
AcDbGroup
300

 70
     3
 71
     0
  0
GROUP
  5
1AEF
102
{ACAD_REACTORS
330
18
102
}
330
18
100
AcDbGroup
300

 70
     3
 71
     0
  0
GROUP
  5
4815
102
{ACAD_REACTORS
330
18
102
}
330
18
100
AcDbGroup
300

 70
     3
 71
     0
  0
GROUP
  5
62A8
102
{ACAD_REACTORS
330
18
102
}
330
18
100
AcDbGroup
300

 70
     3
 71
     0
  0
GROUP
  5
626D
102
{ACAD_REACTORS
330
18
102
}
330
18
100
AcDbGroup
300

 70
     3
 71
     0
  0
GROUP
  5
63DE
102
{ACAD_REACTORS
330
18
102
}
330
18
100
AcDbGroup
300

 70
     3
 71
     0
  0
GROUP
  5
62AC
102
{ACAD_REACTORS
330
18
102
}
330
18
100
AcDbGroup
300

 70
     3
 71
     0
  0
GROUP
  5
63E2
102
{ACAD_REACTORS
330
18
102
}
330
18
100
AcDbGroup
300

 70
     3
 71
     0
  0
GROUP
  5
496B
102
{ACAD_REACTORS
330
18
102
}
330
18
100
AcDbGroup
300

 70
     3
 71
     0
  0
GROUP
  5
487E
102
{ACAD_REACTORS
330
18
102
}
330
18
100
AcDbGroup
300

 70
     3
 71
     0
  0
GROUP
  5
1BA6
102
{ACAD_REACTORS
330
18
102
}
330
18
100
AcDbGroup
300

 70
     3
 71
     0
  0
GROUP
  5
482D
102
{ACAD_REACTORS
330
18
102
}
330
18
100
AcDbGroup
300

 70
     3
 71
     0
  0
GROUP
  5
4886
102
{ACAD_REACTORS
330
18
102
}
330
18
100
AcDbGroup
300

 70
     3
 71
     0
  0
GROUP
  5
1BC2
102
{ACAD_REACTORS
330
18
102
}
330
18
100
AcDbGroup
300

 70
     3
 71
     0
  0
GROUP
  5
487F
102
{ACAD_REACTORS
330
18
102
}
330
18
100
AcDbGroup
300

 70
     3
 71
     0
  0
GROUP
  5
4968
102
{ACAD_REACTORS
330
18
102
}
330
18
100
AcDbGroup
300

 70
     3
 71
     0
  0
GROUP
  5
49C3
102
{ACAD_REACTORS
330
18
102
}
330
18
100
AcDbGroup
300

 70
     3
 71
     0
  0
GROUP
  5
49EF
102
{ACAD_REACTORS
330
18
102
}
330
18
100
AcDbGroup
300

 70
     3
 71
     0
  0
GROUP
  5
6322
102
{ACAD_REACTORS
330
18
102
}
330
18
100
AcDbGroup
300

 70
     3
 71
     0
  0
GROUP
  5
4991
102
{ACAD_REACTORS
330
18
102
}
330
18
100
AcDbGroup
300

 70
     3
 71
     0
  0
GROUP
  5
48C8
102
{ACAD_REACTORS
330
18
102
}
330
18
100
AcDbGroup
300

 70
     3
 71
     0
  0
GROUP
  5
62B2
102
{ACAD_REACTORS
330
18
102
}
330
18
100
AcDbGroup
300

 70
     3
 71
     0
  0
GROUP
  5
62CA
102
{ACAD_REACTORS
330
18
102
}
330
18
100
AcDbGroup
300

 70
     3
 71
     0
  0
GROUP
  5
1B3E
102
{ACAD_REACTORS
330
18
102
}
330
18
100
AcDbGroup
300

 70
     3
 71
     0
  0
GROUP
  5
1C27
102
{ACAD_REACTORS
330
18
102
}
330
18
100
AcDbGroup
300

 70
     3
 71
     0
  0
GROUP
  5
486C
102
{ACAD_REACTORS
330
18
102
}
330
18
100
AcDbGroup
300

 70
     3
 71
     0
  0
GROUP
  5
1C56
102
{ACAD_REACTORS
330
18
102
}
330
18
100
AcDbGroup
300

 70
     3
 71
     0
  0
GROUP
  5
489E
102
{ACAD_REACTORS
330
18
102
}
330
18
100
AcDbGroup
300

 70
     3
 71
     0
  0
GROUP
  5
48BD
102
{ACAD_REACTORS
330
18
102
}
330
18
100
AcDbGroup
300

 70
     3
 71
     0
  0
GROUP
  5
1B22
102
{ACAD_REACTORS
330
18
102
}
330
18
100
AcDbGroup
300

 70
     3
 71
     0
  0
GROUP
  5
1AE0
102
{ACAD_REACTORS
330
18
102
}
330
18
100
AcDbGroup
300

 70
     3
 71
     0
  0
MLINESTYLE
  5
1D
102
{ACAD_REACTORS
330
19
102
}
330
19
100
AcDbMlineStyle
  2
STANDARD
 70
     0
  3

 62
     0
 51
90.0
 52
90.0
 71
     2
 49
0.5
 62
   256
  6
BYLAYER
 49
-0.5
 62
   256
  6
BYLAYER
  0
ACDBPLACEHOLDER
  5
EDC6
102
{ACAD_REACTORS
330
EDC5
102
}
330
EDC5
100
AcDbPlaceHolder
280
     0
  0
XRECORD
  5
F4E9
102
{ACAD_REACTORS
330
F4DF
102
}
330
F4DF
100
AcDbXrecord
 90
        0
  0
XRECORD
  5
F4ED
102
{ACAD_REACTORS
330
F4DF
102
}
330
F4DF
100
AcDbXrecord
1000
DSTYLE
1002
{
1070
    79
 70
     2
1070
   179
 70
     1
1002
}
  0
XRECORD
  5
F4EA
102
{ACAD_REACTORS
330
F4DF
102
}
330
F4DF
100
AcDbXrecord
  1
{5EB6113A-69ED-450E-876F-E97B1CCBD74B}
  0
XRECORD
  5
F4E2
102
{ACAD_REACTORS
330
F4DF
102
}
330
F4DF
100
AcDbXrecord
  1

  0
XRECORD
  5
F4E8
102
{ACAD_REACTORS
330
F4DF
102
}
330
F4DF
100
AcDbXrecord
 90
        0
  0
XRECORD
  5
F4E4
102
{ACAD_REACTORS
330
F4DF
102
}
330
F4DF
100
AcDbXrecord
340
EDC7
  0
XRECORD
  5
F4E7
102
{ACAD_REACTORS
330
F4DF
102
}
330
F4DF
100
AcDbXrecord
 90
    14877
  0
XRECORD
  5
F4E5
102
{ACAD_REACTORS
330
F4DF
102
}
330
F4DF
100
AcDbXrecord
340
EDC8
  0
XRECORD
  5
F4E6
102
{ACAD_REACTORS
330
F4DF
102
}
330
F4DF
100
AcDbXrecord
340
EDC5
  0
XRECORD
  5
F4EC
102
{ACAD_REACTORS
330
F4DF
102
}
330
F4DF
100
AcDbXrecord
 40
0.0
  0
XRECORD
  5
F4F0
102
{ACAD_REACTORS
330
F4DF
102
}
330
F4DF
100
AcDbXrecord
340
0
  0
XRECORD
  5
F4F6
102
{ACAD_REACTORS
330
F4DF
102
}
330
F4DF
100
AcDbXrecord
 10
0.0
 20
0.0
 30
0.0
  0
XRECORD
  5
F4F2
102
{ACAD_REACTORS
330
F4DF
102
}
330
F4DF
100
AcDbXrecord
 10
0.0
 20
0.0
 30
0.0
  0
XRECORD
  5
F4F5
102
{ACAD_REACTORS
330
F4DF
102
}
330
F4DF
100
AcDbXrecord
 10
0.0
 20
0.0
 30
0.0
  0
XRECORD
  5
F4F3
102
{ACAD_REACTORS
330
F4DF
102
}
330
F4DF
100
AcDbXrecord
 10
0.0
 20
0.0
 30
0.0
  0
XRECORD
  5
F4F4
102
{ACAD_REACTORS
330
F4DF
102
}
330
F4DF
100
AcDbXrecord
 10
0.0
 20
0.0
 30
0.0
  0
XRECORD
  5
F4F1
102
{ACAD_REACTORS
330
F4DF
102
}
330
F4DF
100
AcDbXrecord
 10
0.0
 20
0.0
 30
0.0
  0
XRECORD
  5
F4EE
102
{ACAD_REACTORS
330
F4DF
102
}
330
F4DF
100
AcDbXrecord
340
0
  0
XRECORD
  5
F4EF
102
{ACAD_REACTORS
330
F4DF
102
}
330
F4DF
100
AcDbXrecord
 70
     0
  0
XRECORD
  5
F4E3
102
{ACAD_REACTORS
330
F4DF
102
}
330
F4DF
100
AcDbXrecord
  1

  0
XRECORD
  5
F4E0
102
{ACAD_REACTORS
330
F4DF
102
}
330
F4DF
100
AcDbXrecord
 90
        1
  0
XRECORD
  5
F4E1
102
{ACAD_REACTORS
330
F4DF
102
}
330
F4DF
100
AcDbXrecord
 90
       70
  0
XRECORD
  5
F4F9
102
{ACAD_REACTORS
330
F4DF
102
}
330
F4DF
100
AcDbXrecord
340
0
  0
XRECORD
  5
F4FF
102
{ACAD_REACTORS
330
F4DF
102
}
330
F4DF
100
AcDbXrecord
 10
0.0
 20
0.0
 30
0.0
  0
XRECORD
  5
F4FB
102
{ACAD_REACTORS
330
F4DF
102
}
330
F4DF
100
AcDbXrecord
 10
0.0
 20
0.0
 30
0.0
  0
XRECORD
  5
F4FE
102
{ACAD_REACTORS
330
F4DF
102
}
330
F4DF
100
AcDbXrecord
 10
0.0
 20
0.0
 30
0.0
  0
XRECORD
  5
F4FC
102
{ACAD_REACTORS
330
F4DF
102
}
330
F4DF
100
AcDbXrecord
 10
0.0
 20
0.0
 30
0.0
  0
XRECORD
  5
F4FD
102
{ACAD_REACTORS
330
F4DF
102
}
330
F4DF
100
AcDbXrecord
 10
0.0
 20
0.0
 30
0.0
  0
XRECORD
  5
F4FA
102
{ACAD_REACTORS
330
F4DF
102
}
330
F4DF
100
AcDbXrecord
 10
0.0
 20
0.0
 30
0.0
  0
XRECORD
  5
F4F7
102
{ACAD_REACTORS
330
F4DF
102
}
330
F4DF
100
AcDbXrecord
340
0
  0
XRECORD
  5
F4F8
102
{ACAD_REACTORS
330
F4DF
102
}
330
F4DF
100
AcDbXrecord
 70
     0
  0
XRECORD
  5
F4EB
102
{ACAD_REACTORS
330
F4DF
102
}
330
F4DF
100
AcDbXrecord
  1
{89C08704-0A31-4D17-8D62-A59C932D9BBA}
  0
DICTIONARYVAR
  5
F4D9
102
{ACAD_REACTORS
330
F4D8
102
}
330
F4D8
100
DictionaryVariables
280
     0
  1
1
  0
ENDSEC
  0
EOF
